  0
SECTION
  2
HEADER
  9
$ACADVER
  1
AC1018
  9
$ACADMAINTVER
 70
   104
  9
$DWGCODEPAGE
  3
ANSI_932
  9
$LASTSAVEDBY
  1
sumita.n
  9
$INSBASE
 10
0.0
 20
0.0
 30
0.0
  9
$EXTMIN
 10
-7.31604949519442
 20
13.24875774035263
 30
-0.0015258207003583
  9
$EXTMAX
 10
3795.916067204295
 20
2531.477258091231
 30
0.0000000349246037
  9
$LIMMIN
 10
0.0
 20
0.0
  9
$LIMMAX
 10
420.0
 20
297.0
  9
$ORTHOMODE
 70
     0
  9
$REGENMODE
 70
     1
  9
$FILLMODE
 70
     1
  9
$QTEXTMODE
 70
     0
  9
$MIRRTEXT
 70
     1
  9
$LTSCALE
 40
1.0
  9
$ATTMODE
 70
     1
  9
$TEXTSIZE
 40
0.0
  9
$TRACEWID
 40
0.05
  9
$TEXTSTYLE
  7
STANDARD
  9
$CLAYER
  8
LAY-4
  9
$CELTYPE
  6
CONTINUOUS
  9
$CECOLOR
 62
   256
  9
$CELTSCALE
 40
1.0
  9
$DISPSILH
 70
     0
  9
$DIMSCALE
 40
1.0
  9
$DIMASZ
 40
2.0
  9
$DIMEXO
 40
0.8
  9
$DIMDLI
 40
0.1
  9
$DIMRND
 40
0.0
  9
$DIMDLE
 40
0.0
  9
$DIMEXE
 40
0.5
  9
$DIMTP
 40
0.0
  9
$DIMTM
 40
0.0
  9
$DIMTXT
 40
3.0
  9
$DIMCEN
 40
0.1
  9
$DIMTSZ
 40
0.0
  9
$DIMTOL
 70
     0
  9
$DIMLIM
 70
     0
  9
$DIMTIH
 70
     0
  9
$DIMTOH
 70
     0
  9
$DIMSE1
 70
     0
  9
$DIMSE2
 70
     0
  9
$DIMTAD
 70
     1
  9
$DIMZIN
 70
     8
  9
$DIMBLK
  1

  9
$DIMASO
 70
     1
  9
$DIMSHO
 70
     1
  9
$DIMPOST
  1

  9
$DIMAPOST
  1

  9
$DIMALT
 70
     0
  9
$DIMALTD
 70
     2
  9
$DIMALTF
 40
25.4
  9
$DIMLFAC
 40
1.0
  9
$DIMTOFL
 70
     0
  9
$DIMTVP
 40
0.0
  9
$DIMTIX
 70
     0
  9
$DIMSOXD
 70
     0
  9
$DIMSAH
 70
     1
  9
$DIMBLK1
  1
OPEN30
  9
$DIMBLK2
  1
OPEN30
  9
$DIMSTYLE
  2
DIM-Ｆ1
  9
$DIMCLRD
 70
     1
  9
$DIMCLRE
 70
     1
  9
$DIMCLRT
 70
     7
  9
$DIMTFAC
 40
1.0
  9
$DIMGAP
 40
0.3
  9
$DIMJUST
 70
     0
  9
$DIMSD1
 70
     0
  9
$DIMSD2
 70
     0
  9
$DIMTOLJ
 70
     1
  9
$DIMTZIN
 70
     0
  9
$DIMALTZ
 70
     0
  9
$DIMALTTZ
 70
     0
  9
$DIMUPT
 70
     0
  9
$DIMDEC
 70
     2
  9
$DIMTDEC
 70
     2
  9
$DIMALTU
 70
     2
  9
$DIMALTTD
 70
     2
  9
$DIMTXSTY
  7
MSゴシック
  9
$DIMAUNIT
 70
     0
  9
$DIMADEC
 70
     0
  9
$DIMALTRND
 40
0.0
  9
$DIMAZIN
 70
     0
  9
$DIMDSEP
 70
    46
  9
$DIMATFIT
 70
     3
  9
$DIMFRAC
 70
     0
  9
$DIMLDRBLK
  1
OPEN30
  9
$DIMLUNIT
 70
     2
  9
$DIMLWD
 70
    -2
  9
$DIMLWE
 70
    -2
  9
$DIMTMOVE
 70
     2
  9
$LUNITS
 70
     2
  9
$LUPREC
 70
     4
  9
$SKETCHINC
 40
0.1
  9
$FILLETRAD
 40
0.0
  9
$AUNITS
 70
     0
  9
$AUPREC
 70
     0
  9
$MENU
  1
acad
  9
$ELEVATION
 40
0.0
  9
$PELEVATION
 40
0.0
  9
$THICKNESS
 40
0.0
  9
$LIMCHECK
 70
     0
  9
$CHAMFERA
 40
0.0
  9
$CHAMFERB
 40
0.0
  9
$CHAMFERC
 40
0.0
  9
$CHAMFERD
 40
0.0
  9
$SKPOLY
 70
     0
  9
$TDCREATE
 40
2454600.370485984
  9
$TDUCREATE
 40
2454599.995485984
  9
$TDUPDATE
 40
2458037.400261921
  9
$TDUUPDATE
 40
2458037.025261921
  9
$TDINDWG
 40
0.0704004514
  9
$TDUSRTIMER
 40
0.0704004514
  9
$USRTIMER
 70
     1
  9
$ANGBASE
 50
0.0
  9
$ANGDIR
 70
     0
  9
$PDMODE
 70
     0
  9
$PDSIZE
 40
0.0
  9
$PLINEWID
 40
0.0
  9
$SPLFRAME
 70
     0
  9
$SPLINETYPE
 70
     6
  9
$SPLINESEGS
 70
     8
  9
$HANDSEED
  5
8A1
  9
$SURFTAB1
 70
     6
  9
$SURFTAB2
 70
     6
  9
$SURFTYPE
 70
     6
  9
$SURFU
 70
     6
  9
$SURFV
 70
     6
  9
$UCSBASE
  2

  9
$UCSNAME
  2

  9
$UCSORG
 10
0.0
 20
0.0
 30
0.0
  9
$UCSXDIR
 10
1.0
 20
0.0
 30
0.0
  9
$UCSYDIR
 10
0.0
 20
1.0
 30
0.0
  9
$UCSORTHOREF
  2

  9
$UCSORTHOVIEW
 70
     0
  9
$UCSORGTOP
 10
0.0
 20
0.0
 30
0.0
  9
$UCSORGBOTTOM
 10
0.0
 20
0.0
 30
0.0
  9
$UCSORGLEFT
 10
0.0
 20
0.0
 30
0.0
  9
$UCSORGRIGHT
 10
0.0
 20
0.0
 30
0.0
  9
$UCSORGFRONT
 10
0.0
 20
0.0
 30
0.0
  9
$UCSORGBACK
 10
0.0
 20
0.0
 30
0.0
  9
$PUCSBASE
  2

  9
$PUCSNAME
  2

  9
$PUCSORG
 10
0.0
 20
0.0
 30
0.0
  9
$PUCSXDIR
 10
1.0
 20
0.0
 30
0.0
  9
$PUCSYDIR
 10
0.0
 20
1.0
 30
0.0
  9
$PUCSORTHOREF
  2

  9
$PUCSORTHOVIEW
 70
     0
  9
$PUCSORGTOP
 10
0.0
 20
0.0
 30
0.0
  9
$PUCSORGBOTTOM
 10
0.0
 20
0.0
 30
0.0
  9
$PUCSORGLEFT
 10
0.0
 20
0.0
 30
0.0
  9
$PUCSORGRIGHT
 10
0.0
 20
0.0
 30
0.0
  9
$PUCSORGFRONT
 10
0.0
 20
0.0
 30
0.0
  9
$PUCSORGBACK
 10
0.0
 20
0.0
 30
0.0
  9
$USERI1
 70
     0
  9
$USERI2
 70
     0
  9
$USERI3
 70
     0
  9
$USERI4
 70
     0
  9
$USERI5
 70
     0
  9
$USERR1
 40
0.0
  9
$USERR2
 40
0.0
  9
$USERR3
 40
0.0
  9
$USERR4
 40
0.0
  9
$USERR5
 40
0.0
  9
$WORLDVIEW
 70
     1
  9
$SHADEDGE
 70
     3
  9
$SHADEDIF
 70
    70
  9
$TILEMODE
 70
     1
  9
$MAXACTVP
 70
    16
  9
$PINSBASE
 10
0.0
 20
0.0
 30
0.0
  9
$PLIMCHECK
 70
     0
  9
$PEXTMIN
 10
1.000000000000000E+20
 20
1.000000000000000E+20
 30
1.000000000000000E+20
  9
$PEXTMAX
 10
-1.000000000000000E+20
 20
-1.000000000000000E+20
 30
-1.000000000000000E+20
  9
$PLIMMIN
 10
0.0
 20
0.0
  9
$PLIMMAX
 10
12.0
 20
9.0
  9
$UNITMODE
 70
     0
  9
$VISRETAIN
 70
     0
  9
$PLINEGEN
 70
     1
  9
$PSLTSCALE
 70
     0
  9
$TREEDEPTH
 70
  3020
  9
$CMLSTYLE
  2
STANDARD
  9
$CMLJUST
 70
     0
  9
$CMLSCALE
 40
1.0
  9
$PROXYGRAPHICS
 70
     0
  9
$MEASUREMENT
 70
     0
  9
$CELWEIGHT
370
    -1
  9
$ENDCAPS
280
     0
  9
$JOINSTYLE
280
     0
  9
$LWDISPLAY
290
     0
  9
$INSUNITS
 70
     0
  9
$HYPERLINKBASE
  1

  9
$STYLESHEET
  1

  9
$XEDIT
290
     1
  9
$CEPSNTYPE
380
     0
  9
$PSTYLEMODE
290
     1
  9
$FINGERPRINTGUID
  2
{14A71223-C182-4163-AADA-D5CD505C20A0}
  9
$VERSIONGUID
  2
{1F4BCBFA-F596-4579-8F1E-2FF5EA6ABAF8}
  9
$EXTNAMES
290
     1
  9
$PSVPSCALE
 40
0.0
  9
$OLESTARTUP
290
     0
  9
$SORTENTS
280
   127
  9
$INDEXCTL
280
     0
  9
$HIDETEXT
280
     0
  9
$XCLIPFRAME
290
     0
  9
$HALOGAP
280
     0
  9
$OBSCOLOR
 70
   257
  9
$OBSLTYPE
280
     0
  9
$INTERSECTIONDISPLAY
280
     0
  9
$INTERSECTIONCOLOR
 70
   257
  9
$DIMASSOC
280
     1
  9
$PROJECTNAME
  1

  0
ENDSEC
  0
SECTION
  2
CLASSES
  0
CLASS
  1
IMAGE
  2
AcDbRasterImage
  3
ISM
 90
     2175
 91
        0
280
     0
281
     1
  0
CLASS
  1
DICTIONARYVAR
  2
AcDbDictionaryVar
  3
ObjectDBX Classes
 90
        0
 91
        8
280
     0
281
     0
  0
CLASS
  1
RASTERVARIABLES
  2
AcDbRasterVariables
  3
ISM
 90
        0
 91
        0
280
     0
281
     0
  0
CLASS
  1
IMAGEDEF
  2
AcDbRasterImageDef
  3
ISM
 90
        0
 91
        0
280
     0
281
     0
  0
CLASS
  1
IMAGEDEF_REACTOR
  2
AcDbRasterImageDefReactor
  3
ISM
 90
        1
 91
        0
280
     0
281
     0
  0
CLASS
  1
IDBUFFER
  2
AcDbIdBuffer
  3
ObjectDBX Classes
 90
        0
 91
        0
280
     0
281
     0
  0
CLASS
  1
SPATIAL_FILTER
  2
AcDbSpatialFilter
  3
ObjectDBX Classes
 90
        0
 91
        0
280
     0
281
     0
  0
CLASS
  1
SORTENTSTABLE
  2
AcDbSortentsTable
  3
ObjectDBX Classes
 90
        0
 91
        0
280
     0
281
     0
  0
CLASS
  1
LAYER_INDEX
  2
AcDbLayerIndex
  3
ObjectDBX Classes
 90
        0
 91
        0
280
     0
281
     0
  0
CLASS
  1
SPATIAL_INDEX
  2
AcDbSpatialIndex
  3
ObjectDBX Classes
 90
        0
 91
        0
280
     0
281
     0
  0
CLASS
  1
OBJECT_PTR
  2
CAseDLPNTableRecord
  3
"ASE-LPNTableRecord"
 90
        1
 91
        0
280
     0
281
     0
  0
CLASS
  1
PLOTSETTINGS
  2
AcDbPlotSettings
  3
ObjectDBX Classes
 90
        0
 91
        0
280
     0
281
     0
  0
CLASS
  1
ACDBDICTIONARYWDFLT
  2
AcDbDictionaryWithDefault
  3
ObjectDBX Classes
 90
        0
 91
        1
280
     0
281
     0
  0
CLASS
  1
WIPEOUT
  2
AcDbWipeout
  3
WipeOut|Product Desc: Object Enabler for WipeOut entity | Company: Autodesk, Inc. | WEB Address: www.autodesk.com
 90
     2175
 91
        0
280
     0
281
     1
  0
CLASS
  1
WIPEOUTVARIABLES
  2
AcDbWipeoutVariables
  3
"WipeOut|Product Desc:     WipeOut Dbx Application|Company:          Autodesk, Inc.|WEB Address:      www.autodesk.com"
 90
        0
 91
        0
280
     0
281
     0
  0
CLASS
  1
RTEXT
  2
RText
  3
RText|AutoCAD Express Tool|expresstools@autodesk.com
 90
        0
 91
        0
280
     0
281
     1
  0
CLASS
  1
ARCALIGNEDTEXT
  2
AcDbArcAlignedText
  3
ATEXT|AutoCAD Express Tool|expresstools@autodesk.com
 90
        0
 91
        0
280
     0
281
     1
  0
CLASS
  1
MATERIAL
  2
AcDbMaterial
  3
ObjectDBX Classes
 90
     1153
 91
        3
280
     0
281
     0
  0
CLASS
  1
VISUALSTYLE
  2
AcDbVisualStyle
  3
ObjectDBX Classes
 90
     4095
 91
       24
280
     0
281
     0
  0
CLASS
  1
TABLESTYLE
  2
AcDbTableStyle
  3
ObjectDBX Classes
 90
     4095
 91
        1
280
     0
281
     0
  0
CLASS
  1
SCALE
  2
AcDbScale
  3
ObjectDBX Classes
 90
     1153
 91
       17
280
     0
281
     0
  0
CLASS
  1
MLEADERSTYLE
  2
AcDbMLeaderStyle
  3
ACDB_MLEADERSTYLE_CLASS
 90
     4095
 91
        1
280
     0
281
     0
  0
CLASS
  1
CELLSTYLEMAP
  2
AcDbCellStyleMap
  3
ObjectDBX Classes
 90
     1152
 91
        1
280
     0
281
     0
  0
ENDSEC
  0
SECTION
  2
TABLES
  0
TABLE
  2
VPORT
  5
7
330
0
100
AcDbSymbolTable
 70
     1
  0
VPORT
  5
15
330
7
100
AcDbSymbolTableRecord
100
AcDbViewportTableRecord
  2
*ACTIVE
 70
     0
 10
0.0
 20
0.0
 11
1.0
 21
1.0
 12
2032.613042533367
 22
1291.426624099434
 13
0.0
 23
0.0
 14
1.0
 24
1.0
 15
0.0
 25
0.0
 16
0.0
 26
0.0
 36
1.0
 17
0.0
 27
0.0
 37
0.0
 40
2570.180182033151
 41
2.100346020761245
 42
50.0
 43
0.0
 44
0.0
 50
0.0
 51
0.0
 71
     0
 72
   100
 73
     1
 74
     1
 75
     0
 76
     0
 77
     0
 78
     0
281
     0
 65
     1
110
0.0
120
0.0
130
0.0
111
1.0
121
0.0
131
0.0
112
0.0
122
1.0
132
0.0
 79
     0
146
0.0
1001
ACAD_NAV_VCDISPLAY
1070
     3
  0
ENDTAB
  0
TABLE
  2
LTYPE
  5
4
330
0
100
AcDbSymbolTable
 70
     9
  0
LTYPE
  5
11
330
4
100
AcDbSymbolTableRecord
100
AcDbLinetypeTableRecord
  2
BYBLOCK
 70
     0
  3

 72
    65
 73
     0
 40
0.0
  0
LTYPE
  5
12
330
4
100
AcDbSymbolTableRecord
100
AcDbLinetypeTableRecord
  2
BYLAYER
 70
     0
  3

 72
    65
 73
     0
 40
0.0
  0
LTYPE
  5
13
330
4
100
AcDbSymbolTableRecord
100
AcDbLinetypeTableRecord
  2
CONTINUOUS
 70
     0
  3
実線
 72
    65
 73
     0
 40
0.0
  0
LTYPE
  5
1D
330
4
100
AcDbSymbolTableRecord
100
AcDbLinetypeTableRecord
  2
EXLTYPE1
 70
     0
  3
破線
 72
    65
 73
     2
 40
4.0
 49
3.0
 74
     0
 49
-1.0
 74
     0
  0
LTYPE
  5
1E
330
4
100
AcDbSymbolTableRecord
100
AcDbLinetypeTableRecord
  2
EXLTYPE2
 70
     0
  3
破線2
 72
    65
 73
     2
 40
2.0
 49
1.0
 74
     0
 49
-1.0
 74
     0
  0
LTYPE
  5
1F
330
4
100
AcDbSymbolTableRecord
100
AcDbLinetypeTableRecord
  2
EXLTYPE3
 70
     0
  3
一点鎖線
 72
    65
 73
     4
 40
33.0
 49
30.0
 74
     0
 49
-1.0
 74
     0
 49
1.0
 74
     0
 49
-1.0
 74
     0
  0
LTYPE
  5
20
330
4
100
AcDbSymbolTableRecord
100
AcDbLinetypeTableRecord
  2
EXLTYPE4
 70
     0
  3
二点鎖線
 72
    65
 73
     6
 40
35.0
 49
30.0
 74
     0
 49
-1.0
 74
     0
 49
1.0
 74
     0
 49
-1.0
 74
     0
 49
1.0
 74
     0
 49
-1.0
 74
     0
  0
LTYPE
  5
21
330
4
100
AcDbSymbolTableRecord
100
AcDbLinetypeTableRecord
  2
EXLTYPE5
 70
     0
  3
三点鎖線
 72
    65
 73
     8
 40
37.0
 49
30.0
 74
     0
 49
-1.0
 74
     0
 49
1.0
 74
     0
 49
-1.0
 74
     0
 49
1.0
 74
     0
 49
-1.0
 74
     0
 49
1.0
 74
     0
 49
-1.0
 74
     0
  0
LTYPE
  5
22
330
4
100
AcDbSymbolTableRecord
100
AcDbLinetypeTableRecord
  2
EXLTYPE6
 70
     0
  3
四点鎖線
 72
    65
 73
    10
 40
39.0
 49
30.0
 74
     0
 49
-1.0
 74
     0
 49
1.0
 74
     0
 49
-1.0
 74
     0
 49
1.0
 74
     0
 49
-1.0
 74
     0
 49
1.0
 74
     0
 49
-1.0
 74
     0
 49
1.0
 74
     0
 49
-1.0
 74
     0
  0
LTYPE
  5
3FF
330
4
100
AcDbSymbolTableRecord
100
AcDbLinetypeTableRecord
  2
CENTER3
 70
     0
  3
Center3 ____ _ ____ _ ____ _ ____ _ ____ _ ____
 72
    65
 73
     4
 40
13.28
 49
9.98
 74
     0
 49
-1.1
 74
     0
 49
1.1
 74
     0
 49
-1.1
 74
     0
  0
LTYPE
  5
400
330
4
100
AcDbSymbolTableRecord
100
AcDbLinetypeTableRecord
  2
DOT
 70
     0
  3
点線
 72
    65
 73
     2
 40
2.0
 49
1.0
 74
     0
 49
-1.0
 74
     0
  0
ENDTAB
  0
TABLE
  2
LAYER
  5
2
102
{ACAD_XDICTIONARY
360
383
102
}
330
0
100
AcDbSymbolTable
 70
    12
  0
LAYER
  5
14
102
{ACAD_XDICTIONARY
360
365
102
}
330
2
100
AcDbSymbolTableRecord
100
AcDbLayerTableRecord
  2
0
 70
     0
 62
     7
  6
CONTINUOUS
370
    -3
390
315
  0
LAYER
  5
25
102
{ACAD_XDICTIONARY
360
367
102
}
330
2
100
AcDbSymbolTableRecord
100
AcDbLayerTableRecord
  2
LAY-1
 70
     0
 62
     7
  6
CONTINUOUS
370
    -3
390
315
  0
LAYER
  5
26
102
{ACAD_XDICTIONARY
360
369
102
}
330
2
100
AcDbSymbolTableRecord
100
AcDbLayerTableRecord
  2
LAY-2
 70
     0
 62
     7
  6
CONTINUOUS
370
    -3
390
315
  0
LAYER
  5
27
102
{ACAD_XDICTIONARY
360
36B
102
}
330
2
100
AcDbSymbolTableRecord
100
AcDbLayerTableRecord
  2
LAY-3
 70
     0
 62
     7
  6
CONTINUOUS
370
    -3
390
315
  0
LAYER
  5
28
102
{ACAD_XDICTIONARY
360
36D
102
}
330
2
100
AcDbSymbolTableRecord
100
AcDbLayerTableRecord
  2
LAY-4
 70
     0
 62
     7
  6
CONTINUOUS
370
    -3
390
315
  0
LAYER
  5
3B9
330
2
100
AcDbSymbolTableRecord
100
AcDbLayerTableRecord
  2
Defpoints
 70
     0
 62
     7
  6
CONTINUOUS
290
     0
370
    -3
390
315
  0
LAYER
  5
401
102
{ACAD_XDICTIONARY
360
402
102
}
330
2
100
AcDbSymbolTableRecord
100
AcDbLayerTableRecord
  2
文字
 70
     0
 62
     7
  6
CONTINUOUS
370
    -3
390
315
  0
LAYER
  5
403
102
{ACAD_XDICTIONARY
360
404
102
}
330
2
100
AcDbSymbolTableRecord
100
AcDbLayerTableRecord
  2
緑
 70
     0
 62
     3
  6
CONTINUOUS
370
    -3
390
315
  0
LAYER
  5
405
102
{ACAD_XDICTIONARY
360
406
102
}
330
2
100
AcDbSymbolTableRecord
100
AcDbLayerTableRecord
  2
赤
 70
     0
 62
     1
  6
CONTINUOUS
370
    -3
390
315
  0
LAYER
  5
407
102
{ACAD_XDICTIONARY
360
408
102
}
330
2
100
AcDbSymbolTableRecord
100
AcDbLayerTableRecord
  2
中心線
 70
     0
 62
   230
  6
CENTER3
370
    -3
390
315
  0
LAYER
  5
409
102
{ACAD_XDICTIONARY
360
40A
102
}
330
2
100
AcDbSymbolTableRecord
100
AcDbLayerTableRecord
  2
寸法線
 70
     0
 62
     1
  6
CONTINUOUS
370
    -3
390
315
  0
LAYER
  5
40B
102
{ACAD_XDICTIONARY
360
40C
102
}
330
2
100
AcDbSymbolTableRecord
100
AcDbLayerTableRecord
  2
破線
 70
     0
 62
   230
  6
DOT
370
    -3
390
315
  0
ENDTAB
  0
TABLE
  2
STYLE
  5
3
330
0
100
AcDbSymbolTable
 70
     6
  0
STYLE
  5
17
330
3
100
AcDbSymbolTableRecord
100
AcDbTextStyleTableRecord
  2
STANDARD
 70
     0
 40
0.0
 41
1.0
 50
0.0
 71
     0
 42
0.0
  3
monotxt
  4
extfont
  0
STYLE
  5
23
330
3
100
AcDbSymbolTableRecord
100
AcDbTextStyleTableRecord
  2
EXCADSTD
 70
     0
 40
0.0
 41
1.0
 50
0.0
 71
     0
 42
0.2
  3
monotxt
  4
extfont
  0
STYLE
  5
24
330
3
100
AcDbSymbolTableRecord
100
AcDbTextStyleTableRecord
  2
EXCADVERT
 70
     4
 40
0.0
 41
1.0
 50
0.0
 71
     0
 42
0.286885
  3
monotxt
  4
extfont
  0
STYLE
  5
1BC
330
3
100
AcDbSymbolTableRecord
100
AcDbTextStyleTableRecord
  2
EXCADTTF1
 70
     0
 40
0.0
 41
1.0
 50
0.0
 71
     0
 42
0.2
  3

  4

1001
ACAD
1000
MS Gothic
1071
    32817
  0
STYLE
  5
40D
330
3
100
AcDbSymbolTableRecord
100
AcDbTextStyleTableRecord
  2
MSゴシック
 70
     0
 40
0.0
 41
1.0
 50
0.0
 71
     0
 42
3.0
  3

  4

1001
ACAD
1000
MS Gothic
1071
    32817
  0
ENDTAB
  0
TABLE
  2
VIEW
  5
5
330
0
100
AcDbSymbolTable
 70
     0
  0
ENDTAB
  0
TABLE
  2
UCS
  5
6
330
0
100
AcDbSymbolTable
 70
     0
  0
ENDTAB
  0
TABLE
  2
APPID
  5
8
330
0
100
AcDbSymbolTable
 70
     5
  0
APPID
  5
16
330
8
100
AcDbSymbolTableRecord
100
AcDbRegAppTableRecord
  2
ACAD
 70
     0
  0
APPID
  5
36F
330
8
100
AcDbSymbolTableRecord
100
AcDbRegAppTableRecord
  2
ACAD_NAV_VCDISPLAY
 70
     0
  0
APPID
  5
3B6
330
8
100
AcDbSymbolTableRecord
100
AcDbRegAppTableRecord
  2
ACAD_EXEMPT_FROM_CAD_STANDARDS
 70
     0
  0
APPID
  5
410
330
8
100
AcDbSymbolTableRecord
100
AcDbRegAppTableRecord
  2
ACAD_PSEXT
 70
     0
  0
APPID
  5
8A0
330
8
100
AcDbSymbolTableRecord
100
AcDbRegAppTableRecord
  2
ACAD_MLEADERVER
 70
     0
  0
ENDTAB
  0
TABLE
  2
DIMSTYLE
  5
9
330
0
100
AcDbSymbolTable
 70
     4
100
AcDbDimStyleTable
 71
     3
340
40E
340
40F
340
18
  0
DIMSTYLE
105
18
330
9
100
AcDbSymbolTableRecord
100
AcDbDimStyleTableRecord
  2
STANDARD
 70
     0
340
17
  0
DIMSTYLE
105
40E
330
9
100
AcDbSymbolTableRecord
100
AcDbDimStyleTableRecord
  2
DIM-Ｆ1
 70
     0
 41
2.0
 42
0.8
 43
0.1
 44
0.5
 73
     0
 74
     0
 77
     1
 78
     8
140
3.0
141
0.1
147
0.3
173
     1
176
     1
177
     1
178
     7
271
     2
272
     2
279
     2
340
40D
341
3C7
343
3C7
344
3C7
  0
DIMSTYLE
105
40F
330
9
100
AcDbSymbolTableRecord
100
AcDbDimStyleTableRecord
  2
DIM-Ｆ2
 70
     0
 41
2.0
 42
0.8
 43
0.1
 44
0.5
 73
     0
 74
     0
 76
     1
 77
     1
 78
     8
140
3.0
141
0.1
147
0.3
173
     1
176
     1
177
     1
178
     7
271
     2
272
     2
279
     2
340
40D
341
3C7
343
3C7
344
3CD
  0
ENDTAB
  0
TABLE
  2
BLOCK_RECORD
  5
1
330
0
100
AcDbSymbolTable
 70
    22
  0
BLOCK_RECORD
  5
A
330
1
100
AcDbSymbolTableRecord
100
AcDbBlockTableRecord
  2
*MODEL_SPACE
340
361
  0
BLOCK_RECORD
  5
B
330
1
100
AcDbSymbolTableRecord
100
AcDbBlockTableRecord
  2
*PAPER_SPACE
340
362
  0
BLOCK_RECORD
  5
29
330
1
100
AcDbSymbolTableRecord
100
AcDbBlockTableRecord
  2
_EX_NORM
340
0
  0
BLOCK_RECORD
  5
2A
330
1
100
AcDbSymbolTableRecord
100
AcDbBlockTableRecord
  2
_EX_BNORM
340
0
  0
BLOCK_RECORD
  5
2B
330
1
100
AcDbSymbolTableRecord
100
AcDbBlockTableRecord
  2
_EX_BCIR
340
0
  0
BLOCK_RECORD
  5
2C
330
1
100
AcDbSymbolTableRecord
100
AcDbBlockTableRecord
  2
_EX_RCIVIL
340
0
  0
BLOCK_RECORD
  5
2D
330
1
100
AcDbSymbolTableRecord
100
AcDbBlockTableRecord
  2
_EX_SLANT
340
0
  0
BLOCK_RECORD
  5
2E
330
1
100
AcDbSymbolTableRecord
100
AcDbBlockTableRecord
  2
_EX_NONE
340
0
  0
BLOCK_RECORD
  5
2F
330
1
100
AcDbSymbolTableRecord
100
AcDbBlockTableRecord
  2
_EX_CIVIL
340
0
  0
BLOCK_RECORD
  5
30
330
1
100
AcDbSymbolTableRecord
100
AcDbBlockTableRecord
  2
_EX_WCIR
340
0
  0
BLOCK_RECORD
  5
31
330
1
100
AcDbSymbolTableRecord
100
AcDbBlockTableRecord
  2
_EX_WCIR2
340
0
  0
BLOCK_RECORD
  5
32
330
1
100
AcDbSymbolTableRecord
100
AcDbBlockTableRecord
  2
_EX_WNORM
340
0
  0
BLOCK_RECORD
  5
33
330
1
100
AcDbSymbolTableRecord
100
AcDbBlockTableRecord
  2
_EX_NNORM
340
0
  0
BLOCK_RECORD
  5
34
330
1
100
AcDbSymbolTableRecord
100
AcDbBlockTableRecord
  2
_EX_BBOX
340
0
  0
BLOCK_RECORD
  5
35
330
1
100
AcDbSymbolTableRecord
100
AcDbBlockTableRecord
  2
_EX_WBOX
340
0
  0
BLOCK_RECORD
  5
36
330
1
100
AcDbSymbolTableRecord
100
AcDbBlockTableRecord
  2
_EX_INTEGRAL
340
0
  0
BLOCK_RECORD
  5
3C7
330
1
100
AcDbSymbolTableRecord
100
AcDbBlockTableRecord
  2
_OPEN30
340
0
102
{BLKREFS
331
825
331
826
331
832
331
833
331
83F
331
840
331
84C
331
84D
331
859
331
85A
102
}
  0
BLOCK_RECORD
  5
3CD
330
1
100
AcDbSymbolTableRecord
100
AcDbBlockTableRecord
  2
_NONE
340
0
  0
BLOCK_RECORD
  5
816
330
1
100
AcDbSymbolTableRecord
100
AcDbBlockTableRecord
  2
*D16
340
0
  0
BLOCK_RECORD
  5
82C
330
1
100
AcDbSymbolTableRecord
100
AcDbBlockTableRecord
  2
*D17
340
0
  0
BLOCK_RECORD
  5
839
330
1
100
AcDbSymbolTableRecord
100
AcDbBlockTableRecord
  2
*D18
340
0
  0
BLOCK_RECORD
  5
846
330
1
100
AcDbSymbolTableRecord
100
AcDbBlockTableRecord
  2
*D19
340
0
  0
BLOCK_RECORD
  5
853
330
1
100
AcDbSymbolTableRecord
100
AcDbBlockTableRecord
  2
*D20
340
0
  0
ENDTAB
  0
ENDSEC
  0
SECTION
  2
BLOCKS
  0
BLOCK
  5
D
330
A
100
AcDbEntity
  8
0
100
AcDbBlockBegin
  2
*MODEL_SPACE
 70
     0
 10
0.0
 20
0.0
 30
0.0
  3
*MODEL_SPACE
  1

  0
ENDBLK
  5
E
330
A
100
AcDbEntity
  8
0
100
AcDbBlockEnd
  0
BLOCK
  5
F
330
B
100
AcDbEntity
 67
     1
  8
0
100
AcDbBlockBegin
  2
*PAPER_SPACE
 70
     0
 10
0.0
 20
0.0
 30
0.0
  3
*PAPER_SPACE
  1

  0
ENDBLK
  5
10
330
B
100
AcDbEntity
 67
     1
  8
0
100
AcDbBlockEnd
  0
BLOCK
  5
37
330
29
100
AcDbEntity
  8
0
100
AcDbBlockBegin
  2
_EX_NORM
 70
     0
 10
0.0
 20
0.0
 30
0.0
  3
_EX_NORM
  1

  0
LINE
  5
38
330
29
100
AcDbEntity
  8
0
  6
Continuous
 62
     0
100
AcDbLine
 10
0.0
 20
0.0
 30
0.0
 11
-1.0
 21
0.0
 31
0.0
  0
LINE
  5
39
330
29
100
AcDbEntity
  8
0
  6
Continuous
 62
     0
100
AcDbLine
 10
0.0
 20
0.0
 30
0.0
 11
-1.0
 21
0.166667
 31
0.0
  0
LINE
  5
3A
330
29
100
AcDbEntity
  8
0
  6
Continuous
 62
     0
100
AcDbLine
 10
0.0
 20
0.0
 30
0.0
 11
-1.0
 21
-0.166667
 31
0.0
  0
ENDBLK
  5
3B
330
29
100
AcDbEntity
  8
0
100
AcDbBlockEnd
  0
BLOCK
  5
3C
330
2A
100
AcDbEntity
  8
0
100
AcDbBlockBegin
  2
_EX_BNORM
 70
     0
 10
0.0
 20
0.0
 30
0.0
  3
_EX_BNORM
  1

  0
LINE
  5
3D
330
2A
100
AcDbEntity
  8
0
  6
Continuous
 62
     0
100
AcDbLine
 10
0.0
 20
0.0
 30
0.0
 11
-1.0
 21
0.0
 31
0.0
  0
LINE
  5
3E
330
2A
100
AcDbEntity
  8
0
  6
Continuous
 62
     0
100
AcDbLine
 10
0.0
 20
0.0
 30
0.0
 11
-1.0
 21
0.166667
 31
0.0
  0
LINE
  5
3F
330
2A
100
AcDbEntity
  8
0
  6
Continuous
 62
     0
100
AcDbLine
 10
0.0
 20
0.0
 30
0.0
 11
-1.0
 21
-0.166667
 31
0.0
  0
LINE
  5
40
330
2A
100
AcDbEntity
  8
0
  6
Continuous
 62
     0
100
AcDbLine
 10
0.0
 20
0.0
 30
0.0
 11
-1.0
 21
0.083333
 31
0.0
  0
LINE
  5
41
330
2A
100
AcDbEntity
  8
0
  6
Continuous
 62
     0
100
AcDbLine
 10
0.0
 20
0.0
 30
0.0
 11
-1.0
 21
-0.083333
 31
0.0
  0
LINE
  5
42
330
2A
100
AcDbEntity
  8
0
  6
Continuous
 62
     0
100
AcDbLine
 10
-1.0
 20
0.166667
 30
0.0
 11
-1.0
 21
-0.166667
 31
0.0
  0
ENDBLK
  5
43
330
2A
100
AcDbEntity
  8
0
100
AcDbBlockEnd
  0
BLOCK
  5
44
330
2B
100
AcDbEntity
  8
0
100
AcDbBlockBegin
  2
_EX_BCIR
 70
     0
 10
0.0
 20
0.0
 30
0.0
  3
_EX_BCIR
  1

  0
LINE
  5
45
330
2B
100
AcDbEntity
  8
0
  6
Continuous
 62
     0
100
AcDbLine
 10
0.0
 20
0.0
 30
0.0
 11
-1.0
 21
0.0
 31
0.0
  0
CIRCLE
  5
46
330
2B
100
AcDbEntity
  8
0
  6
Continuous
 62
     0
100
AcDbCircle
 10
0.0
 20
0.0
 30
0.0
 40
0.5
  0
CIRCLE
  5
47
330
2B
100
AcDbEntity
  8
0
  6
Continuous
 62
     0
100
AcDbCircle
 10
0.0
 20
0.0
 30
0.0
 40
0.25
  0
ENDBLK
  5
48
330
2B
100
AcDbEntity
  8
0
100
AcDbBlockEnd
  0
BLOCK
  5
49
330
2C
100
AcDbEntity
  8
0
100
AcDbBlockBegin
  2
_EX_RCIVIL
 70
     0
 10
0.0
 20
0.0
 30
0.0
  3
_EX_RCIVIL
  1

  0
LINE
  5
4A
330
2C
100
AcDbEntity
  8
0
  6
Continuous
 62
     0
100
AcDbLine
 10
0.0
 20
0.0
 30
0.0
 11
-1.0
 21
0.0
 31
0.0
  0
LINE
  5
4B
330
2C
100
AcDbEntity
  8
0
  6
Continuous
 62
     0
100
AcDbLine
 10
-1.0
 20
-0.25
 30
0.0
 11
0.0
 21
-0.25
 31
0.0
  0
LINE
  5
4C
330
2C
100
AcDbEntity
  8
0
  6
Continuous
 62
     0
100
AcDbLine
 10
-1.0
 20
-0.125
 30
0.0
 11
0.0
 21
-0.125
 31
0.0
  0
ENDBLK
  5
4D
330
2C
100
AcDbEntity
  8
0
100
AcDbBlockEnd
  0
BLOCK
  5
4E
330
2D
100
AcDbEntity
  8
0
100
AcDbBlockBegin
  2
_EX_SLANT
 70
     0
 10
0.0
 20
0.0
 30
0.0
  3
_EX_SLANT
  1

  0
LINE
  5
4F
330
2D
100
AcDbEntity
  8
0
  6
Continuous
 62
     0
100
AcDbLine
 10
0.0
 20
0.0
 30
0.0
 11
-1.0
 21
0.0
 31
0.0
  0
LINE
  5
50
330
2D
100
AcDbEntity
  8
0
  6
Continuous
 62
     0
100
AcDbLine
 10
0.7071069999999999
 20
0.7071069999999999
 30
0.0
 11
-0.7071069999999999
 21
-0.7071069999999999
 31
0.0
  0
ENDBLK
  5
51
330
2D
100
AcDbEntity
  8
0
100
AcDbBlockEnd
  0
BLOCK
  5
52
330
2E
100
AcDbEntity
  8
0
100
AcDbBlockBegin
  2
_EX_NONE
 70
     0
 10
0.0
 20
0.0
 30
0.0
  3
_EX_NONE
  1

  0
LINE
  5
53
330
2E
100
AcDbEntity
  8
0
  6
Continuous
 62
     0
100
AcDbLine
 10
0.0
 20
0.0
 30
0.0
 11
-1.0
 21
0.0
 31
0.0
  0
ENDBLK
  5
54
330
2E
100
AcDbEntity
  8
0
100
AcDbBlockEnd
  0
BLOCK
  5
55
330
2F
100
AcDbEntity
  8
0
100
AcDbBlockBegin
  2
_EX_CIVIL
 70
     0
 10
0.0
 20
0.0
 30
0.0
  3
_EX_CIVIL
  1

  0
LINE
  5
56
330
2F
100
AcDbEntity
  8
0
  6
Continuous
 62
     0
100
AcDbLine
 10
0.0
 20
0.0
 30
0.0
 11
-1.0
 21
0.0
 31
0.0
  0
LINE
  5
57
330
2F
100
AcDbEntity
  8
0
  6
Continuous
 62
     0
100
AcDbLine
 10
-1.0
 20
0.25
 30
0.0
 11
0.0
 21
0.25
 31
0.0
  0
LINE
  5
58
330
2F
100
AcDbEntity
  8
0
  6
Continuous
 62
     0
100
AcDbLine
 10
-1.0
 20
0.125
 30
0.0
 11
0.0
 21
0.125
 31
0.0
  0
ENDBLK
  5
59
330
2F
100
AcDbEntity
  8
0
100
AcDbBlockEnd
  0
BLOCK
  5
5A
330
30
100
AcDbEntity
  8
0
100
AcDbBlockBegin
  2
_EX_WCIR
 70
     0
 10
0.0
 20
0.0
 30
0.0
  3
_EX_WCIR
  1

  0
LINE
  5
5B
330
30
100
AcDbEntity
  8
0
  6
Continuous
 62
     0
100
AcDbLine
 10
0.0
 20
0.0
 30
0.0
 11
-1.0
 21
0.0
 31
0.0
  0
CIRCLE
  5
5C
330
30
100
AcDbEntity
  8
0
  6
Continuous
 62
     0
100
AcDbCircle
 10
0.0
 20
0.0
 30
0.0
 40
0.5
  0
ENDBLK
  5
5D
330
30
100
AcDbEntity
  8
0
100
AcDbBlockEnd
  0
BLOCK
  5
5E
330
31
100
AcDbEntity
  8
0
100
AcDbBlockBegin
  2
_EX_WCIR2
 70
     0
 10
0.0
 20
0.0
 30
0.0
  3
_EX_WCIR2
  1

  0
LINE
  5
5F
330
31
100
AcDbEntity
  8
0
  6
Continuous
 62
     0
100
AcDbLine
 10
-0.5
 20
0.0
 30
0.0
 11
-1.0
 21
0.0
 31
0.0
  0
CIRCLE
  5
60
330
31
100
AcDbEntity
  8
0
  6
Continuous
 62
     0
100
AcDbCircle
 10
0.0
 20
0.0
 30
0.0
 40
0.5
  0
ENDBLK
  5
61
330
31
100
AcDbEntity
  8
0
100
AcDbBlockEnd
  0
BLOCK
  5
62
330
32
100
AcDbEntity
  8
0
100
AcDbBlockBegin
  2
_EX_WNORM
 70
     0
 10
0.0
 20
0.0
 30
0.0
  3
_EX_WNORM
  1

  0
LINE
  5
63
330
32
100
AcDbEntity
  8
0
  6
Continuous
 62
     0
100
AcDbLine
 10
-1.0
 20
0.0
 30
0.0
 11
-1.0
 21
0.0
 31
0.0
  0
LINE
  5
64
330
32
100
AcDbEntity
  8
0
  6
Continuous
 62
     0
100
AcDbLine
 10
0.0
 20
0.0
 30
0.0
 11
-1.0
 21
0.166667
 31
0.0
  0
LINE
  5
65
330
32
100
AcDbEntity
  8
0
  6
Continuous
 62
     0
100
AcDbLine
 10
0.0
 20
0.0
 30
0.0
 11
-1.0
 21
-0.166667
 31
0.0
  0
LINE
  5
66
330
32
100
AcDbEntity
  8
0
  6
Continuous
 62
     0
100
AcDbLine
 10
-1.0
 20
0.166667
 30
0.0
 11
-1.0
 21
-0.166667
 31
0.0
  0
ENDBLK
  5
67
330
32
100
AcDbEntity
  8
0
100
AcDbBlockEnd
  0
BLOCK
  5
68
330
33
100
AcDbEntity
  8
0
100
AcDbBlockBegin
  2
_EX_NNORM
 70
     0
 10
0.0
 20
0.0
 30
0.0
  3
_EX_NNORM
  1

  0
LINE
  5
69
330
33
100
AcDbEntity
  8
0
  6
Continuous
 62
     0
100
AcDbLine
 10
0.0
 20
0.0
 30
0.0
 11
-1.0
 21
0.0
 31
0.0
  0
LINE
  5
6A
330
33
100
AcDbEntity
  8
0
  6
Continuous
 62
     0
100
AcDbLine
 10
0.0
 20
0.0
 30
0.0
 11
-1.0
 21
0.166667
 31
0.0
  0
LINE
  5
6B
330
33
100
AcDbEntity
  8
0
  6
Continuous
 62
     0
100
AcDbLine
 10
0.0
 20
0.0
 30
0.0
 11
-1.0
 21
-0.166667
 31
0.0
  0
LINE
  5
6C
330
33
100
AcDbEntity
  8
0
  6
Continuous
 62
     0
100
AcDbLine
 10
-1.0
 20
0.166667
 30
0.0
 11
-1.0
 21
-0.166667
 31
0.0
  0
ENDBLK
  5
6D
330
33
100
AcDbEntity
  8
0
100
AcDbBlockEnd
  0
BLOCK
  5
6E
330
34
100
AcDbEntity
  8
0
100
AcDbBlockBegin
  2
_EX_BBOX
 70
     0
 10
0.0
 20
0.0
 30
0.0
  3
_EX_BBOX
  1

  0
LINE
  5
6F
330
34
100
AcDbEntity
  8
0
  6
Continuous
 62
     0
100
AcDbLine
 10
0.0
 20
0.0
 30
0.0
 11
-1.0
 21
0.0
 31
0.0
  0
LINE
  5
70
330
34
100
AcDbEntity
  8
0
  6
Continuous
 62
     0
100
AcDbLine
 10
-0.5
 20
0.5
 30
0.0
 11
0.5
 21
0.5
 31
0.0
  0
LINE
  5
71
330
34
100
AcDbEntity
  8
0
  6
Continuous
 62
     0
100
AcDbLine
 10
0.5
 20
0.5
 30
0.0
 11
0.5
 21
-0.5
 31
0.0
  0
LINE
  5
72
330
34
100
AcDbEntity
  8
0
  6
Continuous
 62
     0
100
AcDbLine
 10
0.5
 20
-0.5
 30
0.0
 11
-0.5
 21
-0.5
 31
0.0
  0
LINE
  5
73
330
34
100
AcDbEntity
  8
0
  6
Continuous
 62
     0
100
AcDbLine
 10
-0.5
 20
-0.5
 30
0.0
 11
-0.5
 21
0.5
 31
0.0
  0
LINE
  5
74
330
34
100
AcDbEntity
  8
0
  6
Continuous
 62
     0
100
AcDbLine
 10
-0.25
 20
0.25
 30
0.0
 11
0.25
 21
0.25
 31
0.0
  0
LINE
  5
75
330
34
100
AcDbEntity
  8
0
  6
Continuous
 62
     0
100
AcDbLine
 10
0.25
 20
0.25
 30
0.0
 11
0.25
 21
-0.25
 31
0.0
  0
LINE
  5
76
330
34
100
AcDbEntity
  8
0
  6
Continuous
 62
     0
100
AcDbLine
 10
0.25
 20
-0.25
 30
0.0
 11
-0.25
 21
-0.25
 31
0.0
  0
LINE
  5
77
330
34
100
AcDbEntity
  8
0
  6
Continuous
 62
     0
100
AcDbLine
 10
-0.25
 20
-0.25
 30
0.0
 11
-0.25
 21
0.25
 31
0.0
  0
ENDBLK
  5
78
330
34
100
AcDbEntity
  8
0
100
AcDbBlockEnd
  0
BLOCK
  5
79
330
35
100
AcDbEntity
  8
0
100
AcDbBlockBegin
  2
_EX_WBOX
 70
     0
 10
0.0
 20
0.0
 30
0.0
  3
_EX_WBOX
  1

  0
LINE
  5
7A
330
35
100
AcDbEntity
  8
0
  6
Continuous
 62
     0
100
AcDbLine
 10
-0.5
 20
0.0
 30
0.0
 11
-1.0
 21
0.0
 31
0.0
  0
LINE
  5
7B
330
35
100
AcDbEntity
  8
0
  6
Continuous
 62
     0
100
AcDbLine
 10
-0.5
 20
0.5
 30
0.0
 11
0.5
 21
0.5
 31
0.0
  0
LINE
  5
7C
330
35
100
AcDbEntity
  8
0
  6
Continuous
 62
     0
100
AcDbLine
 10
0.5
 20
0.5
 30
0.0
 11
0.5
 21
-0.5
 31
0.0
  0
LINE
  5
7D
330
35
100
AcDbEntity
  8
0
  6
Continuous
 62
     0
100
AcDbLine
 10
0.5
 20
-0.5
 30
0.0
 11
-0.5
 21
-0.5
 31
0.0
  0
LINE
  5
7E
330
35
100
AcDbEntity
  8
0
  6
Continuous
 62
     0
100
AcDbLine
 10
-0.5
 20
-0.5
 30
0.0
 11
-0.5
 21
0.5
 31
0.0
  0
ENDBLK
  5
7F
330
35
100
AcDbEntity
  8
0
100
AcDbBlockEnd
  0
BLOCK
  5
80
330
36
100
AcDbEntity
  8
0
100
AcDbBlockBegin
  2
_EX_INTEGRAL
 70
     0
 10
0.0
 20
0.0
 30
0.0
  3
_EX_INTEGRAL
  1

  0
LINE
  5
81
330
36
100
AcDbEntity
  8
0
  6
Continuous
 62
     0
100
AcDbLine
 10
0.0
 20
0.0
 30
0.0
 11
-1.0
 21
0.0
 31
0.0
  0
ARC
  5
82
330
36
100
AcDbEntity
  8
0
  6
Continuous
 62
     0
100
AcDbCircle
 10
0.0
 20
0.0
 30
0.0
 40
0.7071069999999999
100
AcDbArc
 50
90.0
 51
180.0
  0
ARC
  5
83
330
36
100
AcDbEntity
  8
0
  6
Continuous
 62
     0
100
AcDbCircle
 10
0.0
 20
0.0
 30
0.0
 40
0.7071069999999999
100
AcDbArc
 50
270.0
 51
0.0
  0
ENDBLK
  5
84
330
36
100
AcDbEntity
  8
0
100
AcDbBlockEnd
  0
BLOCK
  5
3C8
330
3C7
100
AcDbEntity
  8
0
100
AcDbBlockBegin
  2
_OPEN30
 70
     0
 10
0.0
 20
0.0
 30
0.0
  3
_OPEN30
  1

  0
LINE
  5
3C9
330
3C7
100
AcDbEntity
  8
0
  6
ByBlock
 62
     0
100
AcDbLine
 10
-1.0
 20
0.26794919
 30
0.0
 11
0.0
 21
0.0
 31
0.0
  0
LINE
  5
3CA
330
3C7
100
AcDbEntity
  8
0
  6
ByBlock
 62
     0
100
AcDbLine
 10
0.0
 20
0.0
 30
0.0
 11
-1.0
 21
-0.26794919
 31
0.0
  0
LINE
  5
3CB
330
3C7
100
AcDbEntity
  8
0
  6
ByBlock
 62
     0
100
AcDbLine
 10
0.0
 20
0.0
 30
0.0
 11
-1.0
 21
0.0
 31
0.0
  0
ENDBLK
  5
3CC
330
3C7
100
AcDbEntity
  8
0
100
AcDbBlockEnd
  0
BLOCK
  5
3CE
330
3CD
100
AcDbEntity
  8
0
100
AcDbBlockBegin
  2
_NONE
 70
     0
 10
0.0
 20
0.0
 30
0.0
  3
_NONE
  1

  0
CIRCLE
  5
3CF
330
3CD
100
AcDbEntity
  8
0
  6
ByBlock
 62
     0
100
AcDbCircle
 10
0.0
 20
0.0
 30
0.0
 40
0.25
  0
ENDBLK
  5
3D0
330
3CD
100
AcDbEntity
  8
0
100
AcDbBlockEnd
  0
BLOCK
  5
817
330
816
100
AcDbEntity
  8
0
100
AcDbBlockBegin
  2
*D16
 70
     1
 10
0.0
 20
0.0
 30
0.0
  3
*D16
  1

  0
LINE
  5
822
330
816
100
AcDbEntity
  8
LAY-4
  6
Continuous
 62
     1
440
 16777216
370
    -2
100
AcDbLine
 10
259.2166699999998
 20
1865.73933
 30
0.0
 11
259.2166699999998
 21
1919.049524938743
 31
0.0
  0
LINE
  5
823
330
816
100
AcDbEntity
  8
LAY-4
  6
Continuous
 62
     1
440
 16777216
370
    -2
100
AcDbLine
 10
359.2166799999997
 20
1865.73933
 30
0.0
 11
359.2166799999997
 21
1919.049524938743
 31
0.0
  0
LINE
  5
824
330
816
100
AcDbEntity
  8
LAY-4
  6
Continuous
 62
     1
440
 16777216
370
    -2
100
AcDbLine
 10
261.2166699999998
 20
1918.549524938743
 30
0.0
 11
357.2166799999998
 21
1918.549524938743
 31
0.0
  0
INSERT
  5
825
330
816
100
AcDbEntity
  8
LAY-4
  6
Continuous
 62
     1
440
 16777216
370
    -2
100
AcDbBlockReference
  2
_OPEN30
 10
259.2166699999998
 20
1918.549524938743
 30
0.0
 41
2.0
 42
2.0
 43
2.0
 50
180.0
  0
INSERT
  5
826
330
816
100
AcDbEntity
  8
LAY-4
  6
Continuous
 62
     1
440
 16777216
370
    -2
100
AcDbBlockReference
  2
_OPEN30
 10
359.2166799999997
 20
1918.549524938743
 30
0.0
 41
2.0
 42
2.0
 43
2.0
  0
MTEXT
  5
827
330
816
100
AcDbEntity
  8
LAY-4
  6
Continuous
 62
     7
440
 16777216
100
AcDbMText
 10
309.2166749999998
 20
1920.349524938743
 30
0.0
 40
3.0
 41
0.0
 71
     5
 72
     1
  1
\A1;100
  7
MSゴシック
 73
     1
 44
1.0
  0
POINT
  5
828
330
816
100
AcDbEntity
  8
Defpoints
  6
Continuous
 62
     0
440
 16777216
100
AcDbPoint
 10
259.2166699999998
 20
1864.93933
 30
0.0
  0
POINT
  5
829
330
816
100
AcDbEntity
  8
Defpoints
  6
Continuous
 62
     0
440
 16777216
100
AcDbPoint
 10
359.2166799999997
 20
1864.93933
 30
0.0
  0
POINT
  5
82A
330
816
100
AcDbEntity
  8
Defpoints
  6
Continuous
 62
     0
440
 16777216
100
AcDbPoint
 10
359.2166799999997
 20
1918.549524938743
 30
0.0
  0
ENDBLK
  5
818
330
816
100
AcDbEntity
  8
0
100
AcDbBlockEnd
  0
BLOCK
  5
82D
330
82C
100
AcDbEntity
  8
0
100
AcDbBlockBegin
  2
*D17
 70
     1
 10
0.0
 20
0.0
 30
0.0
  3
*D17
  1

  0
LINE
  5
82F
330
82C
100
AcDbEntity
  8
LAY-4
  6
Continuous
 62
     1
440
 16777216
370
    -2
100
AcDbLine
 10
893.5499999999997
 20
1867.73933
 30
0.0
 11
893.5499999999997
 21
1930.701279226968
 31
0.0
  0
LINE
  5
830
330
82C
100
AcDbEntity
  8
LAY-4
  6
Continuous
 62
     1
440
 16777216
370
    -2
100
AcDbLine
 10
993.5500099999996
 20
1867.73933
 30
0.0
 11
993.5500099999996
 21
1930.701279226968
 31
0.0
  0
LINE
  5
831
330
82C
100
AcDbEntity
  8
LAY-4
  6
Continuous
 62
     1
440
 16777216
370
    -2
100
AcDbLine
 10
895.5499999999997
 20
1930.201279226968
 30
0.0
 11
991.5500099999997
 21
1930.201279226968
 31
0.0
  0
INSERT
  5
832
330
82C
100
AcDbEntity
  8
LAY-4
  6
Continuous
 62
     1
440
 16777216
370
    -2
100
AcDbBlockReference
  2
_OPEN30
 10
893.5499999999997
 20
1930.201279226968
 30
0.0
 41
2.0
 42
2.0
 43
2.0
 50
180.0
  0
INSERT
  5
833
330
82C
100
AcDbEntity
  8
LAY-4
  6
Continuous
 62
     1
440
 16777216
370
    -2
100
AcDbBlockReference
  2
_OPEN30
 10
993.5500099999996
 20
1930.201279226968
 30
0.0
 41
2.0
 42
2.0
 43
2.0
  0
MTEXT
  5
834
330
82C
100
AcDbEntity
  8
LAY-4
  6
Continuous
 62
     7
440
 16777216
100
AcDbMText
 10
943.5500049999998
 20
1932.001279226968
 30
0.0
 40
3.0
 41
0.0
 71
     5
 72
     1
  1
\A1;100
  7
MSゴシック
 73
     1
 44
1.0
  0
POINT
  5
835
330
82C
100
AcDbEntity
  8
Defpoints
  6
Continuous
 62
     0
440
 16777216
100
AcDbPoint
 10
893.5499999999997
 20
1866.93933
 30
0.0
  0
POINT
  5
836
330
82C
100
AcDbEntity
  8
Defpoints
  6
Continuous
 62
     0
440
 16777216
100
AcDbPoint
 10
993.5500099999996
 20
1866.93933
 30
0.0
  0
POINT
  5
837
330
82C
100
AcDbEntity
  8
Defpoints
  6
Continuous
 62
     0
440
 16777216
100
AcDbPoint
 10
993.5500099999996
 20
1930.201279226968
 30
0.0
  0
ENDBLK
  5
82E
330
82C
100
AcDbEntity
  8
0
100
AcDbBlockEnd
  0
BLOCK
  5
83A
330
839
100
AcDbEntity
  8
0
100
AcDbBlockBegin
  2
*D18
 70
     1
 10
0.0
 20
0.0
 30
0.0
  3
*D18
  1

  0
LINE
  5
83C
330
839
100
AcDbEntity
  8
LAY-4
  6
Continuous
 62
     1
440
 16777216
370
    -2
100
AcDbLine
 10
262.2166399999998
 20
1888.55081
 30
0.0
 11
262.2166399999998
 21
1898.235613331865
 31
0.0
  0
LINE
  5
83D
330
839
100
AcDbEntity
  8
LAY-4
  6
Continuous
 62
     1
440
 16777216
370
    -2
100
AcDbLine
 10
276.2166199999997
 20
1888.55081
 30
0.0
 11
276.2166199999997
 21
1898.235613331865
 31
0.0
  0
LINE
  5
83E
330
839
100
AcDbEntity
  8
LAY-4
  6
Continuous
 62
     1
440
 16777216
370
    -2
100
AcDbLine
 10
264.2166399999998
 20
1897.735613331865
 30
0.0
 11
274.2166199999997
 21
1897.735613331865
 31
0.0
  0
INSERT
  5
83F
330
839
100
AcDbEntity
  8
LAY-4
  6
Continuous
 62
     1
440
 16777216
370
    -2
100
AcDbBlockReference
  2
_OPEN30
 10
262.2166399999998
 20
1897.735613331865
 30
0.0
 41
2.0
 42
2.0
 43
2.0
 50
180.0
  0
INSERT
  5
840
330
839
100
AcDbEntity
  8
LAY-4
  6
Continuous
 62
     1
440
 16777216
370
    -2
100
AcDbBlockReference
  2
_OPEN30
 10
276.2166199999997
 20
1897.735613331865
 30
0.0
 41
2.0
 42
2.0
 43
2.0
  0
MTEXT
  5
841
330
839
100
AcDbEntity
  8
LAY-4
  6
Continuous
 62
     7
440
 16777216
100
AcDbMText
 10
269.2166299999997
 20
1899.535613331865
 30
0.0
 40
3.0
 41
0.0
 71
     5
 72
     1
  1
\A1;14
  7
MSゴシック
 73
     1
 44
1.0
  0
POINT
  5
842
330
839
100
AcDbEntity
  8
Defpoints
  6
Continuous
 62
     0
440
 16777216
100
AcDbPoint
 10
262.2166399999998
 20
1887.75081
 30
0.0
  0
POINT
  5
843
330
839
100
AcDbEntity
  8
Defpoints
  6
Continuous
 62
     0
440
 16777216
100
AcDbPoint
 10
276.2166199999997
 20
1887.75081
 30
0.0
  0
POINT
  5
844
330
839
100
AcDbEntity
  8
Defpoints
  6
Continuous
 62
     0
440
 16777216
100
AcDbPoint
 10
276.2166199999997
 20
1897.735613331865
 30
0.0
  0
ENDBLK
  5
83B
330
839
100
AcDbEntity
  8
0
100
AcDbBlockEnd
  0
BLOCK
  5
847
330
846
100
AcDbEntity
  8
0
100
AcDbBlockBegin
  2
*D19
 70
     1
 10
0.0
 20
0.0
 30
0.0
  3
*D19
  1

  0
LINE
  5
849
330
846
100
AcDbEntity
  8
LAY-4
  6
Continuous
 62
     1
440
 16777216
370
    -2
100
AcDbLine
 10
342.2167299999996
 20
1888.55081
 30
0.0
 11
342.2167299999996
 21
1904.099673860551
 31
0.0
  0
LINE
  5
84A
330
846
100
AcDbEntity
  8
LAY-4
  6
Continuous
 62
     1
440
 16777216
370
    -2
100
AcDbLine
 10
356.2167099999998
 20
1888.55081
 30
0.0
 11
356.2167099999998
 21
1904.099673860551
 31
0.0
  0
LINE
  5
84B
330
846
100
AcDbEntity
  8
LAY-4
  6
Continuous
 62
     1
440
 16777216
370
    -2
100
AcDbLine
 10
344.2167299999996
 20
1903.599673860551
 30
0.0
 11
354.2167099999998
 21
1903.599673860551
 31
0.0
  0
INSERT
  5
84C
330
846
100
AcDbEntity
  8
LAY-4
  6
Continuous
 62
     1
440
 16777216
370
    -2
100
AcDbBlockReference
  2
_OPEN30
 10
342.2167299999996
 20
1903.599673860551
 30
0.0
 41
2.0
 42
2.0
 43
2.0
 50
180.0
  0
INSERT
  5
84D
330
846
100
AcDbEntity
  8
LAY-4
  6
Continuous
 62
     1
440
 16777216
370
    -2
100
AcDbBlockReference
  2
_OPEN30
 10
356.2167099999998
 20
1903.599673860551
 30
0.0
 41
2.0
 42
2.0
 43
2.0
  0
MTEXT
  5
84E
330
846
100
AcDbEntity
  8
LAY-4
  6
Continuous
 62
     7
440
 16777216
100
AcDbMText
 10
349.2167199999997
 20
1905.399673860551
 30
0.0
 40
3.0
 41
0.0
 71
     5
 72
     1
  1
\A1;14
  7
MSゴシック
 73
     1
 44
1.0
  0
POINT
  5
84F
330
846
100
AcDbEntity
  8
Defpoints
  6
Continuous
 62
     0
440
 16777216
100
AcDbPoint
 10
342.2167299999996
 20
1887.75081
 30
0.0
  0
POINT
  5
850
330
846
100
AcDbEntity
  8
Defpoints
  6
Continuous
 62
     0
440
 16777216
100
AcDbPoint
 10
356.2167099999998
 20
1887.75081
 30
0.0
  0
POINT
  5
851
330
846
100
AcDbEntity
  8
Defpoints
  6
Continuous
 62
     0
440
 16777216
100
AcDbPoint
 10
356.2167099999998
 20
1903.599673860551
 30
0.0
  0
ENDBLK
  5
848
330
846
100
AcDbEntity
  8
0
100
AcDbBlockEnd
  0
BLOCK
  5
854
330
853
100
AcDbEntity
  8
0
100
AcDbBlockBegin
  2
*D20
 70
     1
 10
0.0
 20
0.0
 30
0.0
  3
*D20
  1

  0
LINE
  5
856
330
853
100
AcDbEntity
  8
LAY-4
  6
Continuous
 62
     1
440
 16777216
370
    -2
100
AcDbLine
 10
2161.21667
 20
1876.73933
 30
0.0
 11
2161.21667
 21
1939.077849534963
 31
0.0
  0
LINE
  5
857
330
853
100
AcDbEntity
  8
LAY-4
  6
Continuous
 62
     1
440
 16777216
370
    -2
100
AcDbLine
 10
2261.21668
 20
1876.73933
 30
0.0
 11
2261.21668
 21
1939.077849534963
 31
0.0
  0
LINE
  5
858
330
853
100
AcDbEntity
  8
LAY-4
  6
Continuous
 62
     1
440
 16777216
370
    -2
100
AcDbLine
 10
2163.21667
 20
1938.577849534963
 30
0.0
 11
2259.21668
 21
1938.577849534963
 31
0.0
  0
INSERT
  5
859
330
853
100
AcDbEntity
  8
LAY-4
  6
Continuous
 62
     1
440
 16777216
370
    -2
100
AcDbBlockReference
  2
_OPEN30
 10
2161.21667
 20
1938.577849534963
 30
0.0
 41
2.0
 42
2.0
 43
2.0
 50
180.0
  0
INSERT
  5
85A
330
853
100
AcDbEntity
  8
LAY-4
  6
Continuous
 62
     1
440
 16777216
370
    -2
100
AcDbBlockReference
  2
_OPEN30
 10
2261.21668
 20
1938.577849534963
 30
0.0
 41
2.0
 42
2.0
 43
2.0
  0
MTEXT
  5
85B
330
853
100
AcDbEntity
  8
LAY-4
  6
Continuous
 62
     7
440
 16777216
100
AcDbMText
 10
2211.216675
 20
1940.377849534963
 30
0.0
 40
3.0
 41
0.0
 71
     5
 72
     1
  1
\A1;100
  7
MSゴシック
 73
     1
 44
1.0
  0
POINT
  5
85C
330
853
100
AcDbEntity
  8
Defpoints
  6
Continuous
 62
     0
440
 16777216
100
AcDbPoint
 10
2161.21667
 20
1875.93933
 30
0.0
  0
POINT
  5
85D
330
853
100
AcDbEntity
  8
Defpoints
  6
Continuous
 62
     0
440
 16777216
100
AcDbPoint
 10
2261.21668
 20
1875.93933
 30
0.0
  0
POINT
  5
85E
330
853
100
AcDbEntity
  8
Defpoints
  6
Continuous
 62
     0
440
 16777216
100
AcDbPoint
 10
2261.21668
 20
1938.577849534963
 30
0.0
  0
ENDBLK
  5
855
330
853
100
AcDbEntity
  8
0
100
AcDbBlockEnd
  0
ENDSEC
  0
SECTION
  2
ENTITIES
  0
LINE
  5
85
330
A
100
AcDbEntity
  8
LAY-3
  6
Continuous
 62
     2
100
AcDbLine
 10
1049.63191
 20
2454.3
 30
0.0
 11
1069.96809
 21
2454.3
 31
0.0
  0
LINE
  5
86
330
A
100
AcDbEntity
  8
LAY-3
  6
Continuous
 62
     2
100
AcDbLine
 10
1035.19025
 20
2450.8
 30
0.0
 11
1084.40975
 21
2450.8
 31
0.0
  0
LINE
  5
87
330
A
100
AcDbEntity
  8
LAY-3
  6
Continuous
 62
     2
100
AcDbLine
 10
1026.88511
 20
2447.3
 30
0.0
 11
1092.71489
 21
2447.3
 31
0.0
  0
LINE
  5
88
330
A
100
AcDbEntity
  8
LAY-3
  6
Continuous
 62
     2
100
AcDbLine
 10
1020.6
 20
2443.8
 30
0.0
 11
1099.0
 21
2443.8
 31
0.0
  0
LINE
  5
89
330
A
100
AcDbEntity
  8
LAY-3
  6
Continuous
 62
     2
100
AcDbLine
 10
1015.46728
 20
2440.3
 30
0.0
 11
1104.13272
 21
2440.3
 31
0.0
  0
LINE
  5
8A
330
A
100
AcDbEntity
  8
LAY-3
  6
Continuous
 62
     2
100
AcDbLine
 10
1011.12105
 20
2436.8
 30
0.0
 11
1108.47895
 21
2436.8
 31
0.0
  0
LINE
  5
8B
330
A
100
AcDbEntity
  8
LAY-3
  6
Continuous
 62
     2
100
AcDbLine
 10
884.7999999999998
 20
2433.3
 30
0.0
 11
997.5805899999999
 21
2433.3
 31
0.0
  0
LINE
  5
8C
330
A
100
AcDbEntity
  8
LAY-3
  6
Continuous
 62
     2
100
AcDbLine
 10
1007.36537
 20
2433.3
 30
0.0
 11
1112.23463
 21
2433.3
 31
0.0
  0
LINE
  5
8D
330
A
100
AcDbEntity
  8
LAY-3
  6
Continuous
 62
     2
100
AcDbLine
 10
1122.01941
 20
2433.3
 30
0.0
 11
1206.8
 21
2433.3
 31
0.0
  0
LINE
  5
8E
330
A
100
AcDbEntity
  8
LAY-3
  6
Continuous
 62
     2
100
AcDbLine
 10
1218.7
 20
2433.3
 30
0.0
 11
1312.5
 21
2433.3
 31
0.0
  0
LINE
  5
8F
330
A
100
AcDbEntity
  8
LAY-3
  6
Continuous
 62
     2
100
AcDbLine
 10
1323.0
 20
2433.3
 30
0.0
 11
1346.8
 21
2433.3
 31
0.0
  0
LINE
  5
90
330
A
100
AcDbEntity
  8
LAY-3
  6
Continuous
 62
     2
100
AcDbLine
 10
1395.8
 20
2433.3
 30
0.0
 11
1419.6
 21
2433.3
 31
0.0
  0
LINE
  5
91
330
A
100
AcDbEntity
  8
LAY-3
  6
Continuous
 62
     2
100
AcDbLine
 10
884.7999999999998
 20
2429.8
 30
0.0
 11
994.78843
 21
2429.8
 31
0.0
  0
LINE
  5
92
330
A
100
AcDbEntity
  8
LAY-3
  6
Continuous
 62
     2
100
AcDbLine
 10
1004.0807
 20
2429.8
 30
0.0
 11
1115.5193
 21
2429.8
 31
0.0
  0
LINE
  5
93
330
A
100
AcDbEntity
  8
LAY-3
  6
Continuous
 62
     2
100
AcDbLine
 10
1124.81157
 20
2429.8
 30
0.0
 11
1206.8
 21
2429.8
 31
0.0
  0
LINE
  5
94
330
A
100
AcDbEntity
  8
LAY-3
  6
Continuous
 62
     2
100
AcDbLine
 10
1218.7
 20
2429.8
 30
0.0
 11
1312.5
 21
2429.8
 31
0.0
  0
LINE
  5
95
330
A
100
AcDbEntity
  8
LAY-3
  6
Continuous
 62
     2
100
AcDbLine
 10
1323.0
 20
2429.8
 30
0.0
 11
1349.10331
 21
2429.8
 31
0.0
  0
LINE
  5
96
330
A
100
AcDbEntity
  8
LAY-3
  6
Continuous
 62
     2
100
AcDbLine
 10
1395.8
 20
2429.8
 30
0.0
 11
1419.6
 21
2429.8
 31
0.0
  0
LINE
  5
97
330
A
100
AcDbEntity
  8
LAY-3
  6
Continuous
 62
     2
100
AcDbLine
 10
884.7999999999998
 20
2426.3
 30
0.0
 11
992.2925599999999
 21
2426.3
 31
0.0
  0
LINE
  5
98
330
A
100
AcDbEntity
  8
LAY-3
  6
Continuous
 62
     2
100
AcDbLine
 10
1001.1878
 20
2426.3
 30
0.0
 11
1041.61347
 21
2426.3
 31
0.0
  0
LINE
  5
99
330
A
100
AcDbEntity
  8
LAY-3
  6
Continuous
 62
     2
100
AcDbLine
 10
1077.98653
 20
2426.3
 30
0.0
 11
1118.4122
 21
2426.3
 31
0.0
  0
LINE
  5
9A
330
A
100
AcDbEntity
  8
LAY-3
  6
Continuous
 62
     2
100
AcDbLine
 10
1127.30744
 20
2426.3
 30
0.0
 11
1206.8
 21
2426.3
 31
0.0
  0
LINE
  5
9B
330
A
100
AcDbEntity
  8
LAY-3
  6
Continuous
 62
     2
100
AcDbLine
 10
1218.7
 20
2426.3
 30
0.0
 11
1312.5
 21
2426.3
 31
0.0
  0
LINE
  5
9C
330
A
100
AcDbEntity
  8
LAY-3
  6
Continuous
 62
     2
100
AcDbLine
 10
1323.0
 20
2426.3
 30
0.0
 11
1351.40662
 21
2426.3
 31
0.0
  0
LINE
  5
9D
330
A
100
AcDbEntity
  8
LAY-3
  6
Continuous
 62
     2
100
AcDbLine
 10
1395.8
 20
2426.3
 30
0.0
 11
1419.6
 21
2426.3
 31
0.0
  0
LINE
  5
9E
330
A
100
AcDbEntity
  8
LAY-3
  6
Continuous
 62
     2
100
AcDbLine
 10
884.7999999999998
 20
2422.8
 30
0.0
 11
990.0611699999998
 21
2422.8
 31
0.0
  0
LINE
  5
9F
330
A
100
AcDbEntity
  8
LAY-3
  6
Continuous
 62
     2
100
AcDbLine
 10
998.63105
 20
2422.8
 30
0.0
 11
1034.56114
 21
2422.8
 31
0.0
  0
LINE
  5
A0
330
A
100
AcDbEntity
  8
LAY-3
  6
Continuous
 62
     2
100
AcDbLine
 10
1085.03886
 20
2422.8
 30
0.0
 11
1120.96895
 21
2422.8
 31
0.0
  0
LINE
  5
A1
330
A
100
AcDbEntity
  8
LAY-3
  6
Continuous
 62
     2
100
AcDbLine
 10
1129.53883
 20
2422.8
 30
0.0
 11
1206.8
 21
2422.8
 31
0.0
  0
LINE
  5
A2
330
A
100
AcDbEntity
  8
LAY-3
  6
Continuous
 62
     2
100
AcDbLine
 10
1218.7
 20
2422.8
 30
0.0
 11
1312.5
 21
2422.8
 31
0.0
  0
LINE
  5
A3
330
A
100
AcDbEntity
  8
LAY-3
  6
Continuous
 62
     2
100
AcDbLine
 10
1323.0
 20
2422.8
 30
0.0
 11
1353.70993
 21
2422.8
 31
0.0
  0
LINE
  5
A4
330
A
100
AcDbEntity
  8
LAY-3
  6
Continuous
 62
     2
100
AcDbLine
 10
1395.8
 20
2422.8
 30
0.0
 11
1419.6
 21
2422.8
 31
0.0
  0
LINE
  5
A5
330
A
100
AcDbEntity
  8
LAY-3
  6
Continuous
 62
     2
100
AcDbLine
 10
884.7999999999998
 20
2419.3
 30
0.0
 11
988.0695699999998
 21
2419.3
 31
0.0
  0
LINE
  5
A6
330
A
100
AcDbEntity
  8
LAY-3
  6
Continuous
 62
     2
100
AcDbLine
 10
996.3697999999999
 20
2419.3
 30
0.0
 11
1029.48911
 21
2419.3
 31
0.0
  0
LINE
  5
A7
330
A
100
AcDbEntity
  8
LAY-3
  6
Continuous
 62
     2
100
AcDbLine
 10
1090.11089
 20
2419.3
 30
0.0
 11
1123.2302
 21
2419.3
 31
0.0
  0
LINE
  5
A8
330
A
100
AcDbEntity
  8
LAY-3
  6
Continuous
 62
     2
100
AcDbLine
 10
1131.530429999999
 20
2419.3
 30
0.0
 11
1206.8
 21
2419.3
 31
0.0
  0
LINE
  5
A9
330
A
100
AcDbEntity
  8
LAY-3
  6
Continuous
 62
     2
100
AcDbLine
 10
1218.7
 20
2419.3
 30
0.0
 11
1312.5
 21
2419.3
 31
0.0
  0
LINE
  5
AA
330
A
100
AcDbEntity
  8
LAY-3
  6
Continuous
 62
     2
100
AcDbLine
 10
1323.0
 20
2419.3
 30
0.0
 11
1356.01324
 21
2419.3
 31
0.0
  0
LINE
  5
AB
330
A
100
AcDbEntity
  8
LAY-3
  6
Continuous
 62
     2
100
AcDbLine
 10
1395.8
 20
2419.3
 30
0.0
 11
1419.6
 21
2419.3
 31
0.0
  0
LINE
  5
AC
330
A
100
AcDbEntity
  8
LAY-3
  6
Continuous
 62
     2
100
AcDbLine
 10
884.7999999999998
 20
2415.8
 30
0.0
 11
986.2982699999999
 21
2415.8
 31
0.0
  0
LINE
  5
AD
330
A
100
AcDbEntity
  8
LAY-3
  6
Continuous
 62
     2
100
AcDbLine
 10
994.3733999999999
 20
2415.8
 30
0.0
 11
1025.50714
 21
2415.8
 31
0.0
  0
LINE
  5
AE
330
A
100
AcDbEntity
  8
LAY-3
  6
Continuous
 62
     2
100
AcDbLine
 10
1047.49512
 20
2415.8
 30
0.0
 11
1072.10488
 21
2415.8
 31
0.0
  0
LINE
  5
AF
330
A
100
AcDbEntity
  8
LAY-3
  6
Continuous
 62
     2
100
AcDbLine
 10
1094.09286
 20
2415.8
 30
0.0
 11
1125.2266
 21
2415.8
 31
0.0
  0
LINE
  5
B0
330
A
100
AcDbEntity
  8
LAY-3
  6
Continuous
 62
     2
100
AcDbLine
 10
1133.30173
 20
2415.8
 30
0.0
 11
1206.8
 21
2415.8
 31
0.0
  0
LINE
  5
B1
330
A
100
AcDbEntity
  8
LAY-3
  6
Continuous
 62
     2
100
AcDbLine
 10
1218.7
 20
2415.8
 30
0.0
 11
1312.5
 21
2415.8
 31
0.0
  0
LINE
  5
B2
330
A
100
AcDbEntity
  8
LAY-3
  6
Continuous
 62
     2
100
AcDbLine
 10
1323.0
 20
2415.8
 30
0.0
 11
1358.31654
 21
2415.8
 31
0.0
  0
LINE
  5
B3
330
A
100
AcDbEntity
  8
LAY-3
  6
Continuous
 62
     2
100
AcDbLine
 10
1395.8
 20
2415.8
 30
0.0
 11
1419.6
 21
2415.8
 31
0.0
  0
LINE
  5
B4
330
A
100
AcDbEntity
  8
LAY-3
  6
Continuous
 62
     2
100
AcDbLine
 10
884.7999999999998
 20
2412.3
 30
0.0
 11
984.7316699999998
 21
2412.3
 31
0.0
  0
LINE
  5
B5
330
A
100
AcDbEntity
  8
LAY-3
  6
Continuous
 62
     2
100
AcDbLine
 10
992.61823
 20
2412.3
 30
0.0
 11
1022.26668
 21
2412.3
 31
0.0
  0
LINE
  5
B6
330
A
100
AcDbEntity
  8
LAY-3
  6
Continuous
 62
     2
100
AcDbLine
 10
1040.2
 20
2412.3
 30
0.0
 11
1079.4
 21
2412.3
 31
0.0
  0
LINE
  5
B7
330
A
100
AcDbEntity
  8
LAY-3
  6
Continuous
 62
     2
100
AcDbLine
 10
1097.33332
 20
2412.3
 30
0.0
 11
1126.98177
 21
2412.3
 31
0.0
  0
LINE
  5
B8
330
A
100
AcDbEntity
  8
LAY-3
  6
Continuous
 62
     2
100
AcDbLine
 10
1134.86833
 20
2412.3
 30
0.0
 11
1206.8
 21
2412.3
 31
0.0
  0
LINE
  5
B9
330
A
100
AcDbEntity
  8
LAY-3
  6
Continuous
 62
     2
100
AcDbLine
 10
1218.7
 20
2412.3
 30
0.0
 11
1312.5
 21
2412.3
 31
0.0
  0
LINE
  5
BA
330
A
100
AcDbEntity
  8
LAY-3
  6
Continuous
 62
     2
100
AcDbLine
 10
1323.0
 20
2412.3
 30
0.0
 11
1360.61985
 21
2412.3
 31
0.0
  0
LINE
  5
BB
330
A
100
AcDbEntity
  8
LAY-3
  6
Continuous
 62
     2
100
AcDbLine
 10
1395.8
 20
2412.3
 30
0.0
 11
1419.6
 21
2412.3
 31
0.0
  0
LINE
  5
BC
330
A
100
AcDbEntity
  8
LAY-3
  6
Continuous
 62
     2
100
AcDbLine
 10
933.7999999999999
 20
2408.8
 30
0.0
 11
958.3
 21
2408.8
 31
0.0
  0
LINE
  5
BD
330
A
100
AcDbEntity
  8
LAY-3
  6
Continuous
 62
     2
100
AcDbLine
 10
991.08581
 20
2408.8
 30
0.0
 11
1019.58806
 21
2408.8
 31
0.0
  0
LINE
  5
BE
330
A
100
AcDbEntity
  8
LAY-3
  6
Continuous
 62
     2
100
AcDbLine
 10
1035.46053
 20
2408.8
 30
0.0
 11
1084.13947
 21
2408.8
 31
0.0
  0
LINE
  5
BF
330
A
100
AcDbEntity
  8
LAY-3
  6
Continuous
 62
     2
100
AcDbLine
 10
1100.01194
 20
2408.8
 30
0.0
 11
1128.51419
 21
2408.8
 31
0.0
  0
LINE
  5
C0
330
A
100
AcDbEntity
  8
LAY-3
  6
Continuous
 62
     2
100
AcDbLine
 10
1179.80128
 20
2408.8
 30
0.0
 11
1206.8
 21
2408.8
 31
0.0
  0
LINE
  5
C1
330
A
100
AcDbEntity
  8
LAY-3
  6
Continuous
 62
     2
100
AcDbLine
 10
1218.7
 20
2408.8
 30
0.0
 11
1243.2
 21
2408.8
 31
0.0
  0
LINE
  5
C2
330
A
100
AcDbEntity
  8
LAY-3
  6
Continuous
 62
     2
100
AcDbLine
 10
1323.0
 20
2408.8
 30
0.0
 11
1362.92316
 21
2408.8
 31
0.0
  0
LINE
  5
C3
330
A
100
AcDbEntity
  8
LAY-3
  6
Continuous
 62
     2
100
AcDbLine
 10
1395.8
 20
2408.8
 30
0.0
 11
1419.6
 21
2408.8
 31
0.0
  0
LINE
  5
C4
330
A
100
AcDbEntity
  8
LAY-3
  6
Continuous
 62
     2
100
AcDbLine
 10
933.7999999999999
 20
2405.3
 30
0.0
 11
958.3
 21
2405.3
 31
0.0
  0
LINE
  5
C5
330
A
100
AcDbEntity
  8
LAY-3
  6
Continuous
 62
     2
100
AcDbLine
 10
989.7615099999999
 20
2405.3
 30
0.0
 11
1017.36476
 21
2405.3
 31
0.0
  0
LINE
  5
C6
330
A
100
AcDbEntity
  8
LAY-3
  6
Continuous
 62
     2
100
AcDbLine
 10
1031.94035
 20
2405.3
 30
0.0
 11
1087.65965
 21
2405.3
 31
0.0
  0
LINE
  5
C7
330
A
100
AcDbEntity
  8
LAY-3
  6
Continuous
 62
     2
100
AcDbLine
 10
1102.23524
 20
2405.3
 30
0.0
 11
1129.83849
 21
2405.3
 31
0.0
  0
LINE
  5
C8
330
A
100
AcDbEntity
  8
LAY-3
  6
Continuous
 62
     2
100
AcDbLine
 10
1176.64604
 20
2405.3
 30
0.0
 11
1203.64475
 21
2405.3
 31
0.0
  0
LINE
  5
C9
330
A
100
AcDbEntity
  8
LAY-3
  6
Continuous
 62
     2
100
AcDbLine
 10
1218.7
 20
2405.3
 30
0.0
 11
1243.2
 21
2405.3
 31
0.0
  0
LINE
  5
CA
330
A
100
AcDbEntity
  8
LAY-3
  6
Continuous
 62
     2
100
AcDbLine
 10
1323.0
 20
2405.3
 30
0.0
 11
1365.22647
 21
2405.3
 31
0.0
  0
LINE
  5
CB
330
A
100
AcDbEntity
  8
LAY-3
  6
Continuous
 62
     2
100
AcDbLine
 10
1395.8
 20
2405.3
 30
0.0
 11
1419.6
 21
2405.3
 31
0.0
  0
LINE
  5
CC
330
A
100
AcDbEntity
  8
LAY-3
  6
Continuous
 62
     2
100
AcDbLine
 10
933.7999999999999
 20
2401.8
 30
0.0
 11
958.3
 21
2401.8
 31
0.0
  0
LINE
  5
CD
330
A
100
AcDbEntity
  8
LAY-3
  6
Continuous
 62
     2
100
AcDbLine
 10
988.6337199999999
 20
2401.8
 30
0.0
 11
1015.52811
 21
2401.8
 31
0.0
  0
LINE
  5
CE
330
A
100
AcDbEntity
  8
LAY-3
  6
Continuous
 62
     2
100
AcDbLine
 10
1029.21553
 20
2401.8
 30
0.0
 11
1090.38447
 21
2401.8
 31
0.0
  0
LINE
  5
CF
330
A
100
AcDbEntity
  8
LAY-3
  6
Continuous
 62
     2
100
AcDbLine
 10
1104.07189
 20
2401.8
 30
0.0
 11
1130.96628
 21
2401.8
 31
0.0
  0
LINE
  5
D0
330
A
100
AcDbEntity
  8
LAY-3
  6
Continuous
 62
     2
100
AcDbLine
 10
1173.49079
 20
2401.8
 30
0.0
 11
1200.48951
 21
2401.8
 31
0.0
  0
LINE
  5
D1
330
A
100
AcDbEntity
  8
LAY-3
  6
Continuous
 62
     2
100
AcDbLine
 10
1218.7
 20
2401.8
 30
0.0
 11
1243.2
 21
2401.8
 31
0.0
  0
LINE
  5
D2
330
A
100
AcDbEntity
  8
LAY-3
  6
Continuous
 62
     2
100
AcDbLine
 10
1323.0
 20
2401.8
 30
0.0
 11
1346.8
 21
2401.8
 31
0.0
  0
LINE
  5
D3
330
A
100
AcDbEntity
  8
LAY-3
  6
Continuous
 62
     2
100
AcDbLine
 10
1347.43051
 20
2401.8
 30
0.0
 11
1367.52978
 21
2401.8
 31
0.0
  0
LINE
  5
D4
330
A
100
AcDbEntity
  8
LAY-3
  6
Continuous
 62
     2
100
AcDbLine
 10
1395.8
 20
2401.8
 30
0.0
 11
1419.6
 21
2401.8
 31
0.0
  0
LINE
  5
D5
330
A
100
AcDbEntity
  8
LAY-3
  6
Continuous
 62
     2
100
AcDbLine
 10
933.7999999999999
 20
2398.3
 30
0.0
 11
958.3
 21
2398.3
 31
0.0
  0
LINE
  5
D6
330
A
100
AcDbEntity
  8
LAY-3
  6
Continuous
 62
     2
100
AcDbLine
 10
987.6931999999998
 20
2398.3
 30
0.0
 11
1014.03156
 21
2398.3
 31
0.0
  0
LINE
  5
D7
330
A
100
AcDbEntity
  8
LAY-3
  6
Continuous
 62
     2
100
AcDbLine
 10
1027.0867
 20
2398.3
 30
0.0
 11
1092.5133
 21
2398.3
 31
0.0
  0
LINE
  5
D8
330
A
100
AcDbEntity
  8
LAY-3
  6
Continuous
 62
     2
100
AcDbLine
 10
1105.56844
 20
2398.3
 30
0.0
 11
1131.9068
 21
2398.3
 31
0.0
  0
LINE
  5
D9
330
A
100
AcDbEntity
  8
LAY-3
  6
Continuous
 62
     2
100
AcDbLine
 10
1170.33555
 20
2398.3
 30
0.0
 11
1197.33426
 21
2398.3
 31
0.0
  0
LINE
  5
DA
330
A
100
AcDbEntity
  8
LAY-3
  6
Continuous
 62
     2
100
AcDbLine
 10
1218.7
 20
2398.3
 30
0.0
 11
1243.2
 21
2398.3
 31
0.0
  0
LINE
  5
DB
330
A
100
AcDbEntity
  8
LAY-3
  6
Continuous
 62
     2
100
AcDbLine
 10
1323.0
 20
2398.3
 30
0.0
 11
1346.8
 21
2398.3
 31
0.0
  0
LINE
  5
DC
330
A
100
AcDbEntity
  8
LAY-3
  6
Continuous
 62
     2
100
AcDbLine
 10
1349.73382
 20
2398.3
 30
0.0
 11
1369.83309
 21
2398.3
 31
0.0
  0
LINE
  5
DD
330
A
100
AcDbEntity
  8
LAY-3
  6
Continuous
 62
     2
100
AcDbLine
 10
1395.8
 20
2398.3
 30
0.0
 11
1419.6
 21
2398.3
 31
0.0
  0
LINE
  5
DE
330
A
100
AcDbEntity
  8
LAY-3
  6
Continuous
 62
     2
100
AcDbLine
 10
933.7999999999999
 20
2394.8
 30
0.0
 11
958.3
 21
2394.8
 31
0.0
  0
LINE
  5
DF
330
A
100
AcDbEntity
  8
LAY-3
  6
Continuous
 62
     2
100
AcDbLine
 10
986.93272
 20
2394.8
 30
0.0
 11
1012.84257
 21
2394.8
 31
0.0
  0
LINE
  5
E0
330
A
100
AcDbEntity
  8
LAY-3
  6
Continuous
 62
     2
100
AcDbLine
 10
1025.4429
 20
2394.8
 30
0.0
 11
1094.1571
 21
2394.8
 31
0.0
  0
LINE
  5
E1
330
A
100
AcDbEntity
  8
LAY-3
  6
Continuous
 62
     2
100
AcDbLine
 10
1106.75743
 20
2394.8
 30
0.0
 11
1132.66728
 21
2394.8
 31
0.0
  0
LINE
  5
E2
330
A
100
AcDbEntity
  8
LAY-3
  6
Continuous
 62
     2
100
AcDbLine
 10
1167.1803
 20
2394.8
 30
0.0
 11
1194.17901
 21
2394.8
 31
0.0
  0
LINE
  5
E3
330
A
100
AcDbEntity
  8
LAY-3
  6
Continuous
 62
     2
100
AcDbLine
 10
1218.7
 20
2394.8
 30
0.0
 11
1243.2
 21
2394.8
 31
0.0
  0
LINE
  5
E4
330
A
100
AcDbEntity
  8
LAY-3
  6
Continuous
 62
     2
100
AcDbLine
 10
1323.0
 20
2394.8
 30
0.0
 11
1346.8
 21
2394.8
 31
0.0
  0
LINE
  5
E5
330
A
100
AcDbEntity
  8
LAY-3
  6
Continuous
 62
     2
100
AcDbLine
 10
1352.03713
 20
2394.8
 30
0.0
 11
1372.136399999999
 21
2394.8
 31
0.0
  0
LINE
  5
E6
330
A
100
AcDbEntity
  8
LAY-3
  6
Continuous
 62
     2
100
AcDbLine
 10
1395.8
 20
2394.8
 30
0.0
 11
1419.6
 21
2394.8
 31
0.0
  0
LINE
  5
E7
330
A
100
AcDbEntity
  8
LAY-3
  6
Continuous
 62
     2
100
AcDbLine
 10
933.7999999999999
 20
2391.300000000001
 30
0.0
 11
958.3
 21
2391.300000000001
 31
0.0
  0
LINE
  5
E8
330
A
100
AcDbEntity
  8
LAY-3
  6
Continuous
 62
     2
100
AcDbLine
 10
986.3466799999999
 20
2391.300000000001
 30
0.0
 11
1011.93822
 21
2391.300000000001
 31
0.0
  0
LINE
  5
E9
330
A
100
AcDbEntity
  8
LAY-3
  6
Continuous
 62
     2
100
AcDbLine
 10
1024.21686
 20
2391.300000000001
 30
0.0
 11
1095.38314
 21
2391.300000000001
 31
0.0
  0
LINE
  5
EA
330
A
100
AcDbEntity
  8
LAY-3
  6
Continuous
 62
     2
100
AcDbLine
 10
1107.66178
 20
2391.300000000001
 30
0.0
 11
1133.25332
 21
2391.300000000001
 31
0.0
  0
LINE
  5
EB
330
A
100
AcDbEntity
  8
LAY-3
  6
Continuous
 62
     2
100
AcDbLine
 10
1164.02505
 20
2391.300000000001
 30
0.0
 11
1191.02377
 21
2391.300000000001
 31
0.0
  0
LINE
  5
EC
330
A
100
AcDbEntity
  8
LAY-3
  6
Continuous
 62
     2
100
AcDbLine
 10
1218.7
 20
2391.300000000001
 30
0.0
 11
1312.5
 21
2391.300000000001
 31
0.0
  0
LINE
  5
ED
330
A
100
AcDbEntity
  8
LAY-3
  6
Continuous
 62
     2
100
AcDbLine
 10
1323.0
 20
2391.300000000001
 30
0.0
 11
1346.8
 21
2391.300000000001
 31
0.0
  0
LINE
  5
EE
330
A
100
AcDbEntity
  8
LAY-3
  6
Continuous
 62
     2
100
AcDbLine
 10
1354.34044
 20
2391.300000000001
 30
0.0
 11
1374.43971
 21
2391.300000000001
 31
0.0
  0
LINE
  5
EF
330
A
100
AcDbEntity
  8
LAY-3
  6
Continuous
 62
     2
100
AcDbLine
 10
1395.8
 20
2391.300000000001
 30
0.0
 11
1419.6
 21
2391.300000000001
 31
0.0
  0
LINE
  5
F0
330
A
100
AcDbEntity
  8
LAY-3
  6
Continuous
 62
     2
100
AcDbLine
 10
933.7999999999999
 20
2387.8
 30
0.0
 11
958.3
 21
2387.8
 31
0.0
  0
LINE
  5
F1
330
A
100
AcDbEntity
  8
LAY-3
  6
Continuous
 62
     2
100
AcDbLine
 10
985.9309299999999
 20
2387.8
 30
0.0
 11
1011.30258
 21
2387.8
 31
0.0
  0
LINE
  5
F2
330
A
100
AcDbEntity
  8
LAY-3
  6
Continuous
 62
     2
100
AcDbLine
 10
1023.36636
 20
2387.8
 30
0.0
 11
1096.23364
 21
2387.8
 31
0.0
  0
LINE
  5
F3
330
A
100
AcDbEntity
  8
LAY-3
  6
Continuous
 62
     2
100
AcDbLine
 10
1108.29742
 20
2387.8
 30
0.0
 11
1133.66907
 21
2387.8
 31
0.0
  0
LINE
  5
F4
330
A
100
AcDbEntity
  8
LAY-3
  6
Continuous
 62
     2
100
AcDbLine
 10
1160.86981
 20
2387.8
 30
0.0
 11
1187.86852
 21
2387.8
 31
0.0
  0
LINE
  5
F5
330
A
100
AcDbEntity
  8
LAY-3
  6
Continuous
 62
     2
100
AcDbLine
 10
1218.7
 20
2387.8
 30
0.0
 11
1312.5
 21
2387.8
 31
0.0
  0
LINE
  5
F6
330
A
100
AcDbEntity
  8
LAY-3
  6
Continuous
 62
     2
100
AcDbLine
 10
1323.0
 20
2387.8
 30
0.0
 11
1346.8
 21
2387.8
 31
0.0
  0
LINE
  5
F7
330
A
100
AcDbEntity
  8
LAY-3
  6
Continuous
 62
     2
100
AcDbLine
 10
1356.64375
 20
2387.8
 30
0.0
 11
1376.74301
 21
2387.8
 31
0.0
  0
LINE
  5
F8
330
A
100
AcDbEntity
  8
LAY-3
  6
Continuous
 62
     2
100
AcDbLine
 10
1395.8
 20
2387.8
 30
0.0
 11
1419.6
 21
2387.8
 31
0.0
  0
LINE
  5
F9
330
A
100
AcDbEntity
  8
LAY-3
  6
Continuous
 62
     2
100
AcDbLine
 10
933.7999999999999
 20
2384.3
 30
0.0
 11
958.3
 21
2384.3
 31
0.0
  0
LINE
  5
FA
330
A
100
AcDbEntity
  8
LAY-3
  6
Continuous
 62
     2
100
AcDbLine
 10
985.6825899999998
 20
2384.3
 30
0.0
 11
1010.92516
 21
2384.3
 31
0.0
  0
LINE
  5
FB
330
A
100
AcDbEntity
  8
LAY-3
  6
Continuous
 62
     2
100
AcDbLine
 10
1022.86546
 20
2384.3
 30
0.0
 11
1096.73454
 21
2384.3
 31
0.0
  0
LINE
  5
FC
330
A
100
AcDbEntity
  8
LAY-3
  6
Continuous
 62
     2
100
AcDbLine
 10
1108.67484
 20
2384.3
 30
0.0
 11
1133.91741
 21
2384.3
 31
0.0
  0
LINE
  5
FD
330
A
100
AcDbEntity
  8
LAY-3
  6
Continuous
 62
     2
100
AcDbLine
 10
1157.71456
 20
2384.3
 30
0.0
 11
1184.71328
 21
2384.3
 31
0.0
  0
LINE
  5
FE
330
A
100
AcDbEntity
  8
LAY-3
  6
Continuous
 62
     2
100
AcDbLine
 10
1218.7
 20
2384.3
 30
0.0
 11
1312.5
 21
2384.3
 31
0.0
  0
LINE
  5
FF
330
A
100
AcDbEntity
  8
LAY-3
  6
Continuous
 62
     2
100
AcDbLine
 10
1323.0
 20
2384.3
 30
0.0
 11
1346.8
 21
2384.3
 31
0.0
  0
LINE
  5
100
330
A
100
AcDbEntity
  8
LAY-3
  6
Continuous
 62
     2
100
AcDbLine
 10
1358.94706
 20
2384.3
 30
0.0
 11
1379.04632
 21
2384.3
 31
0.0
  0
LINE
  5
101
330
A
100
AcDbEntity
  8
LAY-3
  6
Continuous
 62
     2
100
AcDbLine
 10
1395.8
 20
2384.3
 30
0.0
 11
1419.6
 21
2384.3
 31
0.0
  0
LINE
  5
102
330
A
100
AcDbEntity
  8
LAY-3
  6
Continuous
 62
     2
100
AcDbLine
 10
933.7999999999999
 20
2380.8
 30
0.0
 11
958.3
 21
2380.8
 31
0.0
  0
LINE
  5
103
330
A
100
AcDbEntity
  8
LAY-3
  6
Continuous
 62
     2
100
AcDbLine
 10
985.5999999999999
 20
2380.8
 30
0.0
 11
1010.8
 21
2380.8
 31
0.0
  0
LINE
  5
104
330
A
100
AcDbEntity
  8
LAY-3
  6
Continuous
 62
     2
100
AcDbLine
 10
1022.7
 20
2380.8
 30
0.0
 11
1096.9
 21
2380.8
 31
0.0
  0
LINE
  5
105
330
A
100
AcDbEntity
  8
LAY-3
  6
Continuous
 62
     2
100
AcDbLine
 10
1108.8
 20
2380.8
 30
0.0
 11
1134.0
 21
2380.8
 31
0.0
  0
LINE
  5
106
330
A
100
AcDbEntity
  8
LAY-3
  6
Continuous
 62
     2
100
AcDbLine
 10
1154.55931
 20
2380.8
 30
0.0
 11
1181.55803
 21
2380.8
 31
0.0
  0
LINE
  5
107
330
A
100
AcDbEntity
  8
LAY-3
  6
Continuous
 62
     2
100
AcDbLine
 10
1218.7
 20
2380.8
 30
0.0
 11
1312.5
 21
2380.8
 31
0.0
  0
LINE
  5
108
330
A
100
AcDbEntity
  8
LAY-3
  6
Continuous
 62
     2
100
AcDbLine
 10
1323.0
 20
2380.8
 30
0.0
 11
1346.8
 21
2380.8
 31
0.0
  0
LINE
  5
109
330
A
100
AcDbEntity
  8
LAY-3
  6
Continuous
 62
     2
100
AcDbLine
 10
1361.25037
 20
2380.8
 30
0.0
 11
1381.34963
 21
2380.8
 31
0.0
  0
LINE
  5
10A
330
A
100
AcDbEntity
  8
LAY-3
  6
Continuous
 62
     2
100
AcDbLine
 10
1395.8
 20
2380.8
 30
0.0
 11
1419.6
 21
2380.8
 31
0.0
  0
LINE
  5
10B
330
A
100
AcDbEntity
  8
LAY-3
  6
Continuous
 62
     2
100
AcDbLine
 10
933.7999999999999
 20
2377.3
 30
0.0
 11
958.3
 21
2377.3
 31
0.0
  0
LINE
  5
10C
330
A
100
AcDbEntity
  8
LAY-3
  6
Continuous
 62
     2
100
AcDbLine
 10
985.6825899999998
 20
2377.3
 30
0.0
 11
1010.92516
 21
2377.3
 31
0.0
  0
LINE
  5
10D
330
A
100
AcDbEntity
  8
LAY-3
  6
Continuous
 62
     2
100
AcDbLine
 10
1022.86546
 20
2377.3
 30
0.0
 11
1096.73454
 21
2377.3
 31
0.0
  0
LINE
  5
10E
330
A
100
AcDbEntity
  8
LAY-3
  6
Continuous
 62
     2
100
AcDbLine
 10
1108.67484
 20
2377.3
 30
0.0
 11
1133.91741
 21
2377.3
 31
0.0
  0
LINE
  5
10F
330
A
100
AcDbEntity
  8
LAY-3
  6
Continuous
 62
     2
100
AcDbLine
 10
1151.40407
 20
2377.3
 30
0.0
 11
1178.40278
 21
2377.3
 31
0.0
  0
LINE
  5
110
330
A
100
AcDbEntity
  8
LAY-3
  6
Continuous
 62
     2
100
AcDbLine
 10
1218.7
 20
2377.3
 30
0.0
 11
1312.5
 21
2377.3
 31
0.0
  0
LINE
  5
111
330
A
100
AcDbEntity
  8
LAY-3
  6
Continuous
 62
     2
100
AcDbLine
 10
1323.0
 20
2377.3
 30
0.0
 11
1346.8
 21
2377.3
 31
0.0
  0
LINE
  5
112
330
A
100
AcDbEntity
  8
LAY-3
  6
Continuous
 62
     2
100
AcDbLine
 10
1363.55368
 20
2377.3
 30
0.0
 11
1383.65294
 21
2377.3
 31
0.0
  0
LINE
  5
113
330
A
100
AcDbEntity
  8
LAY-3
  6
Continuous
 62
     2
100
AcDbLine
 10
1395.8
 20
2377.3
 30
0.0
 11
1419.6
 21
2377.3
 31
0.0
  0
LINE
  5
114
330
A
100
AcDbEntity
  8
LAY-3
  6
Continuous
 62
     2
100
AcDbLine
 10
933.7999999999999
 20
2373.800000000001
 30
0.0
 11
958.3
 21
2373.800000000001
 31
0.0
  0
LINE
  5
115
330
A
100
AcDbEntity
  8
LAY-3
  6
Continuous
 62
     2
100
AcDbLine
 10
985.9309299999999
 20
2373.800000000001
 30
0.0
 11
1011.30258
 21
2373.800000000001
 31
0.0
  0
LINE
  5
116
330
A
100
AcDbEntity
  8
LAY-3
  6
Continuous
 62
     2
100
AcDbLine
 10
1023.36636
 20
2373.800000000001
 30
0.0
 11
1096.23364
 21
2373.800000000001
 31
0.0
  0
LINE
  5
117
330
A
100
AcDbEntity
  8
LAY-3
  6
Continuous
 62
     2
100
AcDbLine
 10
1108.29742
 20
2373.800000000001
 30
0.0
 11
1133.66907
 21
2373.800000000001
 31
0.0
  0
LINE
  5
118
330
A
100
AcDbEntity
  8
LAY-3
  6
Continuous
 62
     2
100
AcDbLine
 10
1148.24882
 20
2373.800000000001
 30
0.0
 11
1175.247539999999
 21
2373.800000000001
 31
0.0
  0
LINE
  5
119
330
A
100
AcDbEntity
  8
LAY-3
  6
Continuous
 62
     2
100
AcDbLine
 10
1218.7
 20
2373.800000000001
 30
0.0
 11
1312.5
 21
2373.800000000001
 31
0.0
  0
LINE
  5
11A
330
A
100
AcDbEntity
  8
LAY-3
  6
Continuous
 62
     2
100
AcDbLine
 10
1323.0
 20
2373.800000000001
 30
0.0
 11
1346.8
 21
2373.800000000001
 31
0.0
  0
LINE
  5
11B
330
A
100
AcDbEntity
  8
LAY-3
  6
Continuous
 62
     2
100
AcDbLine
 10
1365.85699
 20
2373.800000000001
 30
0.0
 11
1385.95625
 21
2373.800000000001
 31
0.0
  0
LINE
  5
11C
330
A
100
AcDbEntity
  8
LAY-3
  6
Continuous
 62
     2
100
AcDbLine
 10
1395.8
 20
2373.800000000001
 30
0.0
 11
1419.6
 21
2373.800000000001
 31
0.0
  0
LINE
  5
11D
330
A
100
AcDbEntity
  8
LAY-3
  6
Continuous
 62
     2
100
AcDbLine
 10
933.7999999999999
 20
2370.3
 30
0.0
 11
958.3
 21
2370.3
 31
0.0
  0
LINE
  5
11E
330
A
100
AcDbEntity
  8
LAY-3
  6
Continuous
 62
     2
100
AcDbLine
 10
986.3466799999999
 20
2370.3
 30
0.0
 11
1011.93822
 21
2370.3
 31
0.0
  0
LINE
  5
11F
330
A
100
AcDbEntity
  8
LAY-3
  6
Continuous
 62
     2
100
AcDbLine
 10
1024.21686
 20
2370.3
 30
0.0
 11
1095.38314
 21
2370.3
 31
0.0
  0
LINE
  5
120
330
A
100
AcDbEntity
  8
LAY-3
  6
Continuous
 62
     2
100
AcDbLine
 10
1107.66178
 20
2370.3
 30
0.0
 11
1133.25332
 21
2370.3
 31
0.0
  0
LINE
  5
121
330
A
100
AcDbEntity
  8
LAY-3
  6
Continuous
 62
     2
100
AcDbLine
 10
1145.09358
 20
2370.3
 30
0.0
 11
1172.09229
 21
2370.3
 31
0.0
  0
LINE
  5
122
330
A
100
AcDbEntity
  8
LAY-3
  6
Continuous
 62
     2
100
AcDbLine
 10
1218.7
 20
2370.3
 30
0.0
 11
1243.2
 21
2370.3
 31
0.0
  0
LINE
  5
123
330
A
100
AcDbEntity
  8
LAY-3
  6
Continuous
 62
     2
100
AcDbLine
 10
1323.0
 20
2370.3
 30
0.0
 11
1346.8
 21
2370.3
 31
0.0
  0
LINE
  5
124
330
A
100
AcDbEntity
  8
LAY-3
  6
Continuous
 62
     2
100
AcDbLine
 10
1368.16029
 20
2370.3
 30
0.0
 11
1388.25956
 21
2370.3
 31
0.0
  0
LINE
  5
125
330
A
100
AcDbEntity
  8
LAY-3
  6
Continuous
 62
     2
100
AcDbLine
 10
1395.8
 20
2370.3
 30
0.0
 11
1419.6
 21
2370.3
 31
0.0
  0
LINE
  5
126
330
A
100
AcDbEntity
  8
LAY-3
  6
Continuous
 62
     2
100
AcDbLine
 10
933.7999999999999
 20
2366.8
 30
0.0
 11
958.3
 21
2366.8
 31
0.0
  0
LINE
  5
127
330
A
100
AcDbEntity
  8
LAY-3
  6
Continuous
 62
     2
100
AcDbLine
 10
986.93272
 20
2366.8
 30
0.0
 11
1012.84257
 21
2366.8
 31
0.0
  0
LINE
  5
128
330
A
100
AcDbEntity
  8
LAY-3
  6
Continuous
 62
     2
100
AcDbLine
 10
1025.4429
 20
2366.8
 30
0.0
 11
1094.1571
 21
2366.8
 31
0.0
  0
LINE
  5
129
330
A
100
AcDbEntity
  8
LAY-3
  6
Continuous
 62
     2
100
AcDbLine
 10
1106.75743
 20
2366.8
 30
0.0
 11
1132.66728
 21
2366.8
 31
0.0
  0
LINE
  5
12A
330
A
100
AcDbEntity
  8
LAY-3
  6
Continuous
 62
     2
100
AcDbLine
 10
1141.93833
 20
2366.8
 30
0.0
 11
1168.93704
 21
2366.8
 31
0.0
  0
LINE
  5
12B
330
A
100
AcDbEntity
  8
LAY-3
  6
Continuous
 62
     2
100
AcDbLine
 10
1218.7
 20
2366.8
 30
0.0
 11
1243.2
 21
2366.8
 31
0.0
  0
LINE
  5
12C
330
A
100
AcDbEntity
  8
LAY-3
  6
Continuous
 62
     2
100
AcDbLine
 10
1323.0
 20
2366.8
 30
0.0
 11
1346.8
 21
2366.8
 31
0.0
  0
LINE
  5
12D
330
A
100
AcDbEntity
  8
LAY-3
  6
Continuous
 62
     2
100
AcDbLine
 10
1370.4636
 20
2366.8
 30
0.0
 11
1390.56287
 21
2366.8
 31
0.0
  0
LINE
  5
12E
330
A
100
AcDbEntity
  8
LAY-3
  6
Continuous
 62
     2
100
AcDbLine
 10
1395.8
 20
2366.8
 30
0.0
 11
1419.6
 21
2366.8
 31
0.0
  0
LINE
  5
12F
330
A
100
AcDbEntity
  8
LAY-3
  6
Continuous
 62
     2
100
AcDbLine
 10
933.7999999999999
 20
2363.3
 30
0.0
 11
958.3
 21
2363.3
 31
0.0
  0
LINE
  5
130
330
A
100
AcDbEntity
  8
LAY-3
  6
Continuous
 62
     2
100
AcDbLine
 10
987.6931999999998
 20
2363.3
 30
0.0
 11
1014.03156
 21
2363.3
 31
0.0
  0
LINE
  5
131
330
A
100
AcDbEntity
  8
LAY-3
  6
Continuous
 62
     2
100
AcDbLine
 10
1027.0867
 20
2363.3
 30
0.0
 11
1092.5133
 21
2363.3
 31
0.0
  0
LINE
  5
132
330
A
100
AcDbEntity
  8
LAY-3
  6
Continuous
 62
     2
100
AcDbLine
 10
1105.56844
 20
2363.3
 30
0.0
 11
1131.9068
 21
2363.3
 31
0.0
  0
LINE
  5
133
330
A
100
AcDbEntity
  8
LAY-3
  6
Continuous
 62
     2
100
AcDbLine
 10
1139.30632
 20
2363.3
 30
0.0
 11
1165.7818
 21
2363.3
 31
0.0
  0
LINE
  5
134
330
A
100
AcDbEntity
  8
LAY-3
  6
Continuous
 62
     2
100
AcDbLine
 10
1218.7
 20
2363.3
 30
0.0
 11
1243.2
 21
2363.3
 31
0.0
  0
LINE
  5
135
330
A
100
AcDbEntity
  8
LAY-3
  6
Continuous
 62
     2
100
AcDbLine
 10
1323.0
 20
2363.3
 30
0.0
 11
1346.8
 21
2363.3
 31
0.0
  0
LINE
  5
136
330
A
100
AcDbEntity
  8
LAY-3
  6
Continuous
 62
     2
100
AcDbLine
 10
1372.76691
 20
2363.3
 30
0.0
 11
1392.86618
 21
2363.3
 31
0.0
  0
LINE
  5
137
330
A
100
AcDbEntity
  8
LAY-3
  6
Continuous
 62
     2
100
AcDbLine
 10
1395.8
 20
2363.3
 30
0.0
 11
1419.6
 21
2363.3
 31
0.0
  0
LINE
  5
138
330
A
100
AcDbEntity
  8
LAY-3
  6
Continuous
 62
     2
100
AcDbLine
 10
933.7999999999999
 20
2359.8
 30
0.0
 11
958.3
 21
2359.8
 31
0.0
  0
LINE
  5
139
330
A
100
AcDbEntity
  8
LAY-3
  6
Continuous
 62
     2
100
AcDbLine
 10
988.6337199999999
 20
2359.8
 30
0.0
 11
1015.52811
 21
2359.8
 31
0.0
  0
LINE
  5
13A
330
A
100
AcDbEntity
  8
LAY-3
  6
Continuous
 62
     2
100
AcDbLine
 10
1029.21553
 20
2359.8
 30
0.0
 11
1090.38447
 21
2359.8
 31
0.0
  0
LINE
  5
13B
330
A
100
AcDbEntity
  8
LAY-3
  6
Continuous
 62
     2
100
AcDbLine
 10
1104.07189
 20
2359.8
 30
0.0
 11
1130.96628
 21
2359.8
 31
0.0
  0
LINE
  5
13C
330
A
100
AcDbEntity
  8
LAY-3
  6
Continuous
 62
     2
100
AcDbLine
 10
1138.45434
 20
2359.8
 30
0.0
 11
1162.62655
 21
2359.8
 31
0.0
  0
LINE
  5
13D
330
A
100
AcDbEntity
  8
LAY-3
  6
Continuous
 62
     2
100
AcDbLine
 10
1218.7
 20
2359.8
 30
0.0
 11
1243.2
 21
2359.8
 31
0.0
  0
LINE
  5
13E
330
A
100
AcDbEntity
  8
LAY-3
  6
Continuous
 62
     2
100
AcDbLine
 10
1323.0
 20
2359.8
 30
0.0
 11
1346.8
 21
2359.8
 31
0.0
  0
LINE
  5
13F
330
A
100
AcDbEntity
  8
LAY-3
  6
Continuous
 62
     2
100
AcDbLine
 10
1375.07022
 20
2359.8
 30
0.0
 11
1395.16949
 21
2359.8
 31
0.0
  0
LINE
  5
140
330
A
100
AcDbEntity
  8
LAY-3
  6
Continuous
 62
     2
100
AcDbLine
 10
1395.8
 20
2359.8
 30
0.0
 11
1419.6
 21
2359.8
 31
0.0
  0
LINE
  5
141
330
A
100
AcDbEntity
  8
LAY-3
  6
Continuous
 62
     2
100
AcDbLine
 10
933.7999999999999
 20
2356.3
 30
0.0
 11
958.3
 21
2356.3
 31
0.0
  0
LINE
  5
142
330
A
100
AcDbEntity
  8
LAY-3
  6
Continuous
 62
     2
100
AcDbLine
 10
989.7615099999999
 20
2356.3
 30
0.0
 11
1017.36476
 21
2356.3
 31
0.0
  0
LINE
  5
143
330
A
100
AcDbEntity
  8
LAY-3
  6
Continuous
 62
     2
100
AcDbLine
 10
1031.94035
 20
2356.3
 30
0.0
 11
1087.65965
 21
2356.3
 31
0.0
  0
LINE
  5
144
330
A
100
AcDbEntity
  8
LAY-3
  6
Continuous
 62
     2
100
AcDbLine
 10
1102.23524
 20
2356.3
 30
0.0
 11
1129.83849
 21
2356.3
 31
0.0
  0
LINE
  5
145
330
A
100
AcDbEntity
  8
LAY-3
  6
Continuous
 62
     2
100
AcDbLine
 10
1137.4354
 20
2356.3
 30
0.0
 11
1159.47131
 21
2356.3
 31
0.0
  0
LINE
  5
146
330
A
100
AcDbEntity
  8
LAY-3
  6
Continuous
 62
     2
100
AcDbLine
 10
1218.7
 20
2356.3
 30
0.0
 11
1243.2
 21
2356.3
 31
0.0
  0
LINE
  5
147
330
A
100
AcDbEntity
  8
LAY-3
  6
Continuous
 62
     2
100
AcDbLine
 10
1323.0
 20
2356.3
 30
0.0
 11
1346.8
 21
2356.3
 31
0.0
  0
LINE
  5
148
330
A
100
AcDbEntity
  8
LAY-3
  6
Continuous
 62
     2
100
AcDbLine
 10
1377.37353
 20
2356.3
 30
0.0
 11
1419.6
 21
2356.3
 31
0.0
  0
LINE
  5
149
330
A
100
AcDbEntity
  8
LAY-3
  6
Continuous
 62
     2
100
AcDbLine
 10
933.7999999999999
 20
2352.8
 30
0.0
 11
958.3
 21
2352.8
 31
0.0
  0
LINE
  5
14A
330
A
100
AcDbEntity
  8
LAY-3
  6
Continuous
 62
     2
100
AcDbLine
 10
991.08581
 20
2352.8
 30
0.0
 11
1019.58806
 21
2352.8
 31
0.0
  0
LINE
  5
14B
330
A
100
AcDbEntity
  8
LAY-3
  6
Continuous
 62
     2
100
AcDbLine
 10
1035.46053
 20
2352.8
 30
0.0
 11
1084.13947
 21
2352.8
 31
0.0
  0
LINE
  5
14C
330
A
100
AcDbEntity
  8
LAY-3
  6
Continuous
 62
     2
100
AcDbLine
 10
1100.01194
 20
2352.8
 30
0.0
 11
1128.51419
 21
2352.8
 31
0.0
  0
LINE
  5
14D
330
A
100
AcDbEntity
  8
LAY-3
  6
Continuous
 62
     2
100
AcDbLine
 10
1136.24282
 20
2352.8
 30
0.0
 11
1206.8
 21
2352.8
 31
0.0
  0
LINE
  5
14E
330
A
100
AcDbEntity
  8
LAY-3
  6
Continuous
 62
     2
100
AcDbLine
 10
1218.7
 20
2352.8
 30
0.0
 11
1312.5
 21
2352.8
 31
0.0
  0
LINE
  5
14F
330
A
100
AcDbEntity
  8
LAY-3
  6
Continuous
 62
     2
100
AcDbLine
 10
1323.0
 20
2352.8
 30
0.0
 11
1346.8
 21
2352.8
 31
0.0
  0
LINE
  5
150
330
A
100
AcDbEntity
  8
LAY-3
  6
Continuous
 62
     2
100
AcDbLine
 10
1379.67684
 20
2352.8
 30
0.0
 11
1419.6
 21
2352.8
 31
0.0
  0
LINE
  5
151
330
A
100
AcDbEntity
  8
LAY-3
  6
Continuous
 62
     2
100
AcDbLine
 10
933.7999999999999
 20
2349.3
 30
0.0
 11
958.3
 21
2349.3
 31
0.0
  0
LINE
  5
152
330
A
100
AcDbEntity
  8
LAY-3
  6
Continuous
 62
     2
100
AcDbLine
 10
992.61823
 20
2349.3
 30
0.0
 11
1022.26668
 21
2349.3
 31
0.0
  0
LINE
  5
153
330
A
100
AcDbEntity
  8
LAY-3
  6
Continuous
 62
     2
100
AcDbLine
 10
1040.2
 20
2349.3
 30
0.0
 11
1079.4
 21
2349.3
 31
0.0
  0
LINE
  5
154
330
A
100
AcDbEntity
  8
LAY-3
  6
Continuous
 62
     2
100
AcDbLine
 10
1097.33332
 20
2349.3
 30
0.0
 11
1126.98177
 21
2349.3
 31
0.0
  0
LINE
  5
155
330
A
100
AcDbEntity
  8
LAY-3
  6
Continuous
 62
     2
100
AcDbLine
 10
1134.86833
 20
2349.3
 30
0.0
 11
1206.8
 21
2349.3
 31
0.0
  0
LINE
  5
156
330
A
100
AcDbEntity
  8
LAY-3
  6
Continuous
 62
     2
100
AcDbLine
 10
1218.7
 20
2349.3
 30
0.0
 11
1312.5
 21
2349.3
 31
0.0
  0
LINE
  5
157
330
A
100
AcDbEntity
  8
LAY-3
  6
Continuous
 62
     2
100
AcDbLine
 10
1323.0
 20
2349.3
 30
0.0
 11
1346.8
 21
2349.3
 31
0.0
  0
LINE
  5
158
330
A
100
AcDbEntity
  8
LAY-3
  6
Continuous
 62
     2
100
AcDbLine
 10
1381.980149999999
 20
2349.3
 30
0.0
 11
1419.6
 21
2349.3
 31
0.0
  0
LINE
  5
159
330
A
100
AcDbEntity
  8
LAY-3
  6
Continuous
 62
     2
100
AcDbLine
 10
933.7999999999999
 20
2345.8
 30
0.0
 11
958.3
 21
2345.8
 31
0.0
  0
LINE
  5
15A
330
A
100
AcDbEntity
  8
LAY-3
  6
Continuous
 62
     2
100
AcDbLine
 10
994.3733999999999
 20
2345.8
 30
0.0
 11
1025.50714
 21
2345.8
 31
0.0
  0
LINE
  5
15B
330
A
100
AcDbEntity
  8
LAY-3
  6
Continuous
 62
     2
100
AcDbLine
 10
1047.49512
 20
2345.8
 30
0.0
 11
1072.10488
 21
2345.8
 31
0.0
  0
LINE
  5
15C
330
A
100
AcDbEntity
  8
LAY-3
  6
Continuous
 62
     2
100
AcDbLine
 10
1094.09286
 20
2345.8
 30
0.0
 11
1125.2266
 21
2345.8
 31
0.0
  0
LINE
  5
15D
330
A
100
AcDbEntity
  8
LAY-3
  6
Continuous
 62
     2
100
AcDbLine
 10
1133.30173
 20
2345.8
 30
0.0
 11
1206.8
 21
2345.8
 31
0.0
  0
LINE
  5
15E
330
A
100
AcDbEntity
  8
LAY-3
  6
Continuous
 62
     2
100
AcDbLine
 10
1218.7
 20
2345.8
 30
0.0
 11
1312.5
 21
2345.8
 31
0.0
  0
LINE
  5
15F
330
A
100
AcDbEntity
  8
LAY-3
  6
Continuous
 62
     2
100
AcDbLine
 10
1323.0
 20
2345.8
 30
0.0
 11
1346.8
 21
2345.8
 31
0.0
  0
LINE
  5
160
330
A
100
AcDbEntity
  8
LAY-3
  6
Continuous
 62
     2
100
AcDbLine
 10
1384.28346
 20
2345.8
 30
0.0
 11
1419.6
 21
2345.8
 31
0.0
  0
LINE
  5
161
330
A
100
AcDbEntity
  8
LAY-3
  6
Continuous
 62
     2
100
AcDbLine
 10
933.7999999999999
 20
2342.3
 30
0.0
 11
958.3
 21
2342.3
 31
0.0
  0
LINE
  5
162
330
A
100
AcDbEntity
  8
LAY-3
  6
Continuous
 62
     2
100
AcDbLine
 10
996.3697999999999
 20
2342.3
 30
0.0
 11
1029.48911
 21
2342.3
 31
0.0
  0
LINE
  5
163
330
A
100
AcDbEntity
  8
LAY-3
  6
Continuous
 62
     2
100
AcDbLine
 10
1090.11089
 20
2342.3
 30
0.0
 11
1123.2302
 21
2342.3
 31
0.0
  0
LINE
  5
164
330
A
100
AcDbEntity
  8
LAY-3
  6
Continuous
 62
     2
100
AcDbLine
 10
1131.530429999999
 20
2342.3
 30
0.0
 11
1206.8
 21
2342.3
 31
0.0
  0
LINE
  5
165
330
A
100
AcDbEntity
  8
LAY-3
  6
Continuous
 62
     2
100
AcDbLine
 10
1218.7
 20
2342.3
 30
0.0
 11
1312.5
 21
2342.3
 31
0.0
  0
LINE
  5
166
330
A
100
AcDbEntity
  8
LAY-3
  6
Continuous
 62
     2
100
AcDbLine
 10
1323.0
 20
2342.3
 30
0.0
 11
1346.8
 21
2342.3
 31
0.0
  0
LINE
  5
167
330
A
100
AcDbEntity
  8
LAY-3
  6
Continuous
 62
     2
100
AcDbLine
 10
1386.58676
 20
2342.3
 30
0.0
 11
1419.6
 21
2342.3
 31
0.0
  0
LINE
  5
168
330
A
100
AcDbEntity
  8
LAY-3
  6
Continuous
 62
     2
100
AcDbLine
 10
933.7999999999999
 20
2338.8
 30
0.0
 11
958.3
 21
2338.8
 31
0.0
  0
LINE
  5
169
330
A
100
AcDbEntity
  8
LAY-3
  6
Continuous
 62
     2
100
AcDbLine
 10
998.63105
 20
2338.8
 30
0.0
 11
1034.56114
 21
2338.8
 31
0.0
  0
LINE
  5
16A
330
A
100
AcDbEntity
  8
LAY-3
  6
Continuous
 62
     2
100
AcDbLine
 10
1085.03886
 20
2338.8
 30
0.0
 11
1120.96895
 21
2338.8
 31
0.0
  0
LINE
  5
16B
330
A
100
AcDbEntity
  8
LAY-3
  6
Continuous
 62
     2
100
AcDbLine
 10
1129.53883
 20
2338.8
 30
0.0
 11
1206.8
 21
2338.8
 31
0.0
  0
LINE
  5
16C
330
A
100
AcDbEntity
  8
LAY-3
  6
Continuous
 62
     2
100
AcDbLine
 10
1218.7
 20
2338.8
 30
0.0
 11
1312.5
 21
2338.8
 31
0.0
  0
LINE
  5
16D
330
A
100
AcDbEntity
  8
LAY-3
  6
Continuous
 62
     2
100
AcDbLine
 10
1323.0
 20
2338.8
 30
0.0
 11
1346.8
 21
2338.8
 31
0.0
  0
LINE
  5
16E
330
A
100
AcDbEntity
  8
LAY-3
  6
Continuous
 62
     2
100
AcDbLine
 10
1388.89007
 20
2338.8
 30
0.0
 11
1419.6
 21
2338.8
 31
0.0
  0
LINE
  5
16F
330
A
100
AcDbEntity
  8
LAY-3
  6
Continuous
 62
     2
100
AcDbLine
 10
933.7999999999999
 20
2335.3
 30
0.0
 11
958.3
 21
2335.3
 31
0.0
  0
LINE
  5
170
330
A
100
AcDbEntity
  8
LAY-3
  6
Continuous
 62
     2
100
AcDbLine
 10
1001.1878
 20
2335.3
 30
0.0
 11
1041.61347
 21
2335.3
 31
0.0
  0
LINE
  5
171
330
A
100
AcDbEntity
  8
LAY-3
  6
Continuous
 62
     2
100
AcDbLine
 10
1077.98653
 20
2335.3
 30
0.0
 11
1118.4122
 21
2335.3
 31
0.0
  0
LINE
  5
172
330
A
100
AcDbEntity
  8
LAY-3
  6
Continuous
 62
     2
100
AcDbLine
 10
1127.30744
 20
2335.3
 30
0.0
 11
1206.8
 21
2335.3
 31
0.0
  0
LINE
  5
173
330
A
100
AcDbEntity
  8
LAY-3
  6
Continuous
 62
     2
100
AcDbLine
 10
1218.7
 20
2335.3
 30
0.0
 11
1312.5
 21
2335.3
 31
0.0
  0
LINE
  5
174
330
A
100
AcDbEntity
  8
LAY-3
  6
Continuous
 62
     2
100
AcDbLine
 10
1323.0
 20
2335.3
 30
0.0
 11
1346.8
 21
2335.3
 31
0.0
  0
LINE
  5
175
330
A
100
AcDbEntity
  8
LAY-3
  6
Continuous
 62
     2
100
AcDbLine
 10
1391.19338
 20
2335.3
 30
0.0
 11
1419.6
 21
2335.3
 31
0.0
  0
LINE
  5
176
330
A
100
AcDbEntity
  8
LAY-3
  6
Continuous
 62
     2
100
AcDbLine
 10
933.7999999999999
 20
2331.8
 30
0.0
 11
958.3
 21
2331.8
 31
0.0
  0
LINE
  5
177
330
A
100
AcDbEntity
  8
LAY-3
  6
Continuous
 62
     2
100
AcDbLine
 10
1004.0807
 20
2331.8
 30
0.0
 11
1115.5193
 21
2331.8
 31
0.0
  0
LINE
  5
178
330
A
100
AcDbEntity
  8
LAY-3
  6
Continuous
 62
     2
100
AcDbLine
 10
1124.81157
 20
2331.8
 30
0.0
 11
1206.8
 21
2331.8
 31
0.0
  0
LINE
  5
179
330
A
100
AcDbEntity
  8
LAY-3
  6
Continuous
 62
     2
100
AcDbLine
 10
1218.7
 20
2331.8
 30
0.0
 11
1312.5
 21
2331.8
 31
0.0
  0
LINE
  5
17A
330
A
100
AcDbEntity
  8
LAY-3
  6
Continuous
 62
     2
100
AcDbLine
 10
1323.0
 20
2331.8
 30
0.0
 11
1346.8
 21
2331.8
 31
0.0
  0
LINE
  5
17B
330
A
100
AcDbEntity
  8
LAY-3
  6
Continuous
 62
     2
100
AcDbLine
 10
1393.49669
 20
2331.8
 30
0.0
 11
1419.6
 21
2331.8
 31
0.0
  0
LINE
  5
17C
330
A
100
AcDbEntity
  8
LAY-3
  6
Continuous
 62
     2
100
AcDbLine
 10
1007.36537
 20
2328.3
 30
0.0
 11
1112.23463
 21
2328.3
 31
0.0
  0
LINE
  5
17D
330
A
100
AcDbEntity
  8
LAY-3
  6
Continuous
 62
     2
100
AcDbLine
 10
1011.12105
 20
2324.8
 30
0.0
 11
1108.47895
 21
2324.8
 31
0.0
  0
LINE
  5
17E
330
A
100
AcDbEntity
  8
LAY-3
  6
Continuous
 62
     2
100
AcDbLine
 10
1015.46728
 20
2321.3
 30
0.0
 11
1104.13272
 21
2321.3
 31
0.0
  0
LINE
  5
17F
330
A
100
AcDbEntity
  8
LAY-3
  6
Continuous
 62
     2
100
AcDbLine
 10
1020.6
 20
2317.8
 30
0.0
 11
1099.0
 21
2317.8
 31
0.0
  0
LINE
  5
180
330
A
100
AcDbEntity
  8
LAY-3
  6
Continuous
 62
     2
100
AcDbLine
 10
1026.88511
 20
2314.3
 30
0.0
 11
1092.71489
 21
2314.3
 31
0.0
  0
LINE
  5
181
330
A
100
AcDbEntity
  8
LAY-3
  6
Continuous
 62
     2
100
AcDbLine
 10
1035.19025
 20
2310.8
 30
0.0
 11
1084.40975
 21
2310.8
 31
0.0
  0
LINE
  5
182
330
A
100
AcDbEntity
  8
LAY-3
  6
Continuous
 62
     2
100
AcDbLine
 10
1683.46525
 20
2307.300000000001
 30
0.0
 11
1703.801429999999
 21
2307.300000000001
 31
0.0
  0
LINE
  5
183
330
A
100
AcDbEntity
  8
LAY-3
  6
Continuous
 62
     2
100
AcDbLine
 10
-7.200000000000002
 20
2531.4
 30
0.0
 11
3795.800000000001
 21
2531.4
 31
0.0
  0
LINE
  5
184
330
A
100
AcDbEntity
  8
LAY-3
  6
Continuous
 62
     2
100
AcDbLine
 10
3795.800000000001
 20
2531.4
 30
0.0
 11
3795.800000000001
 21
13.39999999999999
 31
0.0
  0
LINE
  5
185
330
A
100
AcDbEntity
  8
LAY-3
  6
Continuous
 62
     2
100
AcDbLine
 10
3795.800000000001
 20
13.39999999999999
 30
0.0
 11
-7.200000000000002
 21
13.39999999999999
 31
0.0
  0
LINE
  5
186
330
A
100
AcDbEntity
  8
LAY-3
  6
Continuous
 62
     2
100
AcDbLine
 10
-7.200000000000002
 20
13.39999999999999
 30
0.0
 11
-7.200000000000002
 21
2531.4
 31
0.0
  0
LINE
  5
187
330
A
100
AcDbEntity
  8
LAY-3
  6
Continuous
 62
     2
100
AcDbLine
 10
3795.800000000001
 20
763.4
 30
0.0
 11
-7.200000000000002
 21
763.4
 31
0.0
  0
LINE
  5
188
330
A
100
AcDbEntity
  8
LAY-3
  6
Continuous
 62
     2
100
AcDbLine
 10
3795.800000000001
 20
1413.4
 30
0.0
 11
-7.200000000000002
 21
1413.4
 31
0.0
  0
LINE
  5
189
330
A
100
AcDbEntity
  8
LAY-3
  6
Continuous
 62
     2
100
AcDbLine
 10
3795.800000000001
 20
1513.4
 30
0.0
 11
-7.200000000000002
 21
1513.4
 31
0.0
  0
LINE
  5
18A
330
A
100
AcDbEntity
  8
LAY-3
  6
Continuous
 62
     2
100
AcDbLine
 10
3795.800000000001
 20
2163.4
 30
0.0
 11
-7.200000000000002
 21
2163.4
 31
0.0
  0
LINE
  5
18B
330
A
100
AcDbEntity
  8
LAY-3
  6
Continuous
 62
     2
100
AcDbLine
 10
3795.800000000001
 20
2263.4
 30
0.0
 11
-7.200000000000002
 21
2263.4
 31
0.0
  0
LINE
  5
18C
330
A
100
AcDbEntity
  8
LAY-3
  6
Continuous
 62
     2
100
AcDbLine
 10
626.6333299999999
 20
2263.4
 30
0.0
 11
626.6333299999999
 21
13.39999999999999
 31
0.0
  0
LINE
  5
18D
330
A
100
AcDbEntity
  8
LAY-3
  6
Continuous
 62
     2
100
AcDbLine
 10
1260.46667
 20
2263.4
 30
0.0
 11
1260.46667
 21
13.39999999999999
 31
0.0
  0
LINE
  5
18E
330
A
100
AcDbEntity
  8
LAY-3
  6
Continuous
 62
     2
100
AcDbLine
 10
1894.3
 20
2263.4
 30
0.0
 11
1894.3
 21
13.39999999999999
 31
0.0
  0
LINE
  5
18F
330
A
100
AcDbEntity
  8
LAY-3
  6
Continuous
 62
     2
100
AcDbLine
 10
2528.13333
 20
2263.4
 30
0.0
 11
2528.13333
 21
13.39999999999999
 31
0.0
  0
LINE
  5
190
330
A
100
AcDbEntity
  8
LAY-3
  6
Continuous
 62
     2
100
AcDbLine
 10
3161.96667
 20
2263.4
 30
0.0
 11
3161.96667
 21
13.39999999999999
 31
0.0
  0
LINE
  5
191
330
A
100
AcDbEntity
  8
LAY-3
  6
Continuous
 62
     2
100
AcDbLine
 10
933.7999999999999
 20
2408.8
 30
0.0
 11
933.7999999999999
 21
2328.3
 31
0.0
  0
LINE
  5
192
330
A
100
AcDbEntity
  8
LAY-3
  6
Continuous
 62
     2
100
AcDbLine
 10
958.3
 20
2408.8
 30
0.0
 11
958.3
 21
2328.3
 31
0.0
  0
CIRCLE
  5
193
330
A
100
AcDbEntity
  8
LAY-3
  6
Continuous
 62
     2
100
AcDbCircle
 10
1059.8
 20
2380.8
 30
0.0
 40
37.1
  0
CIRCLE
  5
194
330
A
100
AcDbEntity
  8
LAY-3
  6
Continuous
 62
     2
100
AcDbCircle
 10
1059.8
 20
2380.8
 30
0.0
 40
49.0
  0
CIRCLE
  5
195
330
A
100
AcDbEntity
  8
LAY-3
  6
Continuous
 62
     2
100
AcDbCircle
 10
1059.8
 20
2380.8
 30
0.0
 40
74.2
  0
LINE
  5
196
330
A
100
AcDbEntity
  8
LAY-3
  6
Continuous
 62
     2
100
AcDbLine
 10
884.7999999999998
 20
2433.3
 30
0.0
 11
884.7999999999998
 21
2408.8
 31
0.0
  0
LINE
  5
197
330
A
100
AcDbEntity
  8
LAY-3
  6
Continuous
 62
     2
100
AcDbLine
 10
933.7999999999999
 20
2328.3
 30
0.0
 11
958.3
 21
2328.3
 31
0.0
  0
ARC
  5
198
330
A
100
AcDbEntity
  8
LAY-3
  6
Continuous
 62
     2
100
AcDbCircle
 10
1059.8
 20
2380.8
 30
0.0
 40
81.40949
100
AcDbArc
 50
139.842723
 51
159.882882
  0
ARC
  5
199
330
A
100
AcDbEntity
  8
LAY-3
  6
Continuous
 62
     2
100
AcDbCircle
 10
1059.8
 20
2380.8
 30
0.0
 40
81.40949
100
AcDbArc
 50
20.11711799999998
 51
40.15727700000001
  0
LINE
  5
19A
330
A
100
AcDbEntity
  8
LAY-3
  6
Continuous
 62
     2
100
AcDbLine
 10
1206.8
 20
2352.8
 30
0.0
 11
1206.8
 21
2328.3
 31
0.0
  0
LINE
  5
19B
330
A
100
AcDbEntity
  8
LAY-3
  6
Continuous
 62
     2
100
AcDbLine
 10
1206.8
 20
2433.3
 30
0.0
 11
1206.8
 21
2408.8
 31
0.0
  0
ARC
  5
19C
330
A
100
AcDbEntity
  8
LAY-3
  6
Continuous
 62
     2
100
AcDbCircle
 10
1059.8
 20
2380.8
 30
0.0
 40
81.40949
100
AcDbArc
 50
319.842723
 51
348.135428
  0
LINE
  5
19D
330
A
100
AcDbEntity
  8
LAY-3
  6
Continuous
 62
     2
100
AcDbLine
 10
1206.8
 20
2408.8
 30
0.0
 11
1156.31606
 21
2352.8
 31
0.0
  0
LINE
  5
19E
330
A
100
AcDbEntity
  8
LAY-3
  6
Continuous
 62
     2
100
AcDbLine
 10
1179.80128
 20
2408.8
 30
0.0
 11
1139.47028
 21
2364.06228
 31
0.0
  0
LINE
  5
19F
330
A
100
AcDbEntity
  8
LAY-3
  6
Continuous
 62
     2
100
AcDbLine
 10
1218.7
 20
2433.3
 30
0.0
 11
1218.7
 21
2328.3
 31
0.0
  0
LINE
  5
1A0
330
A
100
AcDbEntity
  8
LAY-3
  6
Continuous
 62
     2
100
AcDbLine
 10
1243.2
 20
2391.300000000001
 30
0.0
 11
1312.5
 21
2391.300000000001
 31
0.0
  0
LINE
  5
1A1
330
A
100
AcDbEntity
  8
LAY-3
  6
Continuous
 62
     2
100
AcDbLine
 10
1243.2
 20
2370.3
 30
0.0
 11
1312.5
 21
2370.3
 31
0.0
  0
LINE
  5
1A2
330
A
100
AcDbEntity
  8
LAY-3
  6
Continuous
 62
     2
100
AcDbLine
 10
1323.0
 20
2433.3
 30
0.0
 11
1323.0
 21
2328.3
 31
0.0
  0
LINE
  5
1A3
330
A
100
AcDbEntity
  8
LAY-3
  6
Continuous
 62
     2
100
AcDbLine
 10
1419.6
 20
2433.3
 30
0.0
 11
1419.6
 21
2328.3
 31
0.0
  0
LINE
  5
1A4
330
A
100
AcDbEntity
  8
LAY-3
  6
Continuous
 62
     2
100
AcDbLine
 10
1395.8
 20
2328.3
 30
0.0
 11
1346.8
 21
2402.7581
 31
0.0
  0
LINE
  5
1A5
330
A
100
AcDbEntity
  8
LAY-3
  6
Continuous
 62
     2
100
AcDbLine
 10
1346.8
 20
2433.3
 30
0.0
 11
1395.8
 21
2358.8419
 31
0.0
  0
LINE
  5
1A6
330
A
100
AcDbEntity
  8
LAY-3
  6
Continuous
 62
     2
100
AcDbLine
 10
1312.5
 20
2433.3
 30
0.0
 11
1312.5
 21
2408.8
 31
0.0
  0
LINE
  5
1A7
330
A
100
AcDbEntity
  8
LAY-3
  6
Continuous
 62
     2
100
AcDbLine
 10
1312.5
 20
2391.300000000001
 30
0.0
 11
1312.5
 21
2370.3
 31
0.0
  0
LINE
  5
1A8
330
A
100
AcDbEntity
  8
LAY-3
  6
Continuous
 62
     2
100
AcDbLine
 10
1312.5
 20
2352.8
 30
0.0
 11
1312.5
 21
2328.3
 31
0.0
  0
LINE
  5
1A9
330
A
100
AcDbEntity
  8
LAY-3
  6
Continuous
 62
     2
100
AcDbLine
 10
1243.2
 20
2408.8
 30
0.0
 11
1312.5
 21
2408.8
 31
0.0
  0
LINE
  5
1AA
330
A
100
AcDbEntity
  8
LAY-3
  6
Continuous
 62
     2
100
AcDbLine
 10
1218.7
 20
2433.3
 30
0.0
 11
1312.5
 21
2433.3
 31
0.0
  0
LINE
  5
1AB
330
A
100
AcDbEntity
  8
LAY-3
  6
Continuous
 62
     2
100
AcDbLine
 10
1243.2
 20
2370.3
 30
0.0
 11
1243.2
 21
2352.8
 31
0.0
  0
LINE
  5
1AC
330
A
100
AcDbEntity
  8
LAY-3
  6
Continuous
 62
     2
100
AcDbLine
 10
1218.7
 20
2328.3
 30
0.0
 11
1312.5
 21
2328.3
 31
0.0
  0
LINE
  5
1AD
330
A
100
AcDbEntity
  8
LAY-3
  6
Continuous
 62
     2
100
AcDbLine
 10
1243.2
 20
2352.8
 30
0.0
 11
1312.5
 21
2352.8
 31
0.0
  0
LINE
  5
1AE
330
A
100
AcDbEntity
  8
LAY-3
  6
Continuous
 62
     2
100
AcDbLine
 10
1346.8
 20
2402.7581
 30
0.0
 11
1346.8
 21
2328.3
 31
0.0
  0
LINE
  5
1AF
330
A
100
AcDbEntity
  8
LAY-3
  6
Continuous
 62
     2
100
AcDbLine
 10
1323.0
 20
2433.3
 30
0.0
 11
1346.8
 21
2433.3
 31
0.0
  0
LINE
  5
1B0
330
A
100
AcDbEntity
  8
LAY-3
  6
Continuous
 62
     2
100
AcDbLine
 10
1395.8
 20
2433.3
 30
0.0
 11
1419.6
 21
2433.3
 31
0.0
  0
LINE
  5
1B1
330
A
100
AcDbEntity
  8
LAY-3
  6
Continuous
 62
     2
100
AcDbLine
 10
1323.0
 20
2328.3
 30
0.0
 11
1346.8
 21
2328.3
 31
0.0
  0
LINE
  5
1B2
330
A
100
AcDbEntity
  8
LAY-3
  6
Continuous
 62
     2
100
AcDbLine
 10
1395.8
 20
2328.3
 30
0.0
 11
1419.6
 21
2328.3
 31
0.0
  0
LINE
  5
1B3
330
A
100
AcDbEntity
  8
LAY-3
  6
Continuous
 62
     2
100
AcDbLine
 10
1395.8
 20
2433.3
 30
0.0
 11
1395.8
 21
2358.8419
 31
0.0
  0
LINE
  5
1B4
330
A
100
AcDbEntity
  8
LAY-3
  6
Continuous
 62
     2
100
AcDbLine
 10
884.7999999999998
 20
2408.8
 30
0.0
 11
933.7999999999999
 21
2408.8
 31
0.0
  0
LINE
  5
1B5
330
A
100
AcDbEntity
  8
LAY-3
  6
Continuous
 62
     2
100
AcDbLine
 10
958.3
 20
2408.8
 30
0.0
 11
983.3571800000001
 21
2408.8
 31
0.0
  0
LINE
  5
1B6
330
A
100
AcDbEntity
  8
LAY-3
  6
Continuous
 62
     2
100
AcDbLine
 10
884.7999999999998
 20
2433.3
 30
0.0
 11
997.5805899999999
 21
2433.3
 31
0.0
  0
LINE
  5
1B7
330
A
100
AcDbEntity
  8
LAY-3
  6
Continuous
 62
     2
100
AcDbLine
 10
1122.01941
 20
2433.3
 30
0.0
 11
1206.8
 21
2433.3
 31
0.0
  0
LINE
  5
1B8
330
A
100
AcDbEntity
  8
LAY-3
  6
Continuous
 62
     2
100
AcDbLine
 10
1136.24282
 20
2408.8
 30
0.0
 11
1179.80128
 21
2408.8
 31
0.0
  0
LINE
  5
1B9
330
A
100
AcDbEntity
  8
LAY-3
  6
Continuous
 62
     2
100
AcDbLine
 10
1122.01941
 20
2328.3
 30
0.0
 11
1206.8
 21
2328.3
 31
0.0
  0
LINE
  5
1BA
330
A
100
AcDbEntity
  8
LAY-3
  6
Continuous
 62
     2
100
AcDbLine
 10
1156.31606
 20
2352.8
 30
0.0
 11
1206.8
 21
2352.8
 31
0.0
  0
LINE
  5
1BB
330
A
100
AcDbEntity
  8
LAY-3
  6
Continuous
 62
     2
100
AcDbLine
 10
1243.2
 20
2408.8
 30
0.0
 11
1243.2
 21
2391.300000000001
 31
0.0
  0
TEXT
  5
1BE
330
A
100
AcDbEntity
  8
LAY-3
  6
Continuous
 62
     7
100
AcDbText
 10
1557.8
 20
2301.400000000001
 30
0.0
 40
180.0
  1
タフボーイ
 41
0.9036144578313251
  7
EXCADSTD
 72
     5
 11
2457.800000000001
 21
2301.400000000001
 31
0.0
100
AcDbText
  0
LINE
  5
1BF
330
A
100
AcDbEntity
  8
LAY-3
  6
Continuous
 62
     3
100
AcDbLine
 10
896.0499699999997
 20
1776.54919
 30
0.0
 11
896.0499699999997
 21
1900.25081
 31
0.0
  0
LINE
  5
1C0
330
A
100
AcDbEntity
  8
LAY-3
  6
Continuous
 62
     3
100
AcDbLine
 10
909.4007699999997
 20
1775.9
 30
0.0
 11
896.6991599999996
 21
1775.9
 31
0.0
  0
LINE
  5
1C1
330
A
100
AcDbEntity
  8
LAY-3
  6
Continuous
 62
     3
100
AcDbLine
 10
896.6991599999996
 20
1775.9
 30
0.0
 11
896.0499699999997
 21
1776.54919
 31
0.0
  0
LINE
  5
1C2
330
A
100
AcDbEntity
  8
LAY-3
  6
Continuous
 62
     3
100
AcDbLine
 10
909.4007699999997
 20
1900.9
 30
0.0
 11
896.6991599999996
 21
1900.9
 31
0.0
  0
LINE
  5
1C3
330
A
100
AcDbEntity
  8
LAY-3
  6
Continuous
 62
     3
100
AcDbLine
 10
896.6991599999996
 20
1900.9
 30
0.0
 11
896.0499699999997
 21
1900.25081
 31
0.0
  0
LINE
  5
1C4
330
A
100
AcDbEntity
  8
LAY-3
  6
Continuous
 62
     3
100
AcDbLine
 10
910.0499499999996
 20
1776.54919
 30
0.0
 11
910.0499499999996
 21
1900.25081
 31
0.0
  0
LINE
  5
1C5
330
A
100
AcDbEntity
  8
LAY-3
  6
Continuous
 62
     3
100
AcDbLine
 10
910.0499499999996
 20
1776.54919
 30
0.0
 11
909.4007699999997
 21
1775.9
 31
0.0
  0
LINE
  5
1C6
330
A
100
AcDbEntity
  8
LAY-3
  6
Continuous
 62
     3
100
AcDbLine
 10
910.0499499999996
 20
1900.25081
 30
0.0
 11
909.4007699999997
 21
1900.9
 31
0.0
  0
LINE
  5
1C7
330
A
100
AcDbEntity
  8
LAY-3
  6
Continuous
 62
     3
100
AcDbLine
 10
977.6992399999997
 20
1775.9
 30
0.0
 11
990.4008499999997
 21
1775.9
 31
0.0
  0
LINE
  5
1C8
330
A
100
AcDbEntity
  8
LAY-3
  6
Continuous
 62
     3
100
AcDbLine
 10
990.4008499999997
 20
1775.9
 30
0.0
 11
991.0500399999998
 21
1776.54919
 31
0.0
  0
LINE
  5
1C9
330
A
100
AcDbEntity
  8
LAY-3
  6
Continuous
 62
     3
100
AcDbLine
 10
977.6992399999997
 20
1900.9
 30
0.0
 11
990.4008499999997
 21
1900.9
 31
0.0
  0
LINE
  5
1CA
330
A
100
AcDbEntity
  8
LAY-3
  6
Continuous
 62
     3
100
AcDbLine
 10
990.4008499999997
 20
1900.9
 30
0.0
 11
991.0500399999998
 21
1900.25081
 31
0.0
  0
LINE
  5
1CB
330
A
100
AcDbEntity
  8
LAY-3
  6
Continuous
 62
     3
100
AcDbLine
 10
977.0500599999996
 20
1776.54919
 30
0.0
 11
977.0500599999996
 21
1900.25081
 31
0.0
  0
LINE
  5
1CC
330
A
100
AcDbEntity
  8
LAY-3
  6
Continuous
 62
     3
100
AcDbLine
 10
977.0500599999996
 20
1776.54919
 30
0.0
 11
977.6992399999997
 21
1775.9
 31
0.0
  0
LINE
  5
1CD
330
A
100
AcDbEntity
  8
LAY-3
  6
Continuous
 62
     3
100
AcDbLine
 10
977.0500599999996
 20
1900.25081
 30
0.0
 11
977.6992399999997
 21
1900.9
 31
0.0
  0
LINE
  5
1CE
330
A
100
AcDbEntity
  8
LAY-3
  6
Continuous
 62
     3
100
AcDbLine
 10
993.5500099999996
 20
1866.93933
 30
0.0
 11
993.5500099999996
 21
1838.4
 31
0.0
  0
LINE
  5
1CF
330
A
100
AcDbEntity
  8
LAY-3
  6
Continuous
 62
     3
100
AcDbLine
 10
991.0500399999998
 20
1868.4
 30
0.0
 11
993.5500099999996
 21
1866.93933
 31
0.0
  0
LINE
  5
1D0
330
A
100
AcDbEntity
  8
LAY-3
  6
Continuous
 62
     3
100
AcDbLine
 10
993.5500099999996
 20
1809.86067
 30
0.0
 11
993.5500099999996
 21
1838.4
 31
0.0
  0
LINE
  5
1D1
330
A
100
AcDbEntity
  8
LAY-3
  6
Continuous
 62
     3
100
AcDbLine
 10
991.0500399999998
 20
1808.4
 30
0.0
 11
993.5500099999996
 21
1809.86067
 31
0.0
  0
LINE
  5
1D2
330
A
100
AcDbEntity
  8
LAY-3
  6
Continuous
 62
     3
100
AcDbLine
 10
991.0500399999998
 20
1776.54919
 30
0.0
 11
991.0500399999998
 21
1900.25081
 31
0.0
  0
LINE
  5
1D3
330
A
100
AcDbEntity
  8
LAY-3
  6
Continuous
 62
     3
100
AcDbLine
 10
893.5499999999997
 20
1866.93933
 30
0.0
 11
893.5499999999997
 21
1838.4
 31
0.0
  0
LINE
  5
1D4
330
A
100
AcDbEntity
  8
LAY-3
  6
Continuous
 62
     3
100
AcDbLine
 10
896.0499699999997
 20
1868.4
 30
0.0
 11
893.5499999999997
 21
1866.93933
 31
0.0
  0
LINE
  5
1D5
330
A
100
AcDbEntity
  8
LAY-3
  6
Continuous
 62
     3
100
AcDbLine
 10
893.5499999999997
 20
1809.86067
 30
0.0
 11
893.5499999999997
 21
1838.4
 31
0.0
  0
LINE
  5
1D6
330
A
100
AcDbEntity
  8
LAY-3
  6
Continuous
 62
     3
100
AcDbLine
 10
896.0499699999997
 20
1808.4
 30
0.0
 11
893.5499999999997
 21
1809.86067
 31
0.0
  0
LINE
  5
1D7
330
A
100
AcDbEntity
  8
LAY-3
  6
EXLTYPE3
 62
     1
100
AcDbLine
 10
1013.55001
 20
1838.4
 30
0.0
 11
873.5499999999998
 21
1838.4
 31
0.0
  0
TEXT
  5
1D8
330
A
100
AcDbEntity
  8
LAY-3
  6
Continuous
 62
     7
100
AcDbText
 10
728.8000099999996
 20
2184.4
 30
0.0
 40
50.0
  1
２５Ａ\U+00D7１００Ｌ
 41
1.01863354347826
  7
EXCADSTD
 72
     5
 11
1197.371439999999
 21
2184.4
 31
0.0
100
AcDbText
  0
TEXT
  5
1D9
330
A
100
AcDbEntity
  8
LAY-3
  6
Continuous
 62
     7
100
AcDbText
 10
1364.8
 20
2182.4
 30
0.0
 40
50.0
  1
３２Ａ\U+00D7１００Ｌ
 41
1.01863354347826
  7
EXCADSTD
 72
     5
 11
1833.371429999999
 21
2182.4
 31
0.0
100
AcDbText
  0
TEXT
  5
1DA
330
A
100
AcDbEntity
  8
LAY-3
  6
Continuous
 62
     7
100
AcDbText
 10
2013.80001
 20
2182.4
 30
0.0
 40
50.0
  1
４０Ａ\U+00D7１００Ｌ
 41
1.018633543478261
  7
EXCADSTD
 72
     5
 11
2482.37144
 21
2182.4
 31
0.0
100
AcDbText
  0
TEXT
  5
1DB
330
A
100
AcDbEntity
  8
LAY-3
  6
Continuous
 62
     7
100
AcDbText
 10
2638.80001
 20
2182.4
 30
0.0
 40
50.0
  1
５０Ａ\U+00D7１００Ｌ
 41
1.021739130434782
  7
EXCADSTD
 72
     5
 11
3108.800009999999
 21
2182.4
 31
0.0
100
AcDbText
  0
TEXT
  5
1DC
330
A
100
AcDbEntity
  8
LAY-3
  6
Continuous
 62
     7
100
AcDbText
 10
3249.8
 20
2186.4
 30
0.0
 40
50.0
  1
６５Ａ\U+00D7１２０Ｌ
 41
1.021739130434782
  7
EXCADSTD
 72
     5
 11
3719.8
 21
2186.4
 31
0.0
100
AcDbText
  0
TEXT
  5
1DD
330
A
100
AcDbEntity
  8
LAY-3
  6
Continuous
 62
     7
100
AcDbText
 10
73.80000000000063
 20
1435.4
 30
0.0
 40
50.0
  1
８０Ａ\U+00D7１２０Ｌ
 41
1.021739130434782
  7
EXCADSTD
 72
     5
 11
543.8000000000006
 21
1435.4
 31
0.0
100
AcDbText
  0
TEXT
  5
1DE
330
A
100
AcDbEntity
  8
LAY-3
  6
Continuous
 62
     7
100
AcDbText
 10
688.8000099999997
 20
1435.4
 30
0.0
 40
50.0
  1
１００Ａ\U+00D7１２０Ｌ
 41
1.019230769230768
  7
EXCADSTD
 72
     5
 11
1218.800009999999
 21
1435.4
 31
0.0
100
AcDbText
  0
TEXT
  5
1DF
330
A
100
AcDbEntity
  8
LAY-3
  6
Continuous
 62
     7
100
AcDbText
 10
1322.8
 20
1435.4
 30
0.0
 40
50.0
  1
１２５Ａ\U+00D7１２０Ｌ
 41
1.019230769230768
  7
EXCADSTD
 72
     5
 11
1852.799999999999
 21
1435.4
 31
0.0
100
AcDbText
  0
TEXT
  5
1E0
330
A
100
AcDbEntity
  8
LAY-3
  6
Continuous
 62
     7
100
AcDbText
 10
1945.800009999999
 20
1435.4
 30
0.0
 40
50.0
  1
１５０Ａ\U+00D7１５０Ｌ
 41
1.01923076923077
  7
EXCADSTD
 72
     5
 11
2475.80001
 21
1435.4
 31
0.0
100
AcDbText
  0
TEXT
  5
1E1
330
A
100
AcDbEntity
  8
LAY-3
  6
Continuous
 62
     7
100
AcDbText
 10
2589.80001
 20
1435.4
 30
0.0
 40
50.0
  1
２００Ａ\U+00D7１５０Ｌ
 41
1.019230769230769
  7
EXCADSTD
 72
     5
 11
3119.80001
 21
1435.4
 31
0.0
100
AcDbText
  0
TEXT
  5
1E2
330
A
100
AcDbEntity
  8
LAY-3
  6
Continuous
 62
     7
100
AcDbText
 10
3210.8
 20
1435.4
 30
0.0
 40
50.0
  1
２５０Ａ\U+00D7１７５Ｌ
 41
1.01923076923077
  7
EXCADSTD
 72
     5
 11
3740.8
 21
1435.4
 31
0.0
100
AcDbText
  0
TEXT
  5
1E3
330
A
100
AcDbEntity
  8
LAY-3
  6
Continuous
 62
     7
100
AcDbText
 10
44.80000000000063
 20
686.3999999999999
 30
0.0
 40
50.0
  1
３００Ａ\U+00D7１７５Ｌ
 41
1.019230769230769
  7
EXCADSTD
 72
     5
 11
574.8000000000006
 21
686.3999999999999
 31
0.0
100
AcDbText
  0
LINE
  5
1E4
330
A
100
AcDbEntity
  8
LAY-3
  6
Continuous
 62
     3
100
AcDbLine
 10
1530.532499999999
 20
1905.9
 30
0.0
 11
1529.883309999999
 21
1905.25081
 31
0.0
  0
LINE
  5
1E5
330
A
100
AcDbEntity
  8
LAY-3
  6
Continuous
 62
     3
100
AcDbLine
 10
1624.23418
 20
1905.9
 30
0.0
 11
1624.883369999999
 21
1905.25081
 31
0.0
  0
LINE
  5
1E6
330
A
100
AcDbEntity
  8
LAY-3
  6
Continuous
 62
     3
100
AcDbLine
 10
1530.532499999999
 20
1770.9
 30
0.0
 11
1529.883309999999
 21
1771.54919
 31
0.0
  0
LINE
  5
1E7
330
A
100
AcDbEntity
  8
LAY-3
  6
Continuous
 62
     3
100
AcDbLine
 10
1624.23418
 20
1770.9
 30
0.0
 11
1624.883369999999
 21
1771.54919
 31
0.0
  0
LINE
  5
1E8
330
A
100
AcDbEntity
  8
LAY-3
  6
Continuous
 62
     3
100
AcDbLine
 10
1527.38334
 20
1871.93933
 30
0.0
 11
1527.38334
 21
1838.4
 31
0.0
  0
LINE
  5
1E9
330
A
100
AcDbEntity
  8
LAY-3
  6
Continuous
 62
     3
100
AcDbLine
 10
1529.883309999999
 20
1873.4
 30
0.0
 11
1527.38334
 21
1871.93933
 31
0.0
  0
LINE
  5
1EA
330
A
100
AcDbEntity
  8
LAY-3
  6
Continuous
 62
     3
100
AcDbLine
 10
1527.38334
 20
1804.86067
 30
0.0
 11
1527.38334
 21
1838.4
 31
0.0
  0
LINE
  5
1EB
330
A
100
AcDbEntity
  8
LAY-3
  6
Continuous
 62
     3
100
AcDbLine
 10
1529.883309999999
 20
1803.4
 30
0.0
 11
1527.38334
 21
1804.86067
 31
0.0
  0
LINE
  5
1EC
330
A
100
AcDbEntity
  8
LAY-3
  6
Continuous
 62
     3
100
AcDbLine
 10
1529.883309999999
 20
1771.54919
 30
0.0
 11
1529.883309999999
 21
1905.25081
 31
0.0
  0
LINE
  5
1ED
330
A
100
AcDbEntity
  8
LAY-3
  6
Continuous
 62
     3
100
AcDbLine
 10
1627.383339999999
 20
1871.93933
 30
0.0
 11
1627.383339999999
 21
1838.4
 31
0.0
  0
LINE
  5
1EE
330
A
100
AcDbEntity
  8
LAY-3
  6
Continuous
 62
     3
100
AcDbLine
 10
1624.883369999999
 20
1873.4
 30
0.0
 11
1627.383339999999
 21
1871.93933
 31
0.0
  0
LINE
  5
1EF
330
A
100
AcDbEntity
  8
LAY-3
  6
Continuous
 62
     3
100
AcDbLine
 10
1627.383339999999
 20
1804.86067
 30
0.0
 11
1627.383339999999
 21
1838.4
 31
0.0
  0
LINE
  5
1F0
330
A
100
AcDbEntity
  8
LAY-3
  6
Continuous
 62
     3
100
AcDbLine
 10
1624.883369999999
 20
1803.4
 30
0.0
 11
1627.383339999999
 21
1804.86067
 31
0.0
  0
LINE
  5
1F1
330
A
100
AcDbEntity
  8
LAY-3
  6
Continuous
 62
     3
100
AcDbLine
 10
1624.883369999999
 20
1771.54919
 30
0.0
 11
1624.883369999999
 21
1905.25081
 31
0.0
  0
LINE
  5
1F2
330
A
100
AcDbEntity
  8
LAY-3
  6
Continuous
 62
     3
100
AcDbLine
 10
1545.2341
 20
1905.9
 30
0.0
 11
1530.532499999999
 21
1905.9
 31
0.0
  0
LINE
  5
1F3
330
A
100
AcDbEntity
  8
LAY-3
  6
Continuous
 62
     3
100
AcDbLine
 10
1545.883289999999
 20
1905.25081
 30
0.0
 11
1545.2341
 21
1905.9
 31
0.0
  0
LINE
  5
1F4
330
A
100
AcDbEntity
  8
LAY-3
  6
Continuous
 62
     3
100
AcDbLine
 10
1545.2341
 20
1770.9
 30
0.0
 11
1530.532499999999
 21
1770.9
 31
0.0
  0
LINE
  5
1F5
330
A
100
AcDbEntity
  8
LAY-3
  6
Continuous
 62
     3
100
AcDbLine
 10
1545.883289999999
 20
1771.54919
 30
0.0
 11
1545.2341
 21
1770.9
 31
0.0
  0
LINE
  5
1F6
330
A
100
AcDbEntity
  8
LAY-3
  6
Continuous
 62
     3
100
AcDbLine
 10
1545.883289999999
 20
1771.54919
 30
0.0
 11
1545.883289999999
 21
1905.25081
 31
0.0
  0
LINE
  5
1F7
330
A
100
AcDbEntity
  8
LAY-3
  6
Continuous
 62
     3
100
AcDbLine
 10
1609.532579999999
 20
1905.9
 30
0.0
 11
1624.23418
 21
1905.9
 31
0.0
  0
LINE
  5
1F8
330
A
100
AcDbEntity
  8
LAY-3
  6
Continuous
 62
     3
100
AcDbLine
 10
1608.88339
 20
1905.25081
 30
0.0
 11
1609.532579999999
 21
1905.9
 31
0.0
  0
LINE
  5
1F9
330
A
100
AcDbEntity
  8
LAY-3
  6
Continuous
 62
     3
100
AcDbLine
 10
1609.532579999999
 20
1770.9
 30
0.0
 11
1624.23418
 21
1770.9
 31
0.0
  0
LINE
  5
1FA
330
A
100
AcDbEntity
  8
LAY-3
  6
Continuous
 62
     3
100
AcDbLine
 10
1608.88339
 20
1771.54919
 30
0.0
 11
1609.532579999999
 21
1770.9
 31
0.0
  0
LINE
  5
1FB
330
A
100
AcDbEntity
  8
LAY-3
  6
Continuous
 62
     3
100
AcDbLine
 10
1608.88339
 20
1771.54919
 30
0.0
 11
1608.88339
 21
1905.25081
 31
0.0
  0
LINE
  5
1FC
330
A
100
AcDbEntity
  8
LAY-3
  6
EXLTYPE3
 62
     1
100
AcDbLine
 10
1642.383339999999
 20
1838.4
 30
0.0
 11
1512.383339999999
 21
1838.4
 31
0.0
  0
LINE
  5
1FD
330
A
100
AcDbEntity
  8
LAY-3
  6
EXLTYPE3
 62
     1
100
AcDbLine
 10
2276.21668
 20
1838.4
 30
0.0
 11
2146.21667
 21
1838.4
 31
0.0
  0
LINE
  5
1FE
330
A
100
AcDbEntity
  8
LAY-3
  6
Continuous
 62
     3
100
AcDbLine
 10
2161.21667
 20
1875.93933
 30
0.0
 11
2161.21667
 21
1838.4
 31
0.0
  0
LINE
  5
1FF
330
A
100
AcDbEntity
  8
LAY-3
  6
Continuous
 62
     3
100
AcDbLine
 10
2163.71664
 20
1877.4
 30
0.0
 11
2161.21667
 21
1875.93933
 31
0.0
  0
LINE
  5
200
330
A
100
AcDbEntity
  8
LAY-3
  6
Continuous
 62
     3
100
AcDbLine
 10
2261.21668
 20
1875.93933
 30
0.0
 11
2261.21668
 21
1838.4
 31
0.0
  0
LINE
  5
201
330
A
100
AcDbEntity
  8
LAY-3
  6
Continuous
 62
     3
100
AcDbLine
 10
2258.71671
 20
1877.4
 30
0.0
 11
2261.21668
 21
1875.93933
 31
0.0
  0
LINE
  5
202
330
A
100
AcDbEntity
  8
LAY-3
  6
Continuous
 62
     3
100
AcDbLine
 10
2161.21667
 20
1800.86067
 30
0.0
 11
2161.21667
 21
1838.4
 31
0.0
  0
LINE
  5
203
330
A
100
AcDbEntity
  8
LAY-3
  6
Continuous
 62
     3
100
AcDbLine
 10
2163.71664
 20
1799.4
 30
0.0
 11
2161.21667
 21
1800.86067
 31
0.0
  0
LINE
  5
204
330
A
100
AcDbEntity
  8
LAY-3
  6
Continuous
 62
     3
100
AcDbLine
 10
2261.21668
 20
1800.86067
 30
0.0
 11
2261.21668
 21
1838.4
 31
0.0
  0
LINE
  5
205
330
A
100
AcDbEntity
  8
LAY-3
  6
Continuous
 62
     3
100
AcDbLine
 10
2258.71671
 20
1799.4
 30
0.0
 11
2261.21668
 21
1800.86067
 31
0.0
  0
LINE
  5
206
330
A
100
AcDbEntity
  8
LAY-3
  6
Continuous
 62
     3
100
AcDbLine
 10
2164.36583
 20
1908.4
 30
0.0
 11
2163.71664
 21
1907.75081
 31
0.0
  0
LINE
  5
207
330
A
100
AcDbEntity
  8
LAY-3
  6
Continuous
 62
     3
100
AcDbLine
 10
2258.06752
 20
1908.4
 30
0.0
 11
2258.71671
 21
1907.75081
 31
0.0
  0
LINE
  5
208
330
A
100
AcDbEntity
  8
LAY-3
  6
Continuous
 62
     3
100
AcDbLine
 10
2179.06744
 20
1908.4
 30
0.0
 11
2164.36583
 21
1908.4
 31
0.0
  0
LINE
  5
209
330
A
100
AcDbEntity
  8
LAY-3
  6
Continuous
 62
     3
100
AcDbLine
 10
2179.71662
 20
1907.75081
 30
0.0
 11
2179.06744
 21
1908.4
 31
0.0
  0
LINE
  5
20A
330
A
100
AcDbEntity
  8
LAY-3
  6
Continuous
 62
     3
100
AcDbLine
 10
2243.36591
 20
1908.4
 30
0.0
 11
2258.06752
 21
1908.4
 31
0.0
  0
LINE
  5
20B
330
A
100
AcDbEntity
  8
LAY-3
  6
Continuous
 62
     3
100
AcDbLine
 10
2242.716729999999
 20
1907.75081
 30
0.0
 11
2243.36591
 21
1908.4
 31
0.0
  0
LINE
  5
20C
330
A
100
AcDbEntity
  8
LAY-3
  6
Continuous
 62
     3
100
AcDbLine
 10
2164.36583
 20
1768.4
 30
0.0
 11
2163.71664
 21
1769.04919
 31
0.0
  0
LINE
  5
20D
330
A
100
AcDbEntity
  8
LAY-3
  6
Continuous
 62
     3
100
AcDbLine
 10
2258.06752
 20
1768.4
 30
0.0
 11
2258.71671
 21
1769.04919
 31
0.0
  0
LINE
  5
20E
330
A
100
AcDbEntity
  8
LAY-3
  6
Continuous
 62
     3
100
AcDbLine
 10
2179.06744
 20
1768.4
 30
0.0
 11
2164.36583
 21
1768.4
 31
0.0
  0
LINE
  5
20F
330
A
100
AcDbEntity
  8
LAY-3
  6
Continuous
 62
     3
100
AcDbLine
 10
2179.71662
 20
1769.04919
 30
0.0
 11
2179.06744
 21
1768.4
 31
0.0
  0
LINE
  5
210
330
A
100
AcDbEntity
  8
LAY-3
  6
Continuous
 62
     3
100
AcDbLine
 10
2243.36591
 20
1768.4
 30
0.0
 11
2258.06752
 21
1768.4
 31
0.0
  0
LINE
  5
211
330
A
100
AcDbEntity
  8
LAY-3
  6
Continuous
 62
     3
100
AcDbLine
 10
2242.716729999999
 20
1769.04919
 30
0.0
 11
2243.36591
 21
1768.4
 31
0.0
  0
LINE
  5
212
330
A
100
AcDbEntity
  8
LAY-3
  6
Continuous
 62
     3
100
AcDbLine
 10
2163.71664
 20
1769.04919
 30
0.0
 11
2163.71664
 21
1907.75081
 31
0.0
  0
LINE
  5
213
330
A
100
AcDbEntity
  8
LAY-3
  6
Continuous
 62
     3
100
AcDbLine
 10
2258.71671
 20
1769.04919
 30
0.0
 11
2258.71671
 21
1907.75081
 31
0.0
  0
LINE
  5
214
330
A
100
AcDbEntity
  8
LAY-3
  6
Continuous
 62
     3
100
AcDbLine
 10
2179.71662
 20
1769.04919
 30
0.0
 11
2179.71662
 21
1907.75081
 31
0.0
  0
LINE
  5
215
330
A
100
AcDbEntity
  8
LAY-3
  6
Continuous
 62
     3
100
AcDbLine
 10
2242.716729999999
 20
1769.04919
 30
0.0
 11
2242.716729999999
 21
1907.75081
 31
0.0
  0
ARC
  5
216
330
A
100
AcDbEntity
  8
LAY-3
  6
Continuous
 62
     3
100
AcDbCircle
 10
2211.21667
 20
1818.30645
 30
0.0
 40
59.09355000000001
100
AcDbArc
 50
57.78796399999876
 51
122.2120360000012
  0
ARC
  5
217
330
A
100
AcDbEntity
  8
LAY-3
  6
Continuous
 62
     3
100
AcDbCircle
 10
2211.21667
 20
1858.49355
 30
0.0
 40
59.09355000000001
100
AcDbArc
 50
237.7879639999988
 51
302.2120360000012
  0
ARC
  5
218
330
A
100
AcDbEntity
  8
LAY-3
  6
Continuous
 62
     3
100
AcDbCircle
 10
1577.38334
 20
1814.30645
 30
0.0
 40
59.09355000000001
100
AcDbArc
 50
57.78796399999876
 51
122.2120360000012
  0
ARC
  5
219
330
A
100
AcDbEntity
  8
LAY-3
  6
Continuous
 62
     3
100
AcDbCircle
 10
1577.38334
 20
1862.49355
 30
0.0
 40
59.09355000000001
100
AcDbArc
 50
237.7879639999988
 51
302.2120360000012
  0
ARC
  5
21A
330
A
100
AcDbEntity
  8
LAY-3
  6
Continuous
 62
     3
100
AcDbCircle
 10
943.5499999999997
 20
1802.16014
 30
0.0
 40
66.23986000000001
100
AcDbArc
 50
59.619608999998
 51
120.3803910000019
  0
ARC
  5
21B
330
A
100
AcDbEntity
  8
LAY-3
  6
Continuous
 62
     3
100
AcDbCircle
 10
943.5499999999997
 20
1874.63986
 30
0.0
 40
66.23986000000001
100
AcDbArc
 50
239.619608999998
 51
300.380391000002
  0
LINE
  5
21C
330
A
100
AcDbEntity
  8
LAY-3
  6
EXLTYPE3
 62
     1
100
AcDbLine
 10
2910.050009999999
 20
1838.4
 30
0.0
 11
2780.05
 21
1838.4
 31
0.0
  0
LINE
  5
21D
330
A
100
AcDbEntity
  8
LAY-3
  6
Continuous
 62
     3
100
AcDbLine
 10
2795.05
 20
1883.43933
 30
0.0
 11
2795.05
 21
1838.4
 31
0.0
  0
LINE
  5
21E
330
A
100
AcDbEntity
  8
LAY-3
  6
Continuous
 62
     3
100
AcDbLine
 10
2797.54997
 20
1884.9
 30
0.0
 11
2795.05
 21
1883.43933
 31
0.0
  0
LINE
  5
21F
330
A
100
AcDbEntity
  8
LAY-3
  6
Continuous
 62
     3
100
AcDbLine
 10
2895.05001
 20
1883.43933
 30
0.0
 11
2895.05001
 21
1838.4
 31
0.0
  0
LINE
  5
220
330
A
100
AcDbEntity
  8
LAY-3
  6
Continuous
 62
     3
100
AcDbLine
 10
2892.55004
 20
1884.9
 30
0.0
 11
2895.05001
 21
1883.43933
 31
0.0
  0
ARC
  5
221
330
A
100
AcDbEntity
  8
LAY-3
  6
Continuous
 62
     3
100
AcDbCircle
 10
2845.050009999999
 20
1825.80645
 30
0.0
 40
59.09355000000001
100
AcDbArc
 50
57.78796399999876
 51
122.2120360000012
  0
LINE
  5
222
330
A
100
AcDbEntity
  8
LAY-3
  6
Continuous
 62
     3
100
AcDbLine
 10
2795.05
 20
1793.36067
 30
0.0
 11
2795.05
 21
1838.4
 31
0.0
  0
LINE
  5
223
330
A
100
AcDbEntity
  8
LAY-3
  6
Continuous
 62
     3
100
AcDbLine
 10
2797.54997
 20
1791.9
 30
0.0
 11
2795.05
 21
1793.36067
 31
0.0
  0
LINE
  5
224
330
A
100
AcDbEntity
  8
LAY-3
  6
Continuous
 62
     3
100
AcDbLine
 10
2895.05001
 20
1793.36067
 30
0.0
 11
2895.05001
 21
1838.4
 31
0.0
  0
LINE
  5
225
330
A
100
AcDbEntity
  8
LAY-3
  6
Continuous
 62
     3
100
AcDbLine
 10
2892.55004
 20
1791.9
 30
0.0
 11
2895.05001
 21
1793.36067
 31
0.0
  0
ARC
  5
226
330
A
100
AcDbEntity
  8
LAY-3
  6
Continuous
 62
     3
100
AcDbCircle
 10
2845.050009999999
 20
1850.99355
 30
0.0
 40
59.09355000000001
100
AcDbArc
 50
237.7879639999988
 51
302.2120360000012
  0
LINE
  5
227
330
A
100
AcDbEntity
  8
LAY-3
  6
Continuous
 62
     3
100
AcDbLine
 10
2798.19916
 20
1915.9
 30
0.0
 11
2797.54997
 21
1915.25081
 31
0.0
  0
LINE
  5
228
330
A
100
AcDbEntity
  8
LAY-3
  6
Continuous
 62
     3
100
AcDbLine
 10
2891.90085
 20
1915.9
 30
0.0
 11
2892.55004
 21
1915.25081
 31
0.0
  0
LINE
  5
229
330
A
100
AcDbEntity
  8
LAY-3
  6
Continuous
 62
     3
100
AcDbLine
 10
2812.90077
 20
1915.9
 30
0.0
 11
2798.19916
 21
1915.9
 31
0.0
  0
LINE
  5
22A
330
A
100
AcDbEntity
  8
LAY-3
  6
Continuous
 62
     3
100
AcDbLine
 10
2813.54995
 20
1915.25081
 30
0.0
 11
2812.90077
 21
1915.9
 31
0.0
  0
LINE
  5
22B
330
A
100
AcDbEntity
  8
LAY-3
  6
Continuous
 62
     3
100
AcDbLine
 10
2877.199239999999
 20
1915.9
 30
0.0
 11
2891.90085
 21
1915.9
 31
0.0
  0
LINE
  5
22C
330
A
100
AcDbEntity
  8
LAY-3
  6
Continuous
 62
     3
100
AcDbLine
 10
2876.55006
 20
1915.25081
 30
0.0
 11
2877.199239999999
 21
1915.9
 31
0.0
  0
LINE
  5
22D
330
A
100
AcDbEntity
  8
LAY-3
  6
Continuous
 62
     3
100
AcDbLine
 10
2798.19916
 20
1760.9
 30
0.0
 11
2797.54997
 21
1761.54919
 31
0.0
  0
LINE
  5
22E
330
A
100
AcDbEntity
  8
LAY-3
  6
Continuous
 62
     3
100
AcDbLine
 10
2891.90085
 20
1760.9
 30
0.0
 11
2892.55004
 21
1761.54919
 31
0.0
  0
LINE
  5
22F
330
A
100
AcDbEntity
  8
LAY-3
  6
Continuous
 62
     3
100
AcDbLine
 10
2812.90077
 20
1760.9
 30
0.0
 11
2798.19916
 21
1760.9
 31
0.0
  0
LINE
  5
230
330
A
100
AcDbEntity
  8
LAY-3
  6
Continuous
 62
     3
100
AcDbLine
 10
2813.54995
 20
1761.54919
 30
0.0
 11
2812.90077
 21
1760.9
 31
0.0
  0
LINE
  5
231
330
A
100
AcDbEntity
  8
LAY-3
  6
Continuous
 62
     3
100
AcDbLine
 10
2877.199239999999
 20
1760.9
 30
0.0
 11
2891.90085
 21
1760.9
 31
0.0
  0
LINE
  5
232
330
A
100
AcDbEntity
  8
LAY-3
  6
Continuous
 62
     3
100
AcDbLine
 10
2876.55006
 20
1761.54919
 30
0.0
 11
2877.199239999999
 21
1760.9
 31
0.0
  0
LINE
  5
233
330
A
100
AcDbEntity
  8
LAY-3
  6
Continuous
 62
     3
100
AcDbLine
 10
2797.54997
 20
1761.54919
 30
0.0
 11
2797.54997
 21
1915.25081
 31
0.0
  0
LINE
  5
234
330
A
100
AcDbEntity
  8
LAY-3
  6
Continuous
 62
     3
100
AcDbLine
 10
2892.55004
 20
1761.54919
 30
0.0
 11
2892.55004
 21
1915.25081
 31
0.0
  0
LINE
  5
235
330
A
100
AcDbEntity
  8
LAY-3
  6
Continuous
 62
     3
100
AcDbLine
 10
2813.54995
 20
1761.54919
 30
0.0
 11
2813.54995
 21
1915.25081
 31
0.0
  0
LINE
  5
236
330
A
100
AcDbEntity
  8
LAY-3
  6
Continuous
 62
     3
100
AcDbLine
 10
2876.55006
 20
1761.54919
 30
0.0
 11
2876.55006
 21
1915.25081
 31
0.0
  0
LINE
  5
237
330
A
100
AcDbEntity
  8
LAY-3
  6
Continuous
 62
     3
100
AcDbLine
 10
3535.73418
 20
1925.9
 30
0.0
 11
3536.383369999999
 21
1925.25081
 31
0.0
  0
LINE
  5
238
330
A
100
AcDbEntity
  8
LAY-3
  6
Continuous
 62
     3
100
AcDbLine
 10
3535.73418
 20
1750.9
 30
0.0
 11
3536.383369999999
 21
1751.54919
 31
0.0
  0
LINE
  5
239
330
A
100
AcDbEntity
  8
LAY-3
  6
Continuous
 62
     3
100
AcDbLine
 10
3538.88334
 20
1892.93933
 30
0.0
 11
3538.88334
 21
1838.4
 31
0.0
  0
LINE
  5
23A
330
A
100
AcDbEntity
  8
LAY-3
  6
Continuous
 62
     3
100
AcDbLine
 10
3536.383369999999
 20
1894.4
 30
0.0
 11
3538.88334
 21
1892.93933
 31
0.0
  0
LINE
  5
23B
330
A
100
AcDbEntity
  8
LAY-3
  6
Continuous
 62
     3
100
AcDbLine
 10
3538.88334
 20
1783.86067
 30
0.0
 11
3538.88334
 21
1838.4
 31
0.0
  0
LINE
  5
23C
330
A
100
AcDbEntity
  8
LAY-3
  6
Continuous
 62
     3
100
AcDbLine
 10
3536.383369999999
 20
1782.4
 30
0.0
 11
3538.88334
 21
1783.86067
 31
0.0
  0
LINE
  5
23D
330
A
100
AcDbEntity
  8
LAY-3
  6
Continuous
 62
     3
100
AcDbLine
 10
3536.383369999999
 20
1751.54919
 30
0.0
 11
3536.383369999999
 21
1925.25081
 31
0.0
  0
LINE
  5
23E
330
A
100
AcDbEntity
  8
LAY-3
  6
Continuous
 62
     3
100
AcDbLine
 10
3519.032580000001
 20
1925.9
 30
0.0
 11
3535.73418
 21
1925.9
 31
0.0
  0
LINE
  5
23F
330
A
100
AcDbEntity
  8
LAY-3
  6
Continuous
 62
     3
100
AcDbLine
 10
3518.38339
 20
1925.25081
 30
0.0
 11
3519.032580000001
 21
1925.9
 31
0.0
  0
LINE
  5
240
330
A
100
AcDbEntity
  8
LAY-3
  6
Continuous
 62
     3
100
AcDbLine
 10
3519.032580000001
 20
1750.9
 30
0.0
 11
3535.73418
 21
1750.9
 31
0.0
  0
LINE
  5
241
330
A
100
AcDbEntity
  8
LAY-3
  6
Continuous
 62
     3
100
AcDbLine
 10
3518.38339
 20
1751.54919
 30
0.0
 11
3519.032580000001
 21
1750.9
 31
0.0
  0
LINE
  5
242
330
A
100
AcDbEntity
  8
LAY-3
  6
Continuous
 62
     3
100
AcDbLine
 10
3518.38339
 20
1751.54919
 30
0.0
 11
3518.38339
 21
1925.25081
 31
0.0
  0
LINE
  5
243
330
A
100
AcDbEntity
  8
LAY-3
  6
Continuous
 62
     3
100
AcDbLine
 10
3422.0325
 20
1925.9
 30
0.0
 11
3421.38331
 21
1925.25081
 31
0.0
  0
LINE
  5
244
330
A
100
AcDbEntity
  8
LAY-3
  6
Continuous
 62
     3
100
AcDbLine
 10
3422.0325
 20
1750.9
 30
0.0
 11
3421.38331
 21
1751.54919
 31
0.0
  0
LINE
  5
245
330
A
100
AcDbEntity
  8
LAY-3
  6
Continuous
 62
     3
100
AcDbLine
 10
3418.88334
 20
1892.93933
 30
0.0
 11
3418.88334
 21
1838.4
 31
0.0
  0
LINE
  5
246
330
A
100
AcDbEntity
  8
LAY-3
  6
Continuous
 62
     3
100
AcDbLine
 10
3421.38331
 20
1894.4
 30
0.0
 11
3418.88334
 21
1892.93933
 31
0.0
  0
LINE
  5
247
330
A
100
AcDbEntity
  8
LAY-3
  6
Continuous
 62
     3
100
AcDbLine
 10
3418.88334
 20
1783.86067
 30
0.0
 11
3418.88334
 21
1838.4
 31
0.0
  0
LINE
  5
248
330
A
100
AcDbEntity
  8
LAY-3
  6
Continuous
 62
     3
100
AcDbLine
 10
3421.38331
 20
1782.4
 30
0.0
 11
3418.88334
 21
1783.86067
 31
0.0
  0
LINE
  5
249
330
A
100
AcDbEntity
  8
LAY-3
  6
Continuous
 62
     3
100
AcDbLine
 10
3421.38331
 20
1751.54919
 30
0.0
 11
3421.38331
 21
1925.25081
 31
0.0
  0
LINE
  5
24A
330
A
100
AcDbEntity
  8
LAY-3
  6
Continuous
 62
     3
100
AcDbLine
 10
3438.7341
 20
1925.9
 30
0.0
 11
3422.0325
 21
1925.9
 31
0.0
  0
LINE
  5
24B
330
A
100
AcDbEntity
  8
LAY-3
  6
Continuous
 62
     3
100
AcDbLine
 10
3439.38329
 20
1925.25081
 30
0.0
 11
3438.7341
 21
1925.9
 31
0.0
  0
LINE
  5
24C
330
A
100
AcDbEntity
  8
LAY-3
  6
Continuous
 62
     3
100
AcDbLine
 10
3438.7341
 20
1750.9
 30
0.0
 11
3422.0325
 21
1750.9
 31
0.0
  0
LINE
  5
24D
330
A
100
AcDbEntity
  8
LAY-3
  6
Continuous
 62
     3
100
AcDbLine
 10
3439.38329
 20
1751.54919
 30
0.0
 11
3438.7341
 21
1750.9
 31
0.0
  0
LINE
  5
24E
330
A
100
AcDbEntity
  8
LAY-3
  6
Continuous
 62
     3
100
AcDbLine
 10
3439.38329
 20
1751.54919
 30
0.0
 11
3439.38329
 21
1925.25081
 31
0.0
  0
LINE
  5
24F
330
A
100
AcDbEntity
  8
LAY-3
  6
EXLTYPE3
 62
     1
100
AcDbLine
 10
3553.88334
 20
1838.4
 30
0.0
 11
3403.88334
 21
1838.4
 31
0.0
  0
ARC
  5
250
330
A
100
AcDbEntity
  8
LAY-3
  6
Continuous
 62
     3
100
AcDbCircle
 10
3478.88334
 20
1804.08255
 30
0.0
 40
90.31744999999999
100
AcDbArc
 50
64.06527999999998
 51
115.93472
  0
ARC
  5
251
330
A
100
AcDbEntity
  8
LAY-3
  6
Continuous
 62
     3
100
AcDbCircle
 10
3478.88334
 20
1872.71745
 30
0.0
 40
90.31744999999999
100
AcDbArc
 50
244.06528
 51
295.93472
  0
LINE
  5
252
330
A
100
AcDbEntity
  8
LAY-3
  6
Continuous
 62
     3
100
AcDbLine
 10
369.7166700000003
 20
1147.93933
 30
0.0
 11
369.7166700000003
 21
1088.4
 31
0.0
  0
LINE
  5
253
330
A
100
AcDbEntity
  8
LAY-3
  6
Continuous
 62
     3
100
AcDbLine
 10
367.2167000000009
 20
1149.4
 30
0.0
 11
369.7166700000003
 21
1147.93933
 31
0.0
  0
LINE
  5
254
330
A
100
AcDbEntity
  8
LAY-3
  6
Continuous
 62
     3
100
AcDbLine
 10
369.7166700000003
 20
1028.86067
 30
0.0
 11
369.7166700000003
 21
1088.4
 31
0.0
  0
LINE
  5
255
330
A
100
AcDbEntity
  8
LAY-3
  6
Continuous
 62
     3
100
AcDbLine
 10
367.2167000000009
 20
1027.4
 30
0.0
 11
369.7166700000003
 21
1028.86067
 31
0.0
  0
LINE
  5
256
330
A
100
AcDbEntity
  8
LAY-3
  6
Continuous
 62
     3
100
AcDbLine
 10
366.5675100000008
 20
1180.9
 30
0.0
 11
367.2167000000009
 21
1180.25081
 31
0.0
  0
LINE
  5
257
330
A
100
AcDbEntity
  8
LAY-3
  6
Continuous
 62
     3
100
AcDbLine
 10
349.8659000000003
 20
1180.9
 30
0.0
 11
366.5675100000008
 21
1180.9
 31
0.0
  0
LINE
  5
258
330
A
100
AcDbEntity
  8
LAY-3
  6
Continuous
 62
     3
100
AcDbLine
 10
349.2167200000003
 20
1180.25081
 30
0.0
 11
349.8659000000003
 21
1180.9
 31
0.0
  0
LINE
  5
259
330
A
100
AcDbEntity
  8
LAY-3
  6
Continuous
 62
     3
100
AcDbLine
 10
366.5675100000008
 20
995.9000000000001
 30
0.0
 11
367.2167000000009
 21
996.5491899999999
 31
0.0
  0
LINE
  5
25A
330
A
100
AcDbEntity
  8
LAY-3
  6
Continuous
 62
     3
100
AcDbLine
 10
349.8659000000003
 20
995.9000000000001
 30
0.0
 11
366.5675100000008
 21
995.9000000000001
 31
0.0
  0
LINE
  5
25B
330
A
100
AcDbEntity
  8
LAY-3
  6
Continuous
 62
     3
100
AcDbLine
 10
349.2167200000003
 20
996.5491899999999
 30
0.0
 11
349.8659000000003
 21
995.9000000000001
 31
0.0
  0
LINE
  5
25C
330
A
100
AcDbEntity
  8
LAY-3
  6
Continuous
 62
     3
100
AcDbLine
 10
367.2167000000009
 20
996.5491899999999
 30
0.0
 11
367.2167000000009
 21
1180.25081
 31
0.0
  0
LINE
  5
25D
330
A
100
AcDbEntity
  8
LAY-3
  6
Continuous
 62
     3
100
AcDbLine
 10
349.2167200000003
 20
996.5491899999999
 30
0.0
 11
349.2167200000003
 21
1180.25081
 31
0.0
  0
LINE
  5
25E
330
A
100
AcDbEntity
  8
LAY-3
  6
Continuous
 62
     3
100
AcDbLine
 10
249.716660000001
 20
1147.93933
 30
0.0
 11
249.716660000001
 21
1088.4
 31
0.0
  0
LINE
  5
25F
330
A
100
AcDbEntity
  8
LAY-3
  6
Continuous
 62
     3
100
AcDbLine
 10
252.2166300000003
 20
1149.4
 30
0.0
 11
249.716660000001
 21
1147.93933
 31
0.0
  0
LINE
  5
260
330
A
100
AcDbEntity
  8
LAY-3
  6
Continuous
 62
     3
100
AcDbLine
 10
249.716660000001
 20
1028.86067
 30
0.0
 11
249.716660000001
 21
1088.4
 31
0.0
  0
LINE
  5
261
330
A
100
AcDbEntity
  8
LAY-3
  6
Continuous
 62
     3
100
AcDbLine
 10
252.2166300000003
 20
1027.4
 30
0.0
 11
249.716660000001
 21
1028.86067
 31
0.0
  0
LINE
  5
262
330
A
100
AcDbEntity
  8
LAY-3
  6
Continuous
 62
     3
100
AcDbLine
 10
252.8658200000009
 20
1180.9
 30
0.0
 11
252.2166300000003
 21
1180.25081
 31
0.0
  0
LINE
  5
263
330
A
100
AcDbEntity
  8
LAY-3
  6
Continuous
 62
     3
100
AcDbLine
 10
269.567430000001
 20
1180.9
 30
0.0
 11
252.8658200000009
 21
1180.9
 31
0.0
  0
LINE
  5
264
330
A
100
AcDbEntity
  8
LAY-3
  6
Continuous
 62
     3
100
AcDbLine
 10
270.2166100000004
 20
1180.25081
 30
0.0
 11
269.567430000001
 21
1180.9
 31
0.0
  0
LINE
  5
265
330
A
100
AcDbEntity
  8
LAY-3
  6
Continuous
 62
     3
100
AcDbLine
 10
252.8658200000009
 20
995.9000000000001
 30
0.0
 11
252.2166300000003
 21
996.5491899999999
 31
0.0
  0
LINE
  5
266
330
A
100
AcDbEntity
  8
LAY-3
  6
Continuous
 62
     3
100
AcDbLine
 10
269.567430000001
 20
995.9000000000001
 30
0.0
 11
252.8658200000009
 21
995.9000000000001
 31
0.0
  0
LINE
  5
267
330
A
100
AcDbEntity
  8
LAY-3
  6
Continuous
 62
     3
100
AcDbLine
 10
270.2166100000004
 20
996.5491899999999
 30
0.0
 11
269.567430000001
 21
995.9000000000001
 31
0.0
  0
LINE
  5
268
330
A
100
AcDbEntity
  8
LAY-3
  6
Continuous
 62
     3
100
AcDbLine
 10
252.2166300000003
 20
996.5491899999999
 30
0.0
 11
252.2166300000003
 21
1180.25081
 31
0.0
  0
LINE
  5
269
330
A
100
AcDbEntity
  8
LAY-3
  6
Continuous
 62
     3
100
AcDbLine
 10
270.2166100000004
 20
996.5491899999999
 30
0.0
 11
270.2166100000004
 21
1180.25081
 31
0.0
  0
LINE
  5
26A
330
A
100
AcDbEntity
  8
LAY-3
  6
EXLTYPE3
 62
     1
100
AcDbLine
 10
384.7166700000002
 20
1088.4
 30
0.0
 11
234.716660000001
 21
1088.4
 31
0.0
  0
ARC
  5
26B
330
A
100
AcDbEntity
  8
LAY-3
  6
Continuous
 62
     3
100
AcDbCircle
 10
309.7166700000002
 20
1059.08255
 30
0.0
 40
90.31744999999999
100
AcDbArc
 50
64.0652800000063
 51
115.9347199999937
  0
ARC
  5
26C
330
A
100
AcDbEntity
  8
LAY-3
  6
Continuous
 62
     3
100
AcDbCircle
 10
309.7166700000002
 20
1117.71745
 30
0.0
 40
90.31744999999999
100
AcDbArc
 50
244.0652800000063
 51
295.9347199999937
  0
LINE
  5
26D
330
A
100
AcDbEntity
  8
LAY-3
  6
EXLTYPE3
 62
     1
100
AcDbLine
 10
1018.55001
 20
1088.4
 30
0.0
 11
868.5499999999997
 21
1088.4
 31
0.0
  0
LINE
  5
26E
330
A
100
AcDbEntity
  8
LAY-3
  6
Continuous
 62
     3
100
AcDbLine
 10
1000.40085
 20
1193.4
 30
0.0
 11
1001.050039999999
 21
1192.75081
 31
0.0
  0
LINE
  5
26F
330
A
100
AcDbEntity
  8
LAY-3
  6
Continuous
 62
     3
100
AcDbLine
 10
983.6992399999997
 20
1193.4
 30
0.0
 11
1000.40085
 21
1193.4
 31
0.0
  0
LINE
  5
270
330
A
100
AcDbEntity
  8
LAY-3
  6
Continuous
 62
     3
100
AcDbLine
 10
983.0500599999995
 20
1192.75081
 30
0.0
 11
983.6992399999997
 21
1193.4
 31
0.0
  0
LINE
  5
271
330
A
100
AcDbEntity
  8
LAY-3
  6
Continuous
 62
     3
100
AcDbLine
 10
886.6991599999996
 20
1193.4
 30
0.0
 11
886.0499699999996
 21
1192.75081
 31
0.0
  0
LINE
  5
272
330
A
100
AcDbEntity
  8
LAY-3
  6
Continuous
 62
     3
100
AcDbLine
 10
903.4007699999998
 20
1193.4
 30
0.0
 11
886.6991599999996
 21
1193.4
 31
0.0
  0
LINE
  5
273
330
A
100
AcDbEntity
  8
LAY-3
  6
Continuous
 62
     3
100
AcDbLine
 10
904.0499499999995
 20
1192.75081
 30
0.0
 11
903.4007699999998
 21
1193.4
 31
0.0
  0
LINE
  5
274
330
A
100
AcDbEntity
  8
LAY-3
  6
Continuous
 62
     3
100
AcDbLine
 10
1000.40085
 20
983.3999999999999
 30
0.0
 11
1001.050039999999
 21
984.0491899999998
 31
0.0
  0
LINE
  5
275
330
A
100
AcDbEntity
  8
LAY-3
  6
Continuous
 62
     3
100
AcDbLine
 10
983.6992399999997
 20
983.3999999999999
 30
0.0
 11
1000.40085
 21
983.3999999999999
 31
0.0
  0
LINE
  5
276
330
A
100
AcDbEntity
  8
LAY-3
  6
Continuous
 62
     3
100
AcDbLine
 10
983.0500599999995
 20
984.0491899999998
 30
0.0
 11
983.6992399999997
 21
983.3999999999999
 31
0.0
  0
LINE
  5
277
330
A
100
AcDbEntity
  8
LAY-3
  6
Continuous
 62
     3
100
AcDbLine
 10
886.6991599999996
 20
983.3999999999999
 30
0.0
 11
886.0499699999996
 21
984.0491899999998
 31
0.0
  0
LINE
  5
278
330
A
100
AcDbEntity
  8
LAY-3
  6
Continuous
 62
     3
100
AcDbLine
 10
903.4007699999998
 20
983.3999999999999
 30
0.0
 11
886.6991599999996
 21
983.3999999999999
 31
0.0
  0
LINE
  5
279
330
A
100
AcDbEntity
  8
LAY-3
  6
Continuous
 62
     3
100
AcDbLine
 10
904.0499499999995
 20
984.0491899999998
 30
0.0
 11
903.4007699999998
 21
983.3999999999999
 31
0.0
  0
LINE
  5
27A
330
A
100
AcDbEntity
  8
LAY-3
  6
Continuous
 62
     3
100
AcDbLine
 10
1003.550009999999
 20
1161.43933
 30
0.0
 11
1003.550009999999
 21
1088.4
 31
0.0
  0
LINE
  5
27B
330
A
100
AcDbEntity
  8
LAY-3
  6
Continuous
 62
     3
100
AcDbLine
 10
1001.050039999999
 20
1162.9
 30
0.0
 11
1003.550009999999
 21
1161.43933
 31
0.0
  0
LINE
  5
27C
330
A
100
AcDbEntity
  8
LAY-3
  6
Continuous
 62
     3
100
AcDbLine
 10
883.5499999999997
 20
1161.43933
 30
0.0
 11
883.5499999999997
 21
1088.4
 31
0.0
  0
LINE
  5
27D
330
A
100
AcDbEntity
  8
LAY-3
  6
Continuous
 62
     3
100
AcDbLine
 10
886.0499699999996
 20
1162.9
 30
0.0
 11
883.5499999999997
 21
1161.43933
 31
0.0
  0
ARC
  5
27E
330
A
100
AcDbEntity
  8
LAY-3
  6
Continuous
 62
     3
100
AcDbCircle
 10
943.5500099999996
 20
1072.58255
 30
0.0
 40
90.31744999999999
100
AcDbArc
 50
64.06527999999998
 51
115.93472
  0
LINE
  5
27F
330
A
100
AcDbEntity
  8
LAY-3
  6
Continuous
 62
     3
100
AcDbLine
 10
1003.550009999999
 20
1015.36067
 30
0.0
 11
1003.550009999999
 21
1088.4
 31
0.0
  0
LINE
  5
280
330
A
100
AcDbEntity
  8
LAY-3
  6
Continuous
 62
     3
100
AcDbLine
 10
1001.050039999999
 20
1013.9
 30
0.0
 11
1003.550009999999
 21
1015.36067
 31
0.0
  0
LINE
  5
281
330
A
100
AcDbEntity
  8
LAY-3
  6
Continuous
 62
     3
100
AcDbLine
 10
883.5499999999997
 20
1015.36067
 30
0.0
 11
883.5499999999997
 21
1088.4
 31
0.0
  0
LINE
  5
282
330
A
100
AcDbEntity
  8
LAY-3
  6
Continuous
 62
     3
100
AcDbLine
 10
886.0499699999996
 20
1013.9
 30
0.0
 11
883.5499999999997
 21
1015.36067
 31
0.0
  0
ARC
  5
283
330
A
100
AcDbEntity
  8
LAY-3
  6
Continuous
 62
     3
100
AcDbCircle
 10
943.5499999999997
 20
1104.21745
 30
0.0
 40
90.31744999999999
100
AcDbArc
 50
244.06528
 51
295.93472
  0
LINE
  5
284
330
A
100
AcDbEntity
  8
LAY-3
  6
Continuous
 62
     3
100
AcDbLine
 10
1001.050039999999
 20
984.0491899999998
 30
0.0
 11
1001.050039999999
 21
1192.75081
 31
0.0
  0
LINE
  5
285
330
A
100
AcDbEntity
  8
LAY-3
  6
Continuous
 62
     3
100
AcDbLine
 10
983.0500599999995
 20
984.0491899999998
 30
0.0
 11
983.0500599999995
 21
1192.75081
 31
0.0
  0
LINE
  5
286
330
A
100
AcDbEntity
  8
LAY-3
  6
Continuous
 62
     3
100
AcDbLine
 10
886.0499699999996
 20
984.0491899999998
 30
0.0
 11
886.0499699999996
 21
1192.75081
 31
0.0
  0
LINE
  5
287
330
A
100
AcDbEntity
  8
LAY-3
  6
Continuous
 62
     3
100
AcDbLine
 10
904.0499499999995
 20
984.0491899999998
 30
0.0
 11
904.0499499999995
 21
1192.75081
 31
0.0
  0
LINE
  5
288
330
A
100
AcDbEntity
  8
LAY-3
  6
Continuous
 62
     3
100
AcDbLine
 10
1637.383339999999
 20
1176.93933
 30
0.0
 11
1637.383339999999
 21
1088.4
 31
0.0
  0
LINE
  5
289
330
A
100
AcDbEntity
  8
LAY-3
  6
Continuous
 62
     3
100
AcDbLine
 10
1517.383339999999
 20
1176.93933
 30
0.0
 11
1517.383339999999
 21
1088.4
 31
0.0
  0
LINE
  5
28A
330
A
100
AcDbEntity
  8
LAY-3
  6
Continuous
 62
     3
100
AcDbLine
 10
1637.383339999999
 20
999.8606699999999
 30
0.0
 11
1637.383339999999
 21
1088.4
 31
0.0
  0
LINE
  5
28B
330
A
100
AcDbEntity
  8
LAY-3
  6
Continuous
 62
     3
100
AcDbLine
 10
1517.383339999999
 20
999.8606699999999
 30
0.0
 11
1517.383339999999
 21
1088.4
 31
0.0
  0
LINE
  5
28C
330
A
100
AcDbEntity
  8
LAY-3
  6
Continuous
 62
     3
100
AcDbLine
 10
1521.5325
 20
1213.4
 30
0.0
 11
1520.88331
 21
1212.75081
 31
0.0
  0
LINE
  5
28D
330
A
100
AcDbEntity
  8
LAY-3
  6
Continuous
 62
     3
100
AcDbLine
 10
1521.5325
 20
963.4
 30
0.0
 11
1520.88331
 21
964.0491899999998
 31
0.0
  0
LINE
  5
28E
330
A
100
AcDbEntity
  8
LAY-3
  6
Continuous
 62
     3
100
AcDbLine
 10
1520.88331
 20
1178.4
 30
0.0
 11
1517.383339999999
 21
1176.93933
 31
0.0
  0
LINE
  5
28F
330
A
100
AcDbEntity
  8
LAY-3
  6
Continuous
 62
     3
100
AcDbLine
 10
1520.88331
 20
998.3999999999999
 30
0.0
 11
1517.383339999999
 21
999.8606699999999
 31
0.0
  0
LINE
  5
290
330
A
100
AcDbEntity
  8
LAY-3
  6
Continuous
 62
     3
100
AcDbLine
 10
1520.88331
 20
964.0491899999998
 30
0.0
 11
1520.88331
 21
1212.75081
 31
0.0
  0
LINE
  5
291
330
A
100
AcDbEntity
  8
LAY-3
  6
Continuous
 62
     3
100
AcDbLine
 10
1633.234179999999
 20
1213.4
 30
0.0
 11
1633.883369999999
 21
1212.75081
 31
0.0
  0
LINE
  5
292
330
A
100
AcDbEntity
  8
LAY-3
  6
Continuous
 62
     3
100
AcDbLine
 10
1633.234179999999
 20
963.4
 30
0.0
 11
1633.883369999999
 21
964.0491899999998
 31
0.0
  0
LINE
  5
293
330
A
100
AcDbEntity
  8
LAY-3
  6
Continuous
 62
     3
100
AcDbLine
 10
1633.883369999999
 20
1178.4
 30
0.0
 11
1637.383339999999
 21
1176.93933
 31
0.0
  0
LINE
  5
294
330
A
100
AcDbEntity
  8
LAY-3
  6
Continuous
 62
     3
100
AcDbLine
 10
1633.883369999999
 20
998.3999999999999
 30
0.0
 11
1637.383339999999
 21
999.8606699999999
 31
0.0
  0
LINE
  5
295
330
A
100
AcDbEntity
  8
LAY-3
  6
Continuous
 62
     3
100
AcDbLine
 10
1633.883369999999
 20
964.0491899999998
 30
0.0
 11
1633.883369999999
 21
1212.75081
 31
0.0
  0
LINE
  5
296
330
A
100
AcDbEntity
  8
LAY-3
  6
Continuous
 62
     3
100
AcDbLine
 10
1540.234099999999
 20
1213.4
 30
0.0
 11
1521.5325
 21
1213.4
 31
0.0
  0
LINE
  5
297
330
A
100
AcDbEntity
  8
LAY-3
  6
Continuous
 62
     3
100
AcDbLine
 10
1540.883289999999
 20
1212.75081
 30
0.0
 11
1540.234099999999
 21
1213.4
 31
0.0
  0
LINE
  5
298
330
A
100
AcDbEntity
  8
LAY-3
  6
Continuous
 62
     3
100
AcDbLine
 10
1540.234099999999
 20
963.4
 30
0.0
 11
1521.5325
 21
963.4
 31
0.0
  0
LINE
  5
299
330
A
100
AcDbEntity
  8
LAY-3
  6
Continuous
 62
     3
100
AcDbLine
 10
1540.883289999999
 20
964.0491899999998
 30
0.0
 11
1540.234099999999
 21
963.4
 31
0.0
  0
LINE
  5
29A
330
A
100
AcDbEntity
  8
LAY-3
  6
Continuous
 62
     3
100
AcDbLine
 10
1540.883289999999
 20
964.0491899999998
 30
0.0
 11
1540.883289999999
 21
1212.75081
 31
0.0
  0
LINE
  5
29B
330
A
100
AcDbEntity
  8
LAY-3
  6
Continuous
 62
     3
100
AcDbLine
 10
1614.532579999999
 20
1213.4
 30
0.0
 11
1633.234179999999
 21
1213.4
 31
0.0
  0
LINE
  5
29C
330
A
100
AcDbEntity
  8
LAY-3
  6
Continuous
 62
     3
100
AcDbLine
 10
1613.883389999999
 20
1212.75081
 30
0.0
 11
1614.532579999999
 21
1213.4
 31
0.0
  0
LINE
  5
29D
330
A
100
AcDbEntity
  8
LAY-3
  6
Continuous
 62
     3
100
AcDbLine
 10
1614.532579999999
 20
963.4
 30
0.0
 11
1633.234179999999
 21
963.4
 31
0.0
  0
LINE
  5
29E
330
A
100
AcDbEntity
  8
LAY-3
  6
Continuous
 62
     3
100
AcDbLine
 10
1613.883389999999
 20
964.0491899999998
 30
0.0
 11
1614.532579999999
 21
963.4
 31
0.0
  0
LINE
  5
29F
330
A
100
AcDbEntity
  8
LAY-3
  6
Continuous
 62
     3
100
AcDbLine
 10
1613.883389999999
 20
964.0491899999998
 30
0.0
 11
1613.883389999999
 21
1212.75081
 31
0.0
  0
LINE
  5
2A0
330
A
100
AcDbEntity
  8
LAY-3
  6
EXLTYPE3
 62
     1
100
AcDbLine
 10
1652.38334
 20
1088.4
 30
0.0
 11
1502.383339999999
 21
1088.4
 31
0.0
  0
ARC
  5
2A1
330
A
100
AcDbEntity
  8
LAY-3
  6
Continuous
 62
     3
100
AcDbCircle
 10
1577.38334
 20
1100.61609
 30
0.0
 40
77.78391
100
AcDbArc
 50
62.01441800000137
 51
117.9855819999986
  0
ARC
  5
2A2
330
A
100
AcDbEntity
  8
LAY-3
  6
Continuous
 62
     3
100
AcDbCircle
 10
1577.38334
 20
1076.18391
 30
0.0
 40
77.78391
100
AcDbArc
 50
242.0144180000014
 51
297.9855819999986
  0
LINE
  5
2A3
330
A
100
AcDbEntity
  8
LAY-3
  6
Continuous
 62
     3
100
AcDbLine
 10
2282.06752
 20
1228.4
 30
0.0
 11
2282.71671
 21
1227.75081
 31
0.0
  0
LINE
  5
2A4
330
A
100
AcDbEntity
  8
LAY-3
  6
Continuous
 62
     3
100
AcDbLine
 10
2282.06752
 20
948.3999999999999
 30
0.0
 11
2282.71671
 21
949.0491899999998
 31
0.0
  0
LINE
  5
2A5
330
A
100
AcDbEntity
  8
LAY-3
  6
Continuous
 62
     3
100
AcDbLine
 10
2261.36591
 20
1228.4
 30
0.0
 11
2282.06752
 21
1228.4
 31
0.0
  0
LINE
  5
2A6
330
A
100
AcDbEntity
  8
LAY-3
  6
Continuous
 62
     3
100
AcDbLine
 10
2260.71673
 20
1227.75081
 30
0.0
 11
2261.36591
 21
1228.4
 31
0.0
  0
LINE
  5
2A7
330
A
100
AcDbEntity
  8
LAY-3
  6
Continuous
 62
     3
100
AcDbLine
 10
2261.36591
 20
948.3999999999999
 30
0.0
 11
2282.06752
 21
948.3999999999999
 31
0.0
  0
LINE
  5
2A8
330
A
100
AcDbEntity
  8
LAY-3
  6
Continuous
 62
     3
100
AcDbLine
 10
2260.71673
 20
949.0491899999998
 30
0.0
 11
2261.36591
 21
948.3999999999999
 31
0.0
  0
LINE
  5
2A9
330
A
100
AcDbEntity
  8
LAY-3
  6
Continuous
 62
     3
100
AcDbLine
 10
2140.36583
 20
1228.4
 30
0.0
 11
2139.71664
 21
1227.75081
 31
0.0
  0
LINE
  5
2AA
330
A
100
AcDbEntity
  8
LAY-3
  6
Continuous
 62
     3
100
AcDbLine
 10
2140.36583
 20
948.3999999999999
 30
0.0
 11
2139.71664
 21
949.0491899999998
 31
0.0
  0
LINE
  5
2AB
330
A
100
AcDbEntity
  8
LAY-3
  6
Continuous
 62
     3
100
AcDbLine
 10
2161.06744
 20
1228.4
 30
0.0
 11
2140.36583
 21
1228.4
 31
0.0
  0
LINE
  5
2AC
330
A
100
AcDbEntity
  8
LAY-3
  6
Continuous
 62
     3
100
AcDbLine
 10
2161.716619999999
 20
1227.75081
 30
0.0
 11
2161.06744
 21
1228.4
 31
0.0
  0
LINE
  5
2AD
330
A
100
AcDbEntity
  8
LAY-3
  6
Continuous
 62
     3
100
AcDbLine
 10
2161.06744
 20
948.3999999999999
 30
0.0
 11
2140.36583
 21
948.3999999999999
 31
0.0
  0
LINE
  5
2AE
330
A
100
AcDbEntity
  8
LAY-3
  6
Continuous
 62
     3
100
AcDbLine
 10
2161.716619999999
 20
949.0491899999998
 30
0.0
 11
2161.06744
 21
948.3999999999999
 31
0.0
  0
LINE
  5
2AF
330
A
100
AcDbEntity
  8
LAY-3
  6
EXLTYPE3
 62
     1
100
AcDbLine
 10
2301.21668
 20
1088.4
 30
0.0
 11
2121.21667
 21
1088.4
 31
0.0
  0
LINE
  5
2B0
330
A
100
AcDbEntity
  8
LAY-3
  6
Continuous
 62
     3
100
AcDbLine
 10
2286.21668
 20
1191.93933
 30
0.0
 11
2286.21668
 21
1088.4
 31
0.0
  0
LINE
  5
2B1
330
A
100
AcDbEntity
  8
LAY-3
  6
Continuous
 62
     3
100
AcDbLine
 10
2282.71671
 20
1193.4
 30
0.0
 11
2286.21668
 21
1191.93933
 31
0.0
  0
LINE
  5
2B2
330
A
100
AcDbEntity
  8
LAY-3
  6
Continuous
 62
     3
100
AcDbLine
 10
2136.21667
 20
1191.93933
 30
0.0
 11
2136.21667
 21
1088.4
 31
0.0
  0
LINE
  5
2B3
330
A
100
AcDbEntity
  8
LAY-3
  6
Continuous
 62
     3
100
AcDbLine
 10
2139.71664
 20
1193.4
 30
0.0
 11
2136.21667
 21
1191.93933
 31
0.0
  0
ARC
  5
2B4
330
A
100
AcDbEntity
  8
LAY-3
  6
Continuous
 62
     3
100
AcDbCircle
 10
2211.21667
 20
1054.15777
 30
0.0
 40
139.24223
100
AcDbArc
 50
69.176154999999
 51
110.8238450000009
  0
LINE
  5
2B5
330
A
100
AcDbEntity
  8
LAY-3
  6
Continuous
 62
     3
100
AcDbLine
 10
2286.21668
 20
984.8606699999999
 30
0.0
 11
2286.21668
 21
1088.4
 31
0.0
  0
LINE
  5
2B6
330
A
100
AcDbEntity
  8
LAY-3
  6
Continuous
 62
     3
100
AcDbLine
 10
2282.71671
 20
983.3999999999999
 30
0.0
 11
2286.21668
 21
984.8606699999999
 31
0.0
  0
LINE
  5
2B7
330
A
100
AcDbEntity
  8
LAY-3
  6
Continuous
 62
     3
100
AcDbLine
 10
2136.21667
 20
984.8606699999999
 30
0.0
 11
2136.21667
 21
1088.4
 31
0.0
  0
LINE
  5
2B8
330
A
100
AcDbEntity
  8
LAY-3
  6
Continuous
 62
     3
100
AcDbLine
 10
2139.71664
 20
983.3999999999999
 30
0.0
 11
2136.21667
 21
984.8606699999999
 31
0.0
  0
ARC
  5
2B9
330
A
100
AcDbEntity
  8
LAY-3
  6
Continuous
 62
     3
100
AcDbCircle
 10
2211.21667
 20
1122.64223
 30
0.0
 40
139.24223
100
AcDbArc
 50
249.176154999999
 51
290.823845000001
  0
LINE
  5
2BA
330
A
100
AcDbEntity
  8
LAY-3
  6
Continuous
 62
     3
100
AcDbLine
 10
2282.71671
 20
949.0491899999998
 30
0.0
 11
2282.71671
 21
1227.75081
 31
0.0
  0
LINE
  5
2BB
330
A
100
AcDbEntity
  8
LAY-3
  6
Continuous
 62
     3
100
AcDbLine
 10
2260.71673
 20
949.0491899999998
 30
0.0
 11
2260.71673
 21
1227.75081
 31
0.0
  0
LINE
  5
2BC
330
A
100
AcDbEntity
  8
LAY-3
  6
Continuous
 62
     3
100
AcDbLine
 10
2139.71664
 20
949.0491899999998
 30
0.0
 11
2139.71664
 21
1227.75081
 31
0.0
  0
LINE
  5
2BD
330
A
100
AcDbEntity
  8
LAY-3
  6
Continuous
 62
     3
100
AcDbLine
 10
2161.716619999999
 20
949.0491899999998
 30
0.0
 11
2161.716619999999
 21
1227.75081
 31
0.0
  0
LINE
  5
2BE
330
A
100
AcDbEntity
  8
LAY-3
  6
EXLTYPE3
 62
     1
100
AcDbLine
 10
2935.050009999999
 20
1088.4
 30
0.0
 11
2755.05
 21
1088.4
 31
0.0
  0
LINE
  5
2BF
330
A
100
AcDbEntity
  8
LAY-3
  6
Continuous
 62
     3
100
AcDbLine
 10
2915.90085
 20
1253.4
 30
0.0
 11
2916.55004
 21
1252.75081
 31
0.0
  0
LINE
  5
2C0
330
A
100
AcDbEntity
  8
LAY-3
  6
Continuous
 62
     3
100
AcDbLine
 10
2895.19924
 20
1253.4
 30
0.0
 11
2915.90085
 21
1253.4
 31
0.0
  0
LINE
  5
2C1
330
A
100
AcDbEntity
  8
LAY-3
  6
Continuous
 62
     3
100
AcDbLine
 10
2894.55006
 20
1252.75081
 30
0.0
 11
2895.19924
 21
1253.4
 31
0.0
  0
LINE
  5
2C2
330
A
100
AcDbEntity
  8
LAY-3
  6
Continuous
 62
     3
100
AcDbLine
 10
2774.19916
 20
1253.4
 30
0.0
 11
2773.549969999999
 21
1252.75081
 31
0.0
  0
LINE
  5
2C3
330
A
100
AcDbEntity
  8
LAY-3
  6
Continuous
 62
     3
100
AcDbLine
 10
2794.90077
 20
1253.4
 30
0.0
 11
2774.19916
 21
1253.4
 31
0.0
  0
LINE
  5
2C4
330
A
100
AcDbEntity
  8
LAY-3
  6
Continuous
 62
     3
100
AcDbLine
 10
2795.54995
 20
1252.75081
 30
0.0
 11
2794.90077
 21
1253.4
 31
0.0
  0
LINE
  5
2C5
330
A
100
AcDbEntity
  8
LAY-3
  6
Continuous
 62
     3
100
AcDbLine
 10
2915.90085
 20
923.3999999999999
 30
0.0
 11
2916.55004
 21
924.0491899999998
 31
0.0
  0
LINE
  5
2C6
330
A
100
AcDbEntity
  8
LAY-3
  6
Continuous
 62
     3
100
AcDbLine
 10
2895.19924
 20
923.3999999999999
 30
0.0
 11
2915.90085
 21
923.3999999999999
 31
0.0
  0
LINE
  5
2C7
330
A
100
AcDbEntity
  8
LAY-3
  6
Continuous
 62
     3
100
AcDbLine
 10
2894.55006
 20
924.0491899999998
 30
0.0
 11
2895.19924
 21
923.3999999999999
 31
0.0
  0
LINE
  5
2C8
330
A
100
AcDbEntity
  8
LAY-3
  6
Continuous
 62
     3
100
AcDbLine
 10
2774.19916
 20
923.3999999999999
 30
0.0
 11
2773.549969999999
 21
924.0491899999998
 31
0.0
  0
LINE
  5
2C9
330
A
100
AcDbEntity
  8
LAY-3
  6
Continuous
 62
     3
100
AcDbLine
 10
2794.90077
 20
923.3999999999999
 30
0.0
 11
2774.19916
 21
923.3999999999999
 31
0.0
  0
LINE
  5
2CA
330
A
100
AcDbEntity
  8
LAY-3
  6
Continuous
 62
     3
100
AcDbLine
 10
2795.54995
 20
924.0491899999998
 30
0.0
 11
2794.90077
 21
923.3999999999999
 31
0.0
  0
LINE
  5
2CB
330
A
100
AcDbEntity
  8
LAY-3
  6
Continuous
 62
     3
100
AcDbLine
 10
2920.05001
 20
959.8606699999999
 30
0.0
 11
2920.05001
 21
1088.4
 31
0.0
  0
LINE
  5
2CC
330
A
100
AcDbEntity
  8
LAY-3
  6
Continuous
 62
     3
100
AcDbLine
 10
2916.55004
 20
958.3999999999999
 30
0.0
 11
2920.05001
 21
959.8606699999999
 31
0.0
  0
LINE
  5
2CD
330
A
100
AcDbEntity
  8
LAY-3
  6
Continuous
 62
     3
100
AcDbLine
 10
2770.05
 20
959.8606699999999
 30
0.0
 11
2770.05
 21
1088.4
 31
0.0
  0
LINE
  5
2CE
330
A
100
AcDbEntity
  8
LAY-3
  6
Continuous
 62
     3
100
AcDbLine
 10
2773.549969999999
 20
958.3999999999999
 30
0.0
 11
2770.05
 21
959.8606699999999
 31
0.0
  0
ARC
  5
2CF
330
A
100
AcDbEntity
  8
LAY-3
  6
Continuous
 62
     3
100
AcDbCircle
 10
2845.05
 20
1097.64223
 30
0.0
 40
139.24223
100
AcDbArc
 50
249.176154999999
 51
290.823845000001
  0
LINE
  5
2D0
330
A
100
AcDbEntity
  8
LAY-3
  6
Continuous
 62
     3
100
AcDbLine
 10
2920.05001
 20
1216.93933
 30
0.0
 11
2920.05001
 21
1088.4
 31
0.0
  0
LINE
  5
2D1
330
A
100
AcDbEntity
  8
LAY-3
  6
Continuous
 62
     3
100
AcDbLine
 10
2916.55004
 20
1218.4
 30
0.0
 11
2920.05001
 21
1216.93933
 31
0.0
  0
LINE
  5
2D2
330
A
100
AcDbEntity
  8
LAY-3
  6
Continuous
 62
     3
100
AcDbLine
 10
2770.05
 20
1216.93933
 30
0.0
 11
2770.05
 21
1088.4
 31
0.0
  0
LINE
  5
2D3
330
A
100
AcDbEntity
  8
LAY-3
  6
Continuous
 62
     3
100
AcDbLine
 10
2773.549969999999
 20
1218.4
 30
0.0
 11
2770.05
 21
1216.93933
 31
0.0
  0
ARC
  5
2D4
330
A
100
AcDbEntity
  8
LAY-3
  6
Continuous
 62
     3
100
AcDbCircle
 10
2845.050009999999
 20
1079.15777
 30
0.0
 40
139.24223
100
AcDbArc
 50
69.176154999999
 51
110.8238450000009
  0
LINE
  5
2D5
330
A
100
AcDbEntity
  8
LAY-3
  6
Continuous
 62
     3
100
AcDbLine
 10
2916.55004
 20
924.0491899999998
 30
0.0
 11
2916.55004
 21
1252.75081
 31
0.0
  0
LINE
  5
2D6
330
A
100
AcDbEntity
  8
LAY-3
  6
Continuous
 62
     3
100
AcDbLine
 10
2894.55006
 20
924.0491899999998
 30
0.0
 11
2894.55006
 21
1252.75081
 31
0.0
  0
LINE
  5
2D7
330
A
100
AcDbEntity
  8
LAY-3
  6
Continuous
 62
     3
100
AcDbLine
 10
2773.549969999999
 20
924.0491899999998
 30
0.0
 11
2773.549969999999
 21
1252.75081
 31
0.0
  0
LINE
  5
2D8
330
A
100
AcDbEntity
  8
LAY-3
  6
Continuous
 62
     3
100
AcDbLine
 10
2795.54995
 20
924.0491899999998
 30
0.0
 11
2795.54995
 21
1252.75081
 31
0.0
  0
LINE
  5
2D9
330
A
100
AcDbEntity
  8
LAY-3
  6
EXLTYPE3
 62
     1
100
AcDbLine
 10
3581.38334
 20
1088.4
 30
0.0
 11
3376.38334
 21
1088.4
 31
0.0
  0
LINE
  5
2DA
330
A
100
AcDbEntity
  8
LAY-3
  6
Continuous
 62
     3
100
AcDbLine
 10
3562.234179999999
 20
888.4
 30
0.0
 11
3562.88337
 21
889.0491899999998
 31
0.0
  0
LINE
  5
2DB
330
A
100
AcDbEntity
  8
LAY-3
  6
Continuous
 62
     3
100
AcDbLine
 10
3395.5325
 20
888.4
 30
0.0
 11
3394.883309999999
 21
889.0491899999998
 31
0.0
  0
LINE
  5
2DC
330
A
100
AcDbEntity
  8
LAY-3
  6
Continuous
 62
     3
100
AcDbLine
 10
3418.234099999999
 20
888.4
 30
0.0
 11
3395.5325
 21
888.4
 31
0.0
  0
LINE
  5
2DD
330
A
100
AcDbEntity
  8
LAY-3
  6
Continuous
 62
     3
100
AcDbLine
 10
3418.88329
 20
889.0491899999998
 30
0.0
 11
3418.234099999999
 21
888.4
 31
0.0
  0
LINE
  5
2DE
330
A
100
AcDbEntity
  8
LAY-3
  6
Continuous
 62
     3
100
AcDbLine
 10
3539.532579999999
 20
888.4
 30
0.0
 11
3562.234179999999
 21
888.4
 31
0.0
  0
LINE
  5
2DF
330
A
100
AcDbEntity
  8
LAY-3
  6
Continuous
 62
     3
100
AcDbLine
 10
3538.88339
 20
889.0491899999998
 30
0.0
 11
3539.532579999999
 21
888.4
 31
0.0
  0
LINE
  5
2E0
330
A
100
AcDbEntity
  8
LAY-3
  6
Continuous
 62
     3
100
AcDbLine
 10
3562.234179999999
 20
1288.4
 30
0.0
 11
3562.88337
 21
1287.75081
 31
0.0
  0
LINE
  5
2E1
330
A
100
AcDbEntity
  8
LAY-3
  6
Continuous
 62
     3
100
AcDbLine
 10
3395.5325
 20
1288.4
 30
0.0
 11
3394.883309999999
 21
1287.75081
 31
0.0
  0
LINE
  5
2E2
330
A
100
AcDbEntity
  8
LAY-3
  6
Continuous
 62
     3
100
AcDbLine
 10
3418.234099999999
 20
1288.4
 30
0.0
 11
3395.5325
 21
1288.4
 31
0.0
  0
LINE
  5
2E3
330
A
100
AcDbEntity
  8
LAY-3
  6
Continuous
 62
     3
100
AcDbLine
 10
3418.88329
 20
1287.75081
 30
0.0
 11
3418.234099999999
 21
1288.4
 31
0.0
  0
LINE
  5
2E4
330
A
100
AcDbEntity
  8
LAY-3
  6
Continuous
 62
     3
100
AcDbLine
 10
3539.532579999999
 20
1288.4
 30
0.0
 11
3562.234179999999
 21
1288.4
 31
0.0
  0
LINE
  5
2E5
330
A
100
AcDbEntity
  8
LAY-3
  6
Continuous
 62
     3
100
AcDbLine
 10
3538.88339
 20
1287.75081
 30
0.0
 11
3539.532579999999
 21
1288.4
 31
0.0
  0
LINE
  5
2E6
330
A
100
AcDbEntity
  8
LAY-3
  6
Continuous
 62
     3
100
AcDbLine
 10
3566.38334
 20
1246.93933
 30
0.0
 11
3566.38334
 21
1088.4
 31
0.0
  0
LINE
  5
2E7
330
A
100
AcDbEntity
  8
LAY-3
  6
Continuous
 62
     3
100
AcDbLine
 10
3562.88337
 20
1248.4
 30
0.0
 11
3566.38334
 21
1246.93933
 31
0.0
  0
LINE
  5
2E8
330
A
100
AcDbEntity
  8
LAY-3
  6
Continuous
 62
     3
100
AcDbLine
 10
3391.38334
 20
1246.93933
 30
0.0
 11
3391.38334
 21
1088.4
 31
0.0
  0
LINE
  5
2E9
330
A
100
AcDbEntity
  8
LAY-3
  6
Continuous
 62
     3
100
AcDbLine
 10
3394.883309999999
 20
1248.4
 30
0.0
 11
3391.38334
 21
1246.93933
 31
0.0
  0
ARC
  5
2EA
330
A
100
AcDbEntity
  8
LAY-3
  6
Continuous
 62
     3
100
AcDbCircle
 10
3478.88334
 20
1045.95412
 30
0.0
 40
202.44588
100
AcDbArc
 50
72.75994699999791
 51
107.2400530000021
  0
LINE
  5
2EB
330
A
100
AcDbEntity
  8
LAY-3
  6
Continuous
 62
     3
100
AcDbLine
 10
3566.38334
 20
929.8606699999998
 30
0.0
 11
3566.38334
 21
1088.4
 31
0.0
  0
LINE
  5
2EC
330
A
100
AcDbEntity
  8
LAY-3
  6
Continuous
 62
     3
100
AcDbLine
 10
3562.88337
 20
928.4
 30
0.0
 11
3566.38334
 21
929.8606699999998
 31
0.0
  0
LINE
  5
2ED
330
A
100
AcDbEntity
  8
LAY-3
  6
Continuous
 62
     3
100
AcDbLine
 10
3391.38334
 20
929.8606699999998
 30
0.0
 11
3391.38334
 21
1088.4
 31
0.0
  0
LINE
  5
2EE
330
A
100
AcDbEntity
  8
LAY-3
  6
Continuous
 62
     3
100
AcDbLine
 10
3394.883309999999
 20
928.4
 30
0.0
 11
3391.38334
 21
929.8606699999998
 31
0.0
  0
ARC
  5
2EF
330
A
100
AcDbEntity
  8
LAY-3
  6
Continuous
 62
     3
100
AcDbCircle
 10
3478.88334
 20
1130.84588
 30
0.0
 40
202.44588
100
AcDbArc
 50
252.7599469999979
 51
287.2400530000021
  0
LINE
  5
2F0
330
A
100
AcDbEntity
  8
LAY-3
  6
Continuous
 62
     3
100
AcDbLine
 10
3562.88337
 20
889.0491899999998
 30
0.0
 11
3562.88337
 21
1287.75081
 31
0.0
  0
LINE
  5
2F1
330
A
100
AcDbEntity
  8
LAY-3
  6
Continuous
 62
     3
100
AcDbLine
 10
3394.883309999999
 20
889.0491899999998
 30
0.0
 11
3394.883309999999
 21
1287.75081
 31
0.0
  0
LINE
  5
2F2
330
A
100
AcDbEntity
  8
LAY-3
  6
Continuous
 62
     3
100
AcDbLine
 10
3418.88329
 20
889.0491899999998
 30
0.0
 11
3418.88329
 21
1287.75081
 31
0.0
  0
LINE
  5
2F3
330
A
100
AcDbEntity
  8
LAY-3
  6
Continuous
 62
     3
100
AcDbLine
 10
3538.88339
 20
889.0491899999998
 30
0.0
 11
3538.88339
 21
1287.75081
 31
0.0
  0
LINE
  5
2F4
330
A
100
AcDbEntity
  8
LAY-3
  6
EXLTYPE3
 62
     1
100
AcDbLine
 10
412.2166700000002
 20
338.4
 30
0.0
 11
207.2166600000009
 21
338.4
 31
0.0
  0
LINE
  5
2F5
330
A
100
AcDbEntity
  8
LAY-3
  6
Continuous
 62
     3
100
AcDbLine
 10
393.0675100000008
 20
560.8999999999999
 30
0.0
 11
393.7167000000004
 21
560.2508099999998
 31
0.0
  0
LINE
  5
2F6
330
A
100
AcDbEntity
  8
LAY-3
  6
Continuous
 62
     3
100
AcDbLine
 10
226.3658200000009
 20
560.8999999999999
 30
0.0
 11
225.7166300000008
 21
560.2508099999998
 31
0.0
  0
LINE
  5
2F7
330
A
100
AcDbEntity
  8
LAY-3
  6
Continuous
 62
     3
100
AcDbLine
 10
249.0674300000005
 20
560.8999999999999
 30
0.0
 11
226.3658200000009
 21
560.8999999999999
 31
0.0
  0
LINE
  5
2F8
330
A
100
AcDbEntity
  8
LAY-3
  6
Continuous
 62
     3
100
AcDbLine
 10
249.7166100000004
 20
560.2508099999998
 30
0.0
 11
249.0674300000005
 21
560.8999999999999
 31
0.0
  0
LINE
  5
2F9
330
A
100
AcDbEntity
  8
LAY-3
  6
Continuous
 62
     3
100
AcDbLine
 10
370.3659000000007
 20
560.8999999999999
 30
0.0
 11
393.0675100000008
 21
560.8999999999999
 31
0.0
  0
LINE
  5
2FA
330
A
100
AcDbEntity
  8
LAY-3
  6
Continuous
 62
     3
100
AcDbLine
 10
369.7167200000008
 20
560.2508099999998
 30
0.0
 11
370.3659000000007
 21
560.8999999999999
 31
0.0
  0
LINE
  5
2FB
330
A
100
AcDbEntity
  8
LAY-3
  6
Continuous
 62
     3
100
AcDbLine
 10
393.0675100000008
 20
115.8999999999998
 30
0.0
 11
393.7167000000004
 21
116.5491899999998
 31
0.0
  0
LINE
  5
2FC
330
A
100
AcDbEntity
  8
LAY-3
  6
Continuous
 62
     3
100
AcDbLine
 10
226.3658200000009
 20
115.8999999999998
 30
0.0
 11
225.7166300000008
 21
116.5491899999998
 31
0.0
  0
LINE
  5
2FD
330
A
100
AcDbEntity
  8
LAY-3
  6
Continuous
 62
     3
100
AcDbLine
 10
249.0674300000005
 20
115.8999999999998
 30
0.0
 11
226.3658200000009
 21
115.8999999999998
 31
0.0
  0
LINE
  5
2FE
330
A
100
AcDbEntity
  8
LAY-3
  6
Continuous
 62
     3
100
AcDbLine
 10
249.7166100000004
 20
116.5491899999998
 30
0.0
 11
249.0674300000005
 21
115.8999999999998
 31
0.0
  0
LINE
  5
2FF
330
A
100
AcDbEntity
  8
LAY-3
  6
Continuous
 62
     3
100
AcDbLine
 10
370.3659000000007
 20
115.8999999999998
 30
0.0
 11
393.0675100000008
 21
115.8999999999998
 31
0.0
  0
LINE
  5
300
330
A
100
AcDbEntity
  8
LAY-3
  6
Continuous
 62
     3
100
AcDbLine
 10
369.7167200000008
 20
116.5491899999998
 30
0.0
 11
370.3659000000007
 21
115.8999999999998
 31
0.0
  0
LINE
  5
301
330
A
100
AcDbEntity
  8
LAY-3
  6
Continuous
 62
     3
100
AcDbLine
 10
397.2166700000002
 20
519.93933
 30
0.0
 11
397.2166700000002
 21
338.4
 31
0.0
  0
LINE
  5
302
330
A
100
AcDbEntity
  8
LAY-3
  6
Continuous
 62
     3
100
AcDbLine
 10
393.7167000000004
 20
521.3999999999999
 30
0.0
 11
397.2166700000002
 21
519.93933
 31
0.0
  0
LINE
  5
303
330
A
100
AcDbEntity
  8
LAY-3
  6
Continuous
 62
     3
100
AcDbLine
 10
222.216660000001
 20
519.93933
 30
0.0
 11
222.216660000001
 21
338.4
 31
0.0
  0
LINE
  5
304
330
A
100
AcDbEntity
  8
LAY-3
  6
Continuous
 62
     3
100
AcDbLine
 10
225.7166300000008
 20
521.3999999999999
 30
0.0
 11
222.216660000001
 21
519.93933
 31
0.0
  0
ARC
  5
305
330
A
100
AcDbEntity
  8
LAY-3
  6
Continuous
 62
     3
100
AcDbCircle
 10
309.7166700000002
 20
318.95412
 30
0.0
 40
202.44588
100
AcDbArc
 50
72.75994700000961
 51
107.2400529999903
  0
LINE
  5
306
330
A
100
AcDbEntity
  8
LAY-3
  6
Continuous
 62
     3
100
AcDbLine
 10
397.2166700000002
 20
156.86067
 30
0.0
 11
397.2166700000002
 21
338.4
 31
0.0
  0
LINE
  5
307
330
A
100
AcDbEntity
  8
LAY-3
  6
Continuous
 62
     3
100
AcDbLine
 10
393.7167000000004
 20
155.3999999999998
 30
0.0
 11
397.2166700000002
 21
156.86067
 31
0.0
  0
LINE
  5
308
330
A
100
AcDbEntity
  8
LAY-3
  6
Continuous
 62
     3
100
AcDbLine
 10
222.216660000001
 20
156.86067
 30
0.0
 11
222.216660000001
 21
338.4
 31
0.0
  0
LINE
  5
309
330
A
100
AcDbEntity
  8
LAY-3
  6
Continuous
 62
     3
100
AcDbLine
 10
225.7166300000008
 20
155.3999999999998
 30
0.0
 11
222.216660000001
 21
156.86067
 31
0.0
  0
ARC
  5
30A
330
A
100
AcDbEntity
  8
LAY-3
  6
Continuous
 62
     3
100
AcDbCircle
 10
309.7166700000002
 20
357.8458799999997
 30
0.0
 40
202.44588
100
AcDbArc
 50
252.7599470000096
 51
287.2400529999904
  0
LINE
  5
30B
330
A
100
AcDbEntity
  8
LAY-3
  6
Continuous
 62
     3
100
AcDbLine
 10
393.7167000000004
 20
116.5491899999998
 30
0.0
 11
393.7167000000004
 21
560.2508099999998
 31
0.0
  0
LINE
  5
30C
330
A
100
AcDbEntity
  8
LAY-3
  6
Continuous
 62
     3
100
AcDbLine
 10
225.7166300000008
 20
116.5491899999998
 30
0.0
 11
225.7166300000008
 21
560.2508099999998
 31
0.0
  0
LINE
  5
30D
330
A
100
AcDbEntity
  8
LAY-3
  6
Continuous
 62
     3
100
AcDbLine
 10
249.7166100000004
 20
116.5491899999998
 30
0.0
 11
249.7166100000004
 21
560.2508099999998
 31
0.0
  0
LINE
  5
30E
330
A
100
AcDbEntity
  8
LAY-3
  6
Continuous
 62
     3
100
AcDbLine
 10
369.7167200000008
 20
116.5491899999998
 30
0.0
 11
369.7167200000008
 21
560.2508099999998
 31
0.0
  0
LINE
  5
399
330
A
100
AcDbEntity
  8
LAY-3
  6
Continuous
 62
     2
100
AcDbLine
 10
3795.800000000001
 20
663.4
 30
0.0
 11
-7.200000000000002
 21
663.4
 31
0.0
  0
LINE
  5
39A
330
A
100
AcDbEntity
  8
LAY-3
  6
Continuous
 62
     3
100
AcDbLine
 10
262.2166399999998
 20
1789.04919
 30
0.0
 11
262.2166399999998
 21
1887.75081
 31
0.0
  0
LINE
  5
39B
330
A
100
AcDbEntity
  8
LAY-3
  6
Continuous
 62
     3
100
AcDbLine
 10
275.5674399999998
 20
1788.4
 30
0.0
 11
262.8658299999997
 21
1788.4
 31
0.0
  0
LINE
  5
39C
330
A
100
AcDbEntity
  8
LAY-3
  6
Continuous
 62
     3
100
AcDbLine
 10
262.8658299999997
 20
1788.4
 30
0.0
 11
262.2166399999998
 21
1789.04919
 31
0.0
  0
LINE
  5
39D
330
A
100
AcDbEntity
  8
LAY-3
  6
Continuous
 62
     3
100
AcDbLine
 10
275.5674399999998
 20
1888.4
 30
0.0
 11
262.8658299999997
 21
1888.4
 31
0.0
  0
LINE
  5
39E
330
A
100
AcDbEntity
  8
LAY-3
  6
Continuous
 62
     3
100
AcDbLine
 10
262.8658299999997
 20
1888.4
 30
0.0
 11
262.2166399999998
 21
1887.75081
 31
0.0
  0
LINE
  5
39F
330
A
100
AcDbEntity
  8
LAY-3
  6
Continuous
 62
     3
100
AcDbLine
 10
276.2166199999997
 20
1789.04919
 30
0.0
 11
276.2166199999997
 21
1887.75081
 31
0.0
  0
LINE
  5
3A0
330
A
100
AcDbEntity
  8
LAY-3
  6
Continuous
 62
     3
100
AcDbLine
 10
276.2166199999997
 20
1789.04919
 30
0.0
 11
275.5674399999998
 21
1788.4
 31
0.0
  0
LINE
  5
3A1
330
A
100
AcDbEntity
  8
LAY-3
  6
Continuous
 62
     3
100
AcDbLine
 10
276.2166199999997
 20
1887.75081
 30
0.0
 11
275.5674399999998
 21
1888.4
 31
0.0
  0
LINE
  5
3A2
330
A
100
AcDbEntity
  8
LAY-3
  6
Continuous
 62
     3
100
AcDbLine
 10
342.8659099999998
 20
1788.4
 30
0.0
 11
355.5675199999998
 21
1788.4
 31
0.0
  0
LINE
  5
3A3
330
A
100
AcDbEntity
  8
LAY-3
  6
Continuous
 62
     3
100
AcDbLine
 10
355.5675199999998
 20
1788.4
 30
0.0
 11
356.2167099999998
 21
1789.04919
 31
0.0
  0
LINE
  5
3A4
330
A
100
AcDbEntity
  8
LAY-3
  6
Continuous
 62
     3
100
AcDbLine
 10
342.8659099999998
 20
1888.4
 30
0.0
 11
355.5675199999998
 21
1888.4
 31
0.0
  0
LINE
  5
3A5
330
A
100
AcDbEntity
  8
LAY-3
  6
Continuous
 62
     3
100
AcDbLine
 10
355.5675199999998
 20
1888.4
 30
0.0
 11
356.2167099999998
 21
1887.75081
 31
0.0
  0
LINE
  5
3A6
330
A
100
AcDbEntity
  8
LAY-3
  6
Continuous
 62
     3
100
AcDbLine
 10
342.2167299999996
 20
1789.04919
 30
0.0
 11
342.2167299999996
 21
1887.75081
 31
0.0
  0
LINE
  5
3A7
330
A
100
AcDbEntity
  8
LAY-3
  6
Continuous
 62
     3
100
AcDbLine
 10
342.2167299999996
 20
1789.04919
 30
0.0
 11
342.8659099999998
 21
1788.4
 31
0.0
  0
LINE
  5
3A8
330
A
100
AcDbEntity
  8
LAY-3
  6
Continuous
 62
     3
100
AcDbLine
 10
342.2167299999996
 20
1887.75081
 30
0.0
 11
342.8659099999998
 21
1888.4
 31
0.0
  0
LINE
  5
3A9
330
A
100
AcDbEntity
  8
LAY-3
  6
Continuous
 62
     3
100
AcDbLine
 10
359.2166799999997
 20
1864.93933
 30
0.0
 11
359.2166799999997
 21
1838.4
 31
0.0
  0
LINE
  5
3AA
330
A
100
AcDbEntity
  8
LAY-3
  6
Continuous
 62
     3
100
AcDbLine
 10
356.2167099999998
 20
1866.4
 30
0.0
 11
359.2166799999997
 21
1864.93933
 31
0.0
  0
LINE
  5
3AB
330
A
100
AcDbEntity
  8
LAY-3
  6
Continuous
 62
     3
100
AcDbLine
 10
359.2166799999997
 20
1811.86067
 30
0.0
 11
359.2166799999997
 21
1838.4
 31
0.0
  0
LINE
  5
3AC
330
A
100
AcDbEntity
  8
LAY-3
  6
Continuous
 62
     3
100
AcDbLine
 10
356.2167099999998
 20
1810.4
 30
0.0
 11
359.2166799999997
 21
1811.86067
 31
0.0
  0
LINE
  5
3AD
330
A
100
AcDbEntity
  8
LAY-3
  6
Continuous
 62
     3
100
AcDbLine
 10
356.2167099999998
 20
1789.04919
 30
0.0
 11
356.2167099999998
 21
1887.75081
 31
0.0
  0
LINE
  5
3AE
330
A
100
AcDbEntity
  8
LAY-3
  6
Continuous
 62
     3
100
AcDbLine
 10
259.2166699999998
 20
1864.93933
 30
0.0
 11
259.2166699999998
 21
1838.4
 31
0.0
  0
LINE
  5
3AF
330
A
100
AcDbEntity
  8
LAY-3
  6
Continuous
 62
     3
100
AcDbLine
 10
262.2166399999998
 20
1866.4
 30
0.0
 11
259.2166699999998
 21
1864.93933
 31
0.0
  0
LINE
  5
3B0
330
A
100
AcDbEntity
  8
LAY-3
  6
Continuous
 62
     3
100
AcDbLine
 10
259.2166699999998
 20
1811.86067
 30
0.0
 11
259.2166699999998
 21
1838.4
 31
0.0
  0
LINE
  5
3B1
330
A
100
AcDbEntity
  8
LAY-3
  6
Continuous
 62
     3
100
AcDbLine
 10
262.2166399999998
 20
1810.4
 30
0.0
 11
259.2166699999998
 21
1811.86067
 31
0.0
  0
LINE
  5
3B2
330
A
100
AcDbEntity
  8
LAY-3
  6
EXLTYPE3
 62
     1
100
AcDbLine
 10
378.7166799999998
 20
1838.4
 30
0.0
 11
239.7166699999998
 21
1838.4
 31
0.0
  0
TEXT
  5
3B3
330
A
100
AcDbEntity
  8
LAY-3
  6
Continuous
 62
     7
100
AcDbText
 10
94.96667999999976
 20
2184.4
 30
0.0
 40
50.0
  1
20Ａ\U+00D7１００Ｌ
 41
1.064935068181818
  7
EXCADSTD
 72
     5
 11
563.5381099999997
 21
2184.4
 31
0.0
100
AcDbText
  0
ARC
  5
3B4
330
A
100
AcDbEntity
  8
LAY-3
  6
Continuous
 62
     3
100
AcDbCircle
 10
309.2166699999998
 20
1801.987948252651
 30
0.0
 40
64.41205174734875
100
AcDbArc
 50
59.18102737986081
 51
120.8189726201391
  0
ARC
  5
3B5
330
A
100
AcDbEntity
  8
LAY-3
  6
Continuous
 62
     3
100
AcDbCircle
 10
309.2166699999998
 20
1874.812051747349
 30
0.0
 40
64.41205174734875
100
AcDbArc
 50
239.1810273798608
 51
300.8189726201392
  0
ENDSEC
  0
SECTION
  2
OBJECTS
  0
DICTIONARY
  5
19
330
0
100
AcDbDictionary
281
     1
  3
ACAD_CIP_PREVIOUS_PRODUCT_INFO
350
364
  3
ACAD_COLOR
350
348
  3
ACAD_GROUP
350
1A
  3
ACAD_LAYOUT
350
35F
  3
ACAD_MATERIAL
350
316
  3
ACAD_MLEADERSTYLE
350
35D
  3
ACAD_MLINESTYLE
350
1B
  3
ACAD_PLOTSETTINGS
350
360
  3
ACAD_PLOTSTYLENAME
350
314
  3
ACAD_SCALELIST
350
34B
  3
ACAD_TABLESTYLE
350
349
  3
ACAD_VISUALSTYLE
350
32F
  3
ACDB_RECOMPOSE_DATA
350
86B
  3
AcDbVariableDictionary
350
38B
  0
DICTIONARY
  5
383
330
2
100
AcDbDictionary
280
     1
281
     1
  3
ACAD_LAYERSTATES
360
384
  0
DICTIONARY
  5
365
330
14
100
AcDbDictionary
280
     1
281
     1
  3
ADSK_XREC_LAYER_RECONCILED
360
366
  0
DICTIONARY
  5
367
330
25
100
AcDbDictionary
280
     1
281
     1
  3
ADSK_XREC_LAYER_RECONCILED
360
368
  0
DICTIONARY
  5
369
330
26
100
AcDbDictionary
280
     1
281
     1
  3
ADSK_XREC_LAYER_RECONCILED
360
36A
  0
DICTIONARY
  5
36B
330
27
100
AcDbDictionary
280
     1
281
     1
  3
ADSK_XREC_LAYER_RECONCILED
360
36C
  0
DICTIONARY
  5
36D
330
28
100
AcDbDictionary
280
     1
281
     1
  3
ADSK_XREC_LAYER_RECONCILED
360
36E
  0
DICTIONARY
  5
402
330
401
100
AcDbDictionary
280
     1
281
     1
  0
DICTIONARY
  5
404
330
403
100
AcDbDictionary
280
     1
281
     1
  0
DICTIONARY
  5
406
330
405
100
AcDbDictionary
280
     1
281
     1
  0
DICTIONARY
  5
408
330
407
100
AcDbDictionary
280
     1
281
     1
  0
DICTIONARY
  5
40A
330
409
100
AcDbDictionary
280
     1
281
     1
  0
DICTIONARY
  5
40C
330
40B
100
AcDbDictionary
280
     1
281
     1
  0
XRECORD
  5
364
102
{ACAD_REACTORS
330
19
102
}
330
19
100
AcDbXrecord
280
     1
300
ACDLT
300
2012
300
ACDLT_F_S
  0
DICTIONARY
  5
348
102
{ACAD_REACTORS
330
19
102
}
330
19
100
AcDbDictionary
281
     1
  0
DICTIONARY
  5
1A
102
{ACAD_REACTORS
330
19
102
}
330
19
100
AcDbDictionary
281
     1
  0
DICTIONARY
  5
35F
102
{ACAD_REACTORS
330
19
102
}
330
19
100
AcDbDictionary
281
     1
  3
Model
350
361
  3
レイアウト1
350
362
  0
DICTIONARY
  5
316
102
{ACAD_REACTORS
330
19
102
}
330
19
100
AcDbDictionary
281
     1
  3
ByBlock
350
31F
  3
ByLayer
350
317
  3
Global
350
327
  0
DICTIONARY
  5
35D
102
{ACAD_REACTORS
330
19
102
}
330
19
100
AcDbDictionary
281
     1
  3
Standard
350
35E
  0
DICTIONARY
  5
1B
102
{ACAD_REACTORS
330
19
102
}
330
19
100
AcDbDictionary
281
     1
  3
STANDARD
350
1C
  0
DICTIONARY
  5
360
102
{ACAD_REACTORS
330
19
102
}
330
19
100
AcDbDictionary
281
     1
  0
ACDBDICTIONARYWDFLT
  5
314
102
{ACAD_REACTORS
330
19
102
}
330
19
100
AcDbDictionary
281
     1
  3
Normal
350
315
100
AcDbDictionaryWithDefault
340
315
  0
DICTIONARY
  5
34B
102
{ACAD_REACTORS
330
19
102
}
330
19
100
AcDbDictionary
281
     1
  3
A0
350
34C
  3
A1
350
34D
  3
A2
350
34E
  3
A3
350
34F
  3
A4
350
350
  3
A5
350
351
  3
A6
350
352
  3
A7
350
353
  3
A8
350
354
  3
A9
350
355
  3
B0
350
356
  3
B1
350
357
  3
B2
350
358
  3
B3
350
359
  3
B4
350
35A
  3
B5
350
35B
  3
B6
350
35C
  0
DICTIONARY
  5
349
102
{ACAD_REACTORS
330
19
102
}
330
19
100
AcDbDictionary
281
     1
  3
Standard
350
34A
  0
DICTIONARY
  5
32F
102
{ACAD_REACTORS
330
19
102
}
330
19
100
AcDbDictionary
281
     1
  3
2dWireframe
350
335
  3
Basic
350
334
  3
Brighten
350
33B
  3
ColorChange
350
33F
  3
Conceptual
350
338
  3
Dim
350
33A
  3
EdgeColorOff
350
347
  3
Facepattern
350
33E
  3
Flat
350
330
  3
FlatWithEdges
350
331
  3
Gouraud
350
332
  3
GouraudWithEdges
350
333
  3
Hidden
350
337
  3
JitterOff
350
345
  3
Linepattern
350
33D
  3
OverhangOff
350
346
  3
Realistic
350
339
  3
Shaded
350
344
  3
Shaded with edges
350
343
  3
Shades of Gray
350
340
  3
Sketchy
350
341
  3
Thicken
350
33C
  3
Wireframe
350
336
  3
X-Ray
350
342
  0
XRECORD
  5
86B
102
{ACAD_REACTORS
330
19
102
}
330
19
100
AcDbXrecord
280
     1
 90
        1
330
34A
  0
DICTIONARY
  5
38B
102
{ACAD_REACTORS
330
19
102
}
330
19
100
AcDbDictionary
281
     1
  3
CANNOSCALE
350
38F
  3
CMLEADERSTYLE
350
38D
  3
CTABLESTYLE
350
38C
  3
LAYEREVAL
350
391
  3
LAYERNOTIFY
350
392
  3
LIGHTINGUNITS
350
390
  3
MSLTSCALE
350
38E
  3
XCLIPFRAME
350
868
  0
DICTIONARY
  5
384
102
{ACAD_REACTORS
330
383
102
}
330
383
100
AcDbDictionary
281
     1
  0
XRECORD
  5
366
102
{ACAD_REACTORS
330
365
102
}
330
365
100
AcDbXrecord
280
     1
290
     1
  0
XRECORD
  5
368
102
{ACAD_REACTORS
330
367
102
}
330
367
100
AcDbXrecord
280
     1
290
     1
  0
XRECORD
  5
36A
102
{ACAD_REACTORS
330
369
102
}
330
369
100
AcDbXrecord
280
     1
290
     1
  0
XRECORD
  5
36C
102
{ACAD_REACTORS
330
36B
102
}
330
36B
100
AcDbXrecord
280
     1
290
     1
  0
XRECORD
  5
36E
102
{ACAD_REACTORS
330
36D
102
}
330
36D
100
AcDbXrecord
280
     1
290
     1
  0
LAYOUT
  5
361
102
{ACAD_XDICTIONARY
360
389
102
}
102
{ACAD_REACTORS
330
35F
102
}
330
35F
100
AcDbPlotSettings
  1

  2
PDF Complete
  4
A4
  6

 40
3.174999952316284
 41
3.174999952316284
 42
3.175003051757812
 43
3.17498779296875
 44
209.9733276367187
 45
297.0106506347656
 46
0.0
 47
0.0
 48
0.0
 49
0.0
140
0.0
141
0.0
142
1.0
143
471.7391017877228
 70
 11952
 72
     0
 73
     1
 74
     0
  7

 75
     0
147
0.0021198157969317
 76
     0
 77
     2
 78
   300
148
16929.62873790632
149
-160.9479403046007
100
AcDbLayout
  1
Model
 70
     1
 71
     0
 10
0.0
 20
0.0
 11
12.0
 21
9.0
 12
0.0
 22
0.0
 32
0.0
 14
0.0
 24
0.0
 34
0.0
 15
0.0
 25
0.0
 35
0.0
146
0.0
 13
0.0
 23
0.0
 33
0.0
 16
1.0
 26
0.0
 36
0.0
 17
0.0
 27
1.0
 37
0.0
 76
     0
330
A
331
15
1001
ACAD_PSEXT
1000
PDF Complete
1000
PDF Complete Converter
1000
PDFC
1000
PDF Document Creator
1070
     0
  0
LAYOUT
  5
362
102
{ACAD_REACTORS
330
35F
102
}
330
35F
100
AcDbPlotSettings
  1

  2
PDF Complete
  4

  6

 40
0.0
 41
0.0
 42
0.0
 43
0.0
 44
0.0
 45
0.0
 46
0.0
 47
0.0
 48
0.0
 49
0.0
140
0.0
141
0.0
142
1.0
143
1.0
 70
   688
 72
     0
 73
     0
 74
     5
  7

 75
    16
147
1.0
 76
     0
 77
     2
 78
   300
148
0.0
149
0.0
100
AcDbLayout
  1
レイアウト1
 70
     0
 71
     1
 10
0.0
 20
0.0
 11
12.0
 21
9.0
 12
0.0
 22
0.0
 32
0.0
 14
1.000000000000000E+20
 24
1.000000000000000E+20
 34
1.000000000000000E+20
 15
-1.000000000000000E+20
 25
-1.000000000000000E+20
 35
-1.000000000000000E+20
146
0.0
 13
0.0
 23
0.0
 33
0.0
 16
1.0
 26
0.0
 36
0.0
 17
0.0
 27
1.0
 37
0.0
 76
     0
330
B
  0
MATERIAL
  5
31F
102
{ACAD_XDICTIONARY
360
320
102
}
102
{ACAD_REACTORS
330
316
102
}
330
316
100
AcDbMaterial
  1
ByBlock
 72
     0
 43
0.0208333333333333
 43
0.0
 43
0.0
 43
0.0
 43
0.0
 43
0.0208333333333333
 43
0.0
 43
0.0
 43
0.0
 43
0.0
 43
1.0
 43
0.0
 43
0.0
 43
0.0
 43
0.0
 43
1.0
 77
     0
 47
0.0208333333333333
 47
0.0
 47
0.0
 47
0.0
 47
0.0
 47
0.0208333333333333
 47
0.0
 47
0.0
 47
0.0
 47
0.0
 47
1.0
 47
0.0
 47
0.0
 47
0.0
 47
0.0
 47
1.0
171
     0
 49
0.0208333333333333
 49
0.0
 49
0.0
 49
0.0
 49
0.0
 49
0.0208333333333333
 49
0.0
 49
0.0
 49
0.0
 49
0.0
 49
1.0
 49
0.0
 49
0.0
 49
0.0
 49
0.0
 49
1.0
175
     0
142
0.0208333333333333
142
0.0
142
0.0
142
0.0
142
0.0
142
0.0208333333333333
142
0.0
142
0.0
142
0.0
142
0.0
142
1.0
142
0.0
142
0.0
142
0.0
142
0.0
142
1.0
179
     0
144
0.0208333333333333
144
0.0
144
0.0
144
0.0
144
0.0
144
0.0208333333333333
144
0.0
144
0.0
144
0.0
144
0.0
144
1.0
144
0.0
144
0.0
144
0.0
144
0.0
144
1.0
147
0.0208333333333333
147
0.0
147
0.0
147
0.0
147
0.0
147
0.0208333333333333
147
0.0
147
0.0
147
0.0
147
0.0
147
1.0
147
0.0
147
0.0
147
0.0
147
0.0
147
1.0
  0
MATERIAL
  5
317
102
{ACAD_XDICTIONARY
360
318
102
}
102
{ACAD_REACTORS
330
316
102
}
330
316
100
AcDbMaterial
  1
ByLayer
 72
     0
 43
0.0208333333333333
 43
0.0
 43
0.0
 43
0.0
 43
0.0
 43
0.0208333333333333
 43
0.0
 43
0.0
 43
0.0
 43
0.0
 43
1.0
 43
0.0
 43
0.0
 43
0.0
 43
0.0
 43
1.0
 77
     0
 47
0.0208333333333333
 47
0.0
 47
0.0
 47
0.0
 47
0.0
 47
0.0208333333333333
 47
0.0
 47
0.0
 47
0.0
 47
0.0
 47
1.0
 47
0.0
 47
0.0
 47
0.0
 47
0.0
 47
1.0
171
     0
 49
0.0208333333333333
 49
0.0
 49
0.0
 49
0.0
 49
0.0
 49
0.0208333333333333
 49
0.0
 49
0.0
 49
0.0
 49
0.0
 49
1.0
 49
0.0
 49
0.0
 49
0.0
 49
0.0
 49
1.0
175
     0
142
0.0208333333333333
142
0.0
142
0.0
142
0.0
142
0.0
142
0.0208333333333333
142
0.0
142
0.0
142
0.0
142
0.0
142
1.0
142
0.0
142
0.0
142
0.0
142
0.0
142
1.0
179
     0
144
0.0208333333333333
144
0.0
144
0.0
144
0.0
144
0.0
144
0.0208333333333333
144
0.0
144
0.0
144
0.0
144
0.0
144
1.0
144
0.0
144
0.0
144
0.0
144
0.0
144
1.0
147
0.0208333333333333
147
0.0
147
0.0
147
0.0
147
0.0
147
0.0208333333333333
147
0.0
147
0.0
147
0.0
147
0.0
147
1.0
147
0.0
147
0.0
147
0.0
147
0.0
147
1.0
  0
MATERIAL
  5
327
102
{ACAD_XDICTIONARY
360
328
102
}
102
{ACAD_REACTORS
330
316
102
}
330
316
100
AcDbMaterial
  1
Global
 72
     0
 43
0.0208333333333333
 43
0.0
 43
0.0
 43
0.0
 43
0.0
 43
0.0208333333333333
 43
0.0
 43
0.0
 43
0.0
 43
0.0
 43
1.0
 43
0.0
 43
0.0
 43
0.0
 43
0.0
 43
1.0
 77
     0
 47
0.0208333333333333
 47
0.0
 47
0.0
 47
0.0
 47
0.0
 47
0.0208333333333333
 47
0.0
 47
0.0
 47
0.0
 47
0.0
 47
1.0
 47
0.0
 47
0.0
 47
0.0
 47
0.0
 47
1.0
171
     0
 49
0.0208333333333333
 49
0.0
 49
0.0
 49
0.0
 49
0.0
 49
0.0208333333333333
 49
0.0
 49
0.0
 49
0.0
 49
0.0
 49
1.0
 49
0.0
 49
0.0
 49
0.0
 49
0.0
 49
1.0
175
     0
142
0.0208333333333333
142
0.0
142
0.0
142
0.0
142
0.0
142
0.0208333333333333
142
0.0
142
0.0
142
0.0
142
0.0
142
1.0
142
0.0
142
0.0
142
0.0
142
0.0
142
1.0
179
     0
144
0.0208333333333333
144
0.0
144
0.0
144
0.0
144
0.0
144
0.0208333333333333
144
0.0
144
0.0
144
0.0
144
0.0
144
1.0
144
0.0
144
0.0
144
0.0
144
0.0
144
1.0
147
0.0208333333333333
147
0.0
147
0.0
147
0.0
147
0.0
147
0.0208333333333333
147
0.0
147
0.0
147
0.0
147
0.0
147
1.0
147
0.0
147
0.0
147
0.0
147
0.0
147
1.0
  0
MLEADERSTYLE
  5
35E
102
{ACAD_REACTORS
330
35D
102
}
330
35D
100
AcDbMLeaderStyle
170
     2
171
     1
172
     0
 90
        2
 40
0.0
 41
0.0
173
     1
 91
-1056964608
340
11
 92
       -2
290
     1
 42
0.09
291
     1
 43
0.36
  3
Standard
 44
0.18
300

342
17
174
     1
178
     6
175
     1
176
     0
 93
-1056964608
 45
0.18
292
     0
297
     0
 46
0.18
 94
-1056964608
 47
1.0
 49
1.0
140
1.0
293
     1
141
0.0
294
     1
177
     0
142
1.0
295
     0
296
     0
143
0.125
1001
ACAD_MLEADERVER
1070
     2
  0
MLINESTYLE
  5
1C
102
{ACAD_REACTORS
330
1B
102
}
330
1B
100
AcDbMlineStyle
  2
STANDARD
 70
     0
  3

 62
     0
 51
90.0
 52
90.0
 71
     2
 49
0.5
 62
   256
  6
BYLAYER
 49
-0.5
 62
   256
  6
BYLAYER
  0
ACDBPLACEHOLDER
  5
315
102
{ACAD_REACTORS
330
314
102
}
330
314
  0
SCALE
  5
34C
102
{ACAD_REACTORS
330
34B
102
}
330
34B
100
AcDbScale
 70
     0
300
1:1
140
1.0
141
1.0
290
     1
  0
SCALE
  5
34D
102
{ACAD_REACTORS
330
34B
102
}
330
34B
100
AcDbScale
 70
     0
300
1/128" = 1'-0"
140
0.0078125
141
12.0
290
     0
  0
SCALE
  5
34E
102
{ACAD_REACTORS
330
34B
102
}
330
34B
100
AcDbScale
 70
     0
300
1/64" = 1'-0"
140
0.015625
141
12.0
290
     0
  0
SCALE
  5
34F
102
{ACAD_REACTORS
330
34B
102
}
330
34B
100
AcDbScale
 70
     0
300
1/32" = 1'-0"
140
0.03125
141
12.0
290
     0
  0
SCALE
  5
350
102
{ACAD_REACTORS
330
34B
102
}
330
34B
100
AcDbScale
 70
     0
300
1/16" = 1'-0"
140
0.0625
141
12.0
290
     0
  0
SCALE
  5
351
102
{ACAD_REACTORS
330
34B
102
}
330
34B
100
AcDbScale
 70
     0
300
3/32" = 1'-0"
140
0.09375
141
12.0
290
     0
  0
SCALE
  5
352
102
{ACAD_REACTORS
330
34B
102
}
330
34B
100
AcDbScale
 70
     0
300
1/8" = 1'-0"
140
0.125
141
12.0
290
     0
  0
SCALE
  5
353
102
{ACAD_REACTORS
330
34B
102
}
330
34B
100
AcDbScale
 70
     0
300
3/16" = 1'-0"
140
0.1875
141
12.0
290
     0
  0
SCALE
  5
354
102
{ACAD_REACTORS
330
34B
102
}
330
34B
100
AcDbScale
 70
     0
300
1/4" = 1'-0"
140
0.25
141
12.0
290
     0
  0
SCALE
  5
355
102
{ACAD_REACTORS
330
34B
102
}
330
34B
100
AcDbScale
 70
     0
300
3/8" = 1'-0"
140
0.375
141
12.0
290
     0
  0
SCALE
  5
356
102
{ACAD_REACTORS
330
34B
102
}
330
34B
100
AcDbScale
 70
     0
300
1/2" = 1'-0"
140
0.5
141
12.0
290
     0
  0
SCALE
  5
357
102
{ACAD_REACTORS
330
34B
102
}
330
34B
100
AcDbScale
 70
     0
300
3/4" = 1'-0"
140
0.75
141
12.0
290
     0
  0
SCALE
  5
358
102
{ACAD_REACTORS
330
34B
102
}
330
34B
100
AcDbScale
 70
     0
300
1" = 1'-0"
140
1.0
141
12.0
290
     0
  0
SCALE
  5
359
102
{ACAD_REACTORS
330
34B
102
}
330
34B
100
AcDbScale
 70
     0
300
1-1/2" = 1'-0"
140
1.5
141
12.0
290
     0
  0
SCALE
  5
35A
102
{ACAD_REACTORS
330
34B
102
}
330
34B
100
AcDbScale
 70
     0
300
3" = 1'-0"
140
3.0
141
12.0
290
     0
  0
SCALE
  5
35B
102
{ACAD_REACTORS
330
34B
102
}
330
34B
100
AcDbScale
 70
     0
300
6" = 1'-0"
140
6.0
141
12.0
290
     0
  0
SCALE
  5
35C
102
{ACAD_REACTORS
330
34B
102
}
330
34B
100
AcDbScale
 70
     0
300
1'-0" = 1'-0"
140
12.0
141
12.0
290
     0
  0
TABLESTYLE
  5
34A
102
{ACAD_XDICTIONARY
360
869
102
}
102
{ACAD_REACTORS
330
349
102
}
330
349
100
AcDbTableStyle
  3
Standard
 70
     0
 71
     0
 40
0.06
 41
0.06
280
     0
281
     0
  7
STANDARD
140
0.18
170
     2
 62
     0
 63
     7
283
     0
274
    -2
284
     1
 64
     0
275
    -2
285
     1
 65
     0
276
    -2
286
     1
 66
     0
277
    -2
287
     1
 67
     0
278
    -2
288
     1
 68
     0
279
    -2
289
     1
 69
     0
  7
STANDARD
140
0.25
170
     5
 62
     0
 63
     7
283
     0
274
    -2
284
     1
 64
     0
275
    -2
285
     1
 65
     0
276
    -2
286
     1
 66
     0
277
    -2
287
     1
 67
     0
278
    -2
288
     1
 68
     0
279
    -2
289
     1
 69
     0
  7
STANDARD
140
0.18
170
     5
 62
     0
 63
     7
283
     0
274
    -2
284
     1
 64
     0
275
    -2
285
     1
 65
     0
276
    -2
286
     1
 66
     0
277
    -2
287
     1
 67
     0
278
    -2
288
     1
 68
     0
279
    -2
289
     1
 69
     0
  0
VISUALSTYLE
  5
335
102
{ACAD_XDICTIONARY
360
879
102
}
102
{ACAD_REACTORS
330
32F
102
}
330
32F
100
AcDbVisualStyle
  2
2dWireframe
 70
     4
 71
     0
 72
     2
 73
     0
 90
        0
 40
-0.6
 41
-30.0
 62
     5
 63
     7
421
 16777215
 74
     1
 91
        4
 64
     7
 65
   257
 75
     1
175
     1
 42
1.0
 92
        0
 66
   257
 43
1.0
 76
     1
 77
     6
 78
     2
 67
     7
 79
     5
170
     0
171
     0
290
     0
174
     0
 93
        1
 44
0.0
173
     0
291
     0
 45
0.0
1001
ACAD
1000
AcDbSavedByObjectVersion
1070
     0
  0
VISUALSTYLE
  5
334
102
{ACAD_XDICTIONARY
360
877
102
}
102
{ACAD_REACTORS
330
32F
102
}
330
32F
100
AcDbVisualStyle
  2
Basic
 70
     7
 71
     1
 72
     0
 73
     1
 90
        0
 40
-0.6
 41
-30.0
 62
     5
 63
     7
421
 16777215
 74
     0
 91
        4
 64
     7
 65
   257
 75
     1
175
     1
 42
1.0
 92
        8
 66
     7
 43
1.0
 76
     1
 77
     6
 78
     2
 67
     7
 79
     5
170
     0
171
     0
290
     0
174
     0
 93
        1
 44
0.0
173
     0
291
     1
 45
0.0
1001
ACAD
1000
AcDbSavedByObjectVersion
1070
     0
  0
VISUALSTYLE
  5
33B
102
{ACAD_XDICTIONARY
360
885
102
}
102
{ACAD_REACTORS
330
32F
102
}
330
32F
100
AcDbVisualStyle
  2
Brighten
 70
    12
 71
     2
 72
     2
 73
     0
 90
        0
 40
-0.6
 41
-30.0
 62
     5
 63
     7
421
 16777215
 74
     1
 91
        4
 64
     7
 65
   257
 75
     1
175
     1
 42
1.0
 92
        8
 66
     7
 43
1.0
 76
     1
 77
     6
 78
     2
 67
     7
 79
     5
170
     0
171
     0
290
     0
174
     0
 93
        1
 44
50.0
173
     0
291
     1
 45
0.0
1001
ACAD
1000
AcDbSavedByObjectVersion
1070
     0
  0
VISUALSTYLE
  5
33F
102
{ACAD_XDICTIONARY
360
88D
102
}
102
{ACAD_REACTORS
330
32F
102
}
330
32F
100
AcDbVisualStyle
  2
ColorChange
 70
    16
 71
     2
 72
     2
 73
     3
 90
        0
 40
-0.6
 41
-30.0
 62
     5
 63
     8
421
  8421504
 74
     1
 91
        4
 64
     7
 65
   257
 75
     1
175
     1
 42
1.0
 92
        8
 66
     8
424
  8421504
 43
1.0
 76
     1
 77
     6
 78
     2
 67
     7
 79
     5
170
     0
171
     0
290
     0
174
     0
 93
        1
 44
0.0
173
     0
291
     1
 45
0.0
1001
ACAD
1000
AcDbSavedByObjectVersion
1070
     0
  0
VISUALSTYLE
  5
338
102
{ACAD_XDICTIONARY
360
87F
102
}
102
{ACAD_REACTORS
330
32F
102
}
330
32F
100
AcDbVisualStyle
  2
Conceptual
 70
     9
 71
     3
 72
     2
 73
     0
 90
        0
 40
-0.6
 41
-30.0
 62
     5
 63
     7
421
 16777215
 74
     2
 91
        2
 64
     7
 65
   257
 75
     1
175
     1
 42
179.0
 92
        8
 66
     7
 43
1.0
 76
     1
 77
     6
 78
     2
 67
     7
 79
     3
170
     0
171
     0
290
     0
174
     0
 93
        1
 44
0.0
173
     0
291
     0
 45
0.0
1001
ACAD
1000
AcDbSavedByObjectVersion
1070
     0
  0
VISUALSTYLE
  5
33A
102
{ACAD_XDICTIONARY
360
883
102
}
102
{ACAD_REACTORS
330
32F
102
}
330
32F
100
AcDbVisualStyle
  2
Dim
 70
    11
 71
     2
 72
     2
 73
     0
 90
        0
 40
-0.6
 41
-30.0
 62
     5
 63
     7
421
 16777215
 74
     1
 91
        4
 64
     7
 65
   257
 75
     1
175
     1
 42
1.0
 92
        8
 66
     7
 43
1.0
 76
     1
 77
     6
 78
     2
 67
     7
 79
     5
170
     0
171
     0
290
     0
174
     0
 93
        1
 44
-50.0
173
     0
291
     1
 45
0.0
1001
ACAD
1000
AcDbSavedByObjectVersion
1070
     0
  0
VISUALSTYLE
  5
347
102
{ACAD_XDICTIONARY
360
89D
102
}
102
{ACAD_REACTORS
330
32F
102
}
330
32F
100
AcDbVisualStyle
  2
EdgeColorOff
 70
    22
 71
     2
 72
     2
 73
     0
 90
        0
 40
-0.6
 41
-30.0
 62
     5
 63
     7
421
 16777215
 74
     1
 91
        4
 64
     7
 65
   257
 75
     1
175
     1
 42
1.0
 92
        8
 66
     7
 43
1.0
 76
     1
 77
     6
 78
     2
 67
     7
 79
     5
170
     0
171
     0
290
     0
174
     0
 93
        1
 44
0.0
173
     0
291
     1
 45
0.0
1001
ACAD
1000
AcDbSavedByObjectVersion
1070
     0
  0
VISUALSTYLE
  5
33E
102
{ACAD_XDICTIONARY
360
88B
102
}
102
{ACAD_REACTORS
330
32F
102
}
330
32F
100
AcDbVisualStyle
  2
Facepattern
 70
    15
 71
     2
 72
     2
 73
     0
 90
        0
 40
-0.6
 41
-30.0
 62
     5
 63
     7
421
 16777215
 74
     1
 91
        4
 64
     7
 65
   257
 75
     1
175
     1
 42
1.0
 92
        8
 66
     7
 43
1.0
 76
     1
 77
     6
 78
     2
 67
     7
 79
     5
170
     0
171
     0
290
     0
174
     0
 93
        1
 44
0.0
173
     0
291
     1
 45
0.0
1001
ACAD
1000
AcDbSavedByObjectVersion
1070
     0
  0
VISUALSTYLE
  5
330
102
{ACAD_XDICTIONARY
360
86F
102
}
102
{ACAD_REACTORS
330
32F
102
}
330
32F
100
AcDbVisualStyle
  2
Flat
 70
     0
 71
     2
 72
     1
 73
     1
 90
        2
 40
-0.6
 41
30.0
 62
     5
 63
     7
421
 16777215
 74
     0
 91
        0
 64
     7
 65
   257
 75
     1
175
     1
 42
1.0
 92
        8
 66
     7
 43
1.0
 76
     1
 77
     6
 78
     2
 67
     7
 79
     5
170
     0
171
     0
290
     0
174
     0
 93
       13
 44
0.0
173
     0
291
     1
 45
0.0
1001
ACAD
1000
AcDbSavedByObjectVersion
1070
     0
  0
VISUALSTYLE
  5
331
102
{ACAD_XDICTIONARY
360
871
102
}
102
{ACAD_REACTORS
330
32F
102
}
330
32F
100
AcDbVisualStyle
  2
FlatWithEdges
 70
     1
 71
     2
 72
     1
 73
     1
 90
        2
 40
-0.6
 41
30.0
 62
     5
 63
     7
421
 16777215
 74
     1
 91
        0
 64
     7
 65
   257
 75
     1
175
     1
 42
1.0
 92
        0
 66
   257
 43
1.0
 76
     1
 77
     6
 78
     2
 67
     7
 79
     5
170
     0
171
     0
290
     0
174
     0
 93
       13
 44
0.0
173
     0
291
     1
 45
0.0
1001
ACAD
1000
AcDbSavedByObjectVersion
1070
     0
  0
VISUALSTYLE
  5
332
102
{ACAD_XDICTIONARY
360
873
102
}
102
{ACAD_REACTORS
330
32F
102
}
330
32F
100
AcDbVisualStyle
  2
Gouraud
 70
     2
 71
     2
 72
     2
 73
     1
 90
        2
 40
-0.6
 41
30.0
 62
     5
 63
     7
421
 16777215
 74
     0
 91
        0
 64
     7
 65
   257
 75
     1
175
     1
 42
1.0
 92
        0
 66
     7
 43
1.0
 76
     1
 77
     6
 78
     2
 67
     7
 79
     5
170
     0
171
     0
290
     0
174
     0
 93
       13
 44
0.0
173
     0
291
     1
 45
0.0
1001
ACAD
1000
AcDbSavedByObjectVersion
1070
     0
  0
VISUALSTYLE
  5
333
102
{ACAD_XDICTIONARY
360
875
102
}
102
{ACAD_REACTORS
330
32F
102
}
330
32F
100
AcDbVisualStyle
  2
GouraudWithEdges
 70
     3
 71
     2
 72
     2
 73
     1
 90
        2
 40
-0.6
 41
30.0
 62
     5
 63
     7
421
 16777215
 74
     1
 91
        0
 64
     7
 65
   257
 75
     1
175
     1
 42
1.0
 92
        0
 66
   257
 43
1.0
 76
     1
 77
     6
 78
     2
 67
     7
 79
     5
170
     0
171
     0
290
     0
174
     0
 93
       13
 44
0.0
173
     0
291
     1
 45
0.0
1001
ACAD
1000
AcDbSavedByObjectVersion
1070
     0
  0
VISUALSTYLE
  5
337
102
{ACAD_XDICTIONARY
360
87D
102
}
102
{ACAD_REACTORS
330
32F
102
}
330
32F
100
AcDbVisualStyle
  2
Hidden
 70
     6
 71
     1
 72
     2
 73
     2
 90
        0
 40
-0.6
 41
-30.0
 62
     5
 63
     7
421
 16777215
 74
     2
 91
        2
 64
     7
 65
   257
 75
     2
175
     1
 42
40.0
 92
        0
 66
   257
 43
1.0
 76
     1
 77
     6
 78
     2
 67
     7
 79
     3
170
     0
171
     0
290
     0
174
     0
 93
        1
 44
0.0
173
     0
291
     0
 45
0.0
1001
ACAD
1000
AcDbSavedByObjectVersion
1070
     0
  0
VISUALSTYLE
  5
345
102
{ACAD_XDICTIONARY
360
899
102
}
102
{ACAD_REACTORS
330
32F
102
}
330
32F
100
AcDbVisualStyle
  2
JitterOff
 70
    20
 71
     2
 72
     2
 73
     0
 90
        0
 40
-0.6
 41
-30.0
 62
     5
 63
     7
421
 16777215
 74
     1
 91
        4
 64
     7
 65
   257
 75
     1
175
     1
 42
1.0
 92
       10
 66
     7
 43
1.0
 76
     1
 77
     6
 78
     2
 67
     7
 79
     5
170
     0
171
     0
290
     0
174
     0
 93
        1
 44
0.0
173
     0
291
     1
 45
0.0
1001
ACAD
1000
AcDbSavedByObjectVersion
1070
     0
  0
VISUALSTYLE
  5
33D
102
{ACAD_XDICTIONARY
360
889
102
}
102
{ACAD_REACTORS
330
32F
102
}
330
32F
100
AcDbVisualStyle
  2
Linepattern
 70
    14
 71
     2
 72
     2
 73
     0
 90
        0
 40
-0.6
 41
-30.0
 62
     5
 63
     7
421
 16777215
 74
     1
 91
        4
 64
     7
 65
   257
 75
     7
175
     7
 42
1.0
 92
        8
 66
     7
 43
1.0
 76
     1
 77
     6
 78
     2
 67
     7
 79
     5
170
     0
171
     0
290
     0
174
     0
 93
        1
 44
0.0
173
     0
291
     1
 45
0.0
1001
ACAD
1000
AcDbSavedByObjectVersion
1070
     0
  0
VISUALSTYLE
  5
346
102
{ACAD_XDICTIONARY
360
89B
102
}
102
{ACAD_REACTORS
330
32F
102
}
330
32F
100
AcDbVisualStyle
  2
OverhangOff
 70
    21
 71
     2
 72
     2
 73
     0
 90
        0
 40
-0.6
 41
-30.0
 62
     5
 63
     7
421
 16777215
 74
     1
 91
        4
 64
     7
 65
   257
 75
     1
175
     1
 42
1.0
 92
        9
 66
     7
 43
1.0
 76
     1
 77
     6
 78
     2
 67
     7
 79
     5
170
     0
171
     0
290
     0
174
     0
 93
        1
 44
0.0
173
     0
291
     1
 45
0.0
1001
ACAD
1000
AcDbSavedByObjectVersion
1070
     0
  0
VISUALSTYLE
  5
339
102
{ACAD_XDICTIONARY
360
881
102
}
102
{ACAD_REACTORS
330
32F
102
}
330
32F
100
AcDbVisualStyle
  2
Realistic
 70
     8
 71
     2
 72
     3
 73
     0
 90
        2
 40
-0.6
 41
30.0
 62
     5
 63
     7
421
 16777215
 74
     0
 91
        0
 64
     7
 65
   257
 75
     1
175
     1
 42
1.0
 92
        8
 66
   257
 43
1.0
 76
     1
 77
     6
 78
     2
 67
     7
 79
     3
170
     0
171
     0
290
     0
174
     0
 93
       13
 44
0.0
173
     0
291
     0
 45
0.0
1001
ACAD
1000
AcDbSavedByObjectVersion
1070
     0
  0
VISUALSTYLE
  5
344
102
{ACAD_XDICTIONARY
360
897
102
}
102
{ACAD_REACTORS
330
32F
102
}
330
32F
100
AcDbVisualStyle
  2
Shaded
 70
    27
 71
     2
 72
     2
 73
     1
 90
        2
 40
-0.6
 41
30.0
 62
     5
 63
     7
421
 16777215
 74
     0
 91
        4
 64
     7
 65
   257
 75
     1
175
     1
 42
1.0
 92
        8
 66
   257
 43
1.0
 76
     1
 77
     6
 78
     2
 67
     8
425
  7895160
 79
     3
170
     0
171
     0
290
     0
174
     0
 93
        5
 44
0.0
173
     0
291
     0
 45
0.0
1001
ACAD
1000
AcDbSavedByObjectVersion
1070
     0
  0
VISUALSTYLE
  5
343
102
{ACAD_XDICTIONARY
360
895
102
}
102
{ACAD_REACTORS
330
32F
102
}
330
32F
100
AcDbVisualStyle
  2
Shaded with edges
 70
    26
 71
     2
 72
     2
 73
     1
 90
        2
 40
-0.6
 41
30.0
 62
     5
 63
     7
421
 16777215
 74
     1
 91
       10
 64
     7
 65
   257
 75
     2
175
     1
 42
1.0
 92
        8
 66
   257
 43
1.0
 76
     1
 77
     6
 78
     2
 67
     7
 79
     3
170
     0
171
     0
290
     0
174
     0
 93
        5
 44
0.0
173
     0
291
     0
 45
0.0
1001
ACAD
1000
AcDbSavedByObjectVersion
1070
     0
  0
VISUALSTYLE
  5
340
102
{ACAD_XDICTIONARY
360
88F
102
}
102
{ACAD_REACTORS
330
32F
102
}
330
32F
100
AcDbVisualStyle
  2
Shades of Gray
 70
    23
 71
     2
 72
     2
 73
     3
 90
        0
 40
-0.6
 41
-30.0
 62
     5
 63
     7
421
 16777215
 74
     2
 91
        2
 64
     7
 65
     7
 75
     1
175
     1
 42
40.0
 92
        8
 66
     7
 43
1.0
 76
     1
 77
     6
 78
     2
 67
     7
 79
     3
170
     0
171
     0
290
     0
174
     0
 93
        1
 44
0.0
173
     0
291
     0
 45
0.0
1001
ACAD
1000
AcDbSavedByObjectVersion
1070
     0
  0
VISUALSTYLE
  5
341
102
{ACAD_XDICTIONARY
360
891
102
}
102
{ACAD_REACTORS
330
32F
102
}
330
32F
100
AcDbVisualStyle
  2
Sketchy
 70
    24
 71
     1
 72
     2
 73
     2
 90
        0
 40
-0.6
 41
-30.0
 62
     5
 63
     7
421
 16777215
 74
     2
 91
        2
 64
     7
 65
     7
 75
     1
175
     1
 42
40.0
 92
       11
 66
     7
 43
1.0
 76
     1
 77
     6
 78
     2
 67
     7
 79
     6
170
     0
171
     0
290
     0
174
     0
 93
        1
 44
0.0
173
     0
291
     0
 45
0.0
1001
ACAD
1000
AcDbSavedByObjectVersion
1070
     0
  0
VISUALSTYLE
  5
33C
102
{ACAD_XDICTIONARY
360
887
102
}
102
{ACAD_REACTORS
330
32F
102
}
330
32F
100
AcDbVisualStyle
  2
Thicken
 70
    13
 71
     2
 72
     2
 73
     0
 90
        0
 40
-0.6
 41
-30.0
 62
     5
 63
     7
421
 16777215
 74
     1
 91
        4
 64
     7
 65
   257
 75
     1
175
     1
 42
1.0
 92
       12
 66
     7
 43
1.0
 76
     1
 77
     6
 78
     2
 67
     7
 79
     5
170
     0
171
     0
290
     0
174
     0
 93
        1
 44
0.0
173
     0
291
     1
 45
0.0
1001
ACAD
1000
AcDbSavedByObjectVersion
1070
     0
  0
VISUALSTYLE
  5
336
102
{ACAD_XDICTIONARY
360
87B
102
}
102
{ACAD_REACTORS
330
32F
102
}
330
32F
100
AcDbVisualStyle
  2
Wireframe
 70
     5
 71
     0
 72
     2
 73
     0
 90
        0
 40
-0.6
 41
-30.0
 62
     5
 63
     7
421
 16777215
 74
     1
 91
        4
 64
     7
 65
   257
 75
     1
175
     1
 42
1.0
 92
        0
 66
   257
 43
1.0
 76
     1
 77
     6
 78
     2
 67
     7
 79
     3
170
     0
171
     0
290
     0
174
     0
 93
        1
 44
0.0
173
     0
291
     0
 45
0.0
1001
ACAD
1000
AcDbSavedByObjectVersion
1070
     0
  0
VISUALSTYLE
  5
342
102
{ACAD_XDICTIONARY
360
893
102
}
102
{ACAD_REACTORS
330
32F
102
}
330
32F
100
AcDbVisualStyle
  2
X-Ray
 70
    25
 71
     2
 72
     2
 73
     1
 90
        1
 40
0.5
 41
-30.0
 62
     5
 63
     7
421
 16777215
 74
     1
 91
        0
 64
     7
 65
   257
 75
     1
175
     1
 42
1.0
 92
        8
 66
     7
 43
1.0
 76
     1
 77
     6
 78
     2
 67
     7
 79
     3
170
     0
171
     0
290
     0
174
     0
 93
       13
 44
0.0
173
     0
291
     0
 45
0.0
1001
ACAD
1000
AcDbSavedByObjectVersion
1070
     0
  0
DICTIONARYVAR
  5
38F
102
{ACAD_REACTORS
330
38B
102
}
330
38B
100
DictionaryVariables
280
     0
  1
1:1
  0
DICTIONARYVAR
  5
38D
102
{ACAD_REACTORS
330
38B
102
}
330
38B
100
DictionaryVariables
280
     0
  1
STANDARD
  0
DICTIONARYVAR
  5
38C
102
{ACAD_REACTORS
330
38B
102
}
330
38B
100
DictionaryVariables
280
     0
  1
STANDARD
  0
DICTIONARYVAR
  5
391
102
{ACAD_REACTORS
330
38B
102
}
330
38B
100
DictionaryVariables
280
     0
  1
1
  0
DICTIONARYVAR
  5
392
102
{ACAD_REACTORS
330
38B
102
}
330
38B
100
DictionaryVariables
280
     0
  1
15
  0
DICTIONARYVAR
  5
390
102
{ACAD_REACTORS
330
38B
102
}
330
38B
100
DictionaryVariables
280
     0
  1
0
  0
DICTIONARYVAR
  5
38E
102
{ACAD_REACTORS
330
38B
102
}
330
38B
100
DictionaryVariables
280
     0
  1
0
  0
DICTIONARYVAR
  5
868
102
{ACAD_REACTORS
330
38B
102
}
330
38B
100
DictionaryVariables
280
     0
  1
2
  0
DICTIONARY
  5
389
330
361
100
AcDbDictionary
280
     1
281
     1
  3
ADSK_XREC_LAYOUTTHUMBNAIL
360
38A
  0
DICTIONARY
  5
320
330
31F
100
AcDbDictionary
280
     1
281
     1
  3
ACAD_XREC_ROUNDTRIP
360
86D
  3
BUMPTILE
360
322
  3
DIFFUSETILE
360
321
  3
OPACITYTILE
360
325
  3
REFLECTIONTILE
360
324
  3
REFRACTIONTILE
360
326
  3
SPECULARTILE
360
323
  0
DICTIONARY
  5
318
330
317
100
AcDbDictionary
280
     1
281
     1
  3
ACAD_XREC_ROUNDTRIP
360
86C
  3
BUMPTILE
360
31A
  3
DIFFUSETILE
360
319
  3
OPACITYTILE
360
31D
  3
REFLECTIONTILE
360
31C
  3
REFRACTIONTILE
360
31E
  3
SPECULARTILE
360
31B
  0
DICTIONARY
  5
328
330
327
100
AcDbDictionary
280
     1
281
     1
  3
ACAD_XREC_ROUNDTRIP
360
86E
  3
BUMPTILE
360
32A
  3
DIFFUSETILE
360
329
  3
OPACITYTILE
360
32D
  3
REFLECTIONTILE
360
32C
  3
REFRACTIONTILE
360
32E
  3
SPECULARTILE
360
32B
  0
DICTIONARY
  5
869
330
34A
100
AcDbDictionary
280
     1
281
     1
  3
ACAD_ROUNDTRIP_2008_TABLESTYLE_CELLSTYLEMAP
360
86A
  3
ACAD_XREC_ROUNDTRIP
360
89F
  0
DICTIONARY
  5
879
330
335
100
AcDbDictionary
280
     1
281
     1
  3
ACAD_XREC_ROUNDTRIP
360
87A
  0
DICTIONARY
  5
877
330
334
100
AcDbDictionary
280
     1
281
     1
  3
ACAD_XREC_ROUNDTRIP
360
878
  0
DICTIONARY
  5
885
330
33B
100
AcDbDictionary
280
     1
281
     1
  3
ACAD_XREC_ROUNDTRIP
360
886
  0
DICTIONARY
  5
88D
330
33F
100
AcDbDictionary
280
     1
281
     1
  3
ACAD_XREC_ROUNDTRIP
360
88E
  0
DICTIONARY
  5
87F
330
338
100
AcDbDictionary
280
     1
281
     1
  3
ACAD_XREC_ROUNDTRIP
360
880
  0
DICTIONARY
  5
883
330
33A
100
AcDbDictionary
280
     1
281
     1
  3
ACAD_XREC_ROUNDTRIP
360
884
  0
DICTIONARY
  5
89D
330
347
100
AcDbDictionary
280
     1
281
     1
  3
ACAD_XREC_ROUNDTRIP
360
89E
  0
DICTIONARY
  5
88B
330
33E
100
AcDbDictionary
280
     1
281
     1
  3
ACAD_XREC_ROUNDTRIP
360
88C
  0
DICTIONARY
  5
86F
330
330
100
AcDbDictionary
280
     1
281
     1
  3
ACAD_XREC_ROUNDTRIP
360
870
  0
DICTIONARY
  5
871
330
331
100
AcDbDictionary
280
     1
281
     1
  3
ACAD_XREC_ROUNDTRIP
360
872
  0
DICTIONARY
  5
873
330
332
100
AcDbDictionary
280
     1
281
     1
  3
ACAD_XREC_ROUNDTRIP
360
874
  0
DICTIONARY
  5
875
330
333
100
AcDbDictionary
280
     1
281
     1
  3
ACAD_XREC_ROUNDTRIP
360
876
  0
DICTIONARY
  5
87D
330
337
100
AcDbDictionary
280
     1
281
     1
  3
ACAD_XREC_ROUNDTRIP
360
87E
  0
DICTIONARY
  5
899
330
345
100
AcDbDictionary
280
     1
281
     1
  3
ACAD_XREC_ROUNDTRIP
360
89A
  0
DICTIONARY
  5
889
330
33D
100
AcDbDictionary
280
     1
281
     1
  3
ACAD_XREC_ROUNDTRIP
360
88A
  0
DICTIONARY
  5
89B
330
346
100
AcDbDictionary
280
     1
281
     1
  3
ACAD_XREC_ROUNDTRIP
360
89C
  0
DICTIONARY
  5
881
330
339
100
AcDbDictionary
280
     1
281
     1
  3
ACAD_XREC_ROUNDTRIP
360
882
  0
DICTIONARY
  5
897
330
344
100
AcDbDictionary
280
     1
281
     1
  3
ACAD_XREC_ROUNDTRIP
360
898
  0
DICTIONARY
  5
895
330
343
100
AcDbDictionary
280
     1
281
     1
  3
ACAD_XREC_ROUNDTRIP
360
896
  0
DICTIONARY
  5
88F
330
340
100
AcDbDictionary
280
     1
281
     1
  3
ACAD_XREC_ROUNDTRIP
360
890
  0
DICTIONARY
  5
891
330
341
100
AcDbDictionary
280
     1
281
     1
  3
ACAD_XREC_ROUNDTRIP
360
892
  0
DICTIONARY
  5
887
330
33C
100
AcDbDictionary
280
     1
281
     1
  3
ACAD_XREC_ROUNDTRIP
360
888
  0
DICTIONARY
  5
87B
330
336
100
AcDbDictionary
280
     1
281
     1
  3
ACAD_XREC_ROUNDTRIP
360
87C
  0
DICTIONARY
  5
893
330
342
100
AcDbDictionary
280
     1
281
     1
  3
ACAD_XREC_ROUNDTRIP
360
894
  0
XRECORD
  5
38A
102
{ACAD_REACTORS
330
389
102
}
330
389
100
AcDbXrecord
280
     1
310
280000000001000079000000010008000000000000790000000000000000000000010000000000003028210000000000C8C8C8000000000000000000000000000000000000000000000000000000000000000000330000006600000099000000CC000000FF00000000330000333300006633000099330000CC330000FF3300
310
0000660000336600006666000099660000CC660000FF66000000990000339900006699000099990000CC990000FF99000000CC000033CC000066CC000099CC0000CCCC0000FFCC000000FF000033FF000066FF000099FF0000CCFF0000FFFF000000003300330033006600330099003300CC003300FF003300003333003333
310
33006633330099333300CC333300FF33330000663300336633006666330099663300CC663300FF66330000993300339933006699330099993300CC993300FF99330000CC330033CC330066CC330099CC3300CCCC3300FFCC330000FF330033FF330066FF330099FF3300CCFF3300FFFF330000006600330066006600660099
310
006600CC006600FF00660000336600333366006633660099336600CC336600FF33660000666600336666006666660099666600CC666600FF66660000996600339966006699660099996600CC996600FF99660000CC660033CC660066CC660099CC6600CCCC6600FFCC660000FF660033FF660066FF660099FF6600CCFF6600
310
FFFF660000009900330099006600990099009900CC009900FF00990000339900333399006633990099339900CC339900FF33990000669900336699006666990099669900CC669900FF66990000999900339999006699990099999900CC999900FF99990000CC990033CC990066CC990099CC9900CCCC9900FFCC990000FF99
310
0033FF990066FF990099FF9900CCFF9900FFFF99000000CC003300CC006600CC009900CC00CC00CC00FF00CC000033CC003333CC006633CC009933CC00CC33CC00FF33CC000066CC003366CC006666CC009966CC00CC66CC00FF66CC000099CC003399CC006699CC009999CC00CC99CC00FF99CC0000CCCC0033CCCC0066CC
310
CC0099CCCC00CCCCCC00FFCCCC0000FFCC0033FFCC0066FFCC0099FFCC00CCFFCC00FFFFCC000000FF003300FF006600FF009900FF00CC00FF00FF00FF000033FF003333FF006633FF009933FF00CC33FF00FF33FF000066FF003366FF006666FF009966FF00CC66FF00FF66FF000099FF003399FF006699FF009999FF00CC
310
99FF00FF99FF0000CCFF0033CCFF0066CCFF0099CCFF00CCCCFF00FFCCFF0000FFFF0033FFFF0066FFFF0099FFFF00CCFFFF00FFFFFF00000000000D0D0D001A1A1A00282828003535350043434300505050005D5D5D006B6B6B00787878008686860093939300A1A1A100AEAEAE00BBBBBB00C9C9C900D6D6D600E4E4E400
310
F1F1F100FFFFFF00000000000000000000000000000000000000000000000000000000000000000000000000000000000000000000000000000000000000000000000000DC00000000000000000000000000000000000000000000000000000000000000000000000000000000DC0000000000000000000000000000000000
310
0000000000000000000000000000000000000000000000DC0000000000000000000000000000000000000000000000000000000000000000000000000000000000DC00000000000000000000000000000000000000000000000000000000000000000000000000000000DC0000000000000000000000000000000000000000
310
0000000000000000000000000000000000000000DC00000000000000000000000000000000000000000000000000000000000000000000000000000000000000000000000000DC00000000000000000000000000000000000000000000000000000000000000000000000000000000DC000000000000000000000000000000
310
00000000000000000000000000000000000000000000000000DC0000000000000000000000000000000000000000000000000000000000000000000000000000000000DC00000000000000000000000000000000000000000000000000000000000000000000000000000000DC000000000000000000000000000000000000
310
00000000000000000000000000000000000000000000DC00000000000000000000000000000000000000000000000000000000000000000000000000000000000000000000000000DC00000000000000000000000000000000000000000000000000000000000000000000000000000000DC00000000000000000000000000
310
000000000000000000000000000000000000000000000000000000DC0000000000000000000000000000000000000000000000000000000000000000000000000000000000DC00000000000000000000000000000000000000000000000000000000000000000000000000000000DC00000000000000000000000000002828
310
280000000000002828280000000000000000000000000000DC00000000000000000000000000000000000000000000000000000000000000000000000000000000000000000000000000DC00000000000000000000000000000000000000000000000000000000000000000000000000000000DC0000000000000000000000
310
0000000000000000000000000000000000000000000000000000000000DC0000000000000000000000000000000000000000000000000000000000000000000000000000000000DC00000000000000000000000000000000000000000000000000000000000000000000000000000000DC0000000000000000000000000000
310
2800280000000000002800280000000000000000000000000000DC00000000000000000000000000000000000000000000000000000000000000000000000000000000000000000000000000DC00000000000000000000000000000000000000000000000000000000000000000000000000000000DC000000000000000000
310
00000000000000000000000000000000000000000000000000000000000000DC0000000000000000000000000000000000000000000000000000000000000000000000000000000000DC00000000000000000000000000000028280000000000282828000000000000000000000000000000DC000000000000000000000000
310
00002800280000282828002800280000000000000000000000000000DC00000000000000000000000000000000000000000000000000000000000000000000000000000000000000000000000000DC00000000000000000000000000000000000000000000000000000000000000000000000000000000DC00000000000000
310
000000000000000000000000000000000000000000000000000000000000000000DC0000000000000000000000000000002828280000000000282828000000000000000000000000000000DC00000000000000000000000000000028280000000000280028000000000000000000000000000000DC00000000000000000000
310
000000002800282828000000282800280000000000000000000000000000DC00000000000000000000000000000000000000000000000000000000000000000000000000000000000000000000000000DC00000000000000000000000000000000000000000000000000000000000000000000000000000000DC0000000000
310
0000000000000000000000282800000000282800000000000000000000000000000000DC0000000000000000000000000000002800280000000000280028000000000000000000000000000000DC00000000000000000000000000002828280028282800280028000000000000000000000000000000DC0000000000000000
310
0000000000002800280000000000002800280000000000000000000000000000DC00000000000000000000000000000000000000000000000000000000000000000000000000000000000000000000000000DC00000000000000000000000000000000000000000000000000000000000000000000000000000000DC000000
310
00000000000000000000000000282800000000282800000000000000000000000000000000DC0000000000000000000000000000002800280000000000280028000000000000000000000000000000DC00000000000000000000000000002828282800000028280028000000000000000000000000000000DC000000000000
310
00000000000000002800280000000000002800280000000000000000000000000000DC00000000000000000000000000000000000000000000000000000000000000282800000000000000000000000000000000DC00000000000000000000000000000028282800000000282800000000000000000000000000000000DC00
310
000000000000000000000000000000282800000000282800000000000000000000000000000000DC0000000000000000000000000000002800282828282828280028000000000000000000000000000000DC00000000000000000000000000002828280000000000280028000000000000000000000000000000DC00000000
310
000000000000000000002800280000000000002800280000000000000000000000000000DC00000000000000000000000000000000000000000000000000000000000028002800000000000000000000000000000000DC00000000000000000000000000000028002800000000282800000000000000000000000000000000
310
DC00000000000000000000000000000000282828282828282800000000000000000000000000000000DC0000000000000000000000000000002800280000000000280028000000000000000000000000000000DC00000000000000000000000000002828280000000000280028000000000000000000000000000000DC0000
310
0000000000000000000000002800280000000000002800280000000000000000000000000000DC00000000000000000000000000000000000000000000000000000000000028002800000000000000000000000000000000DC0000000000000000000000000000002800282828282828280000000000000000000000000000
310
0000DC00000000000000000000000000000000282800000000282800000000000000000000000000000000DC0000000000000000000000000000002800280000000000280028000000000000000000000000000000DC00000000000000000000000000002828280000000000280028000000000000000000000000000000DC
310
00000000000000000000000000002800280000000000002800280000000000000000000000000000DC00000000000000000000000000000000000000000000000000000000002828002800000000000000000000000000000000DC000000000000000000000000000000280028000000002828000000000000000000000000
310
00000000DC00000000000000000000000000000000282800000000282800000000000000000000000000000000DC0000000000000000000000000000002800280000000000280028000000000000000000000000000000DC000000000000000000000000000028282800000000002800280000000000000000000000000000
310
00DC00000000000000000000000000002800280000000000002800280000000000000000000000000000DC00000000000000000000000000000000000000000000000000000000000028002800000000000000000000000000000000DC00000000000000000000000000000028002800000000282800000000000000000000
310
000000000000DC00000000000000000000000000000000282800000000282800000000000000000000000000000000DC0000000000000000000000000000002800280000000000280028000000000000000000000000000000DC00000000000000000000000000002828280000000000280028000000000000000000000000
310
000000DC00000000000000000000000000002800280000000000002800280000000000000000000000000000DC00000000000000000000000000000000000000000000000000000000000028002800000000000000000000000000000000DC0000000000000000000000000000002800280000000028280000000000000000
310
0000000000000000DC00000000000000000000000000000000282800000000282800000000000000000000000000000000DC0000000000000000000000000000002800280000000000280028000000000000000000000000000000DC0000000000000000000000000000282828000000000028002800000000000000000000
310
0000000000DC00000000000000000000000000002800280000000000002800280000000000000000000000000000DC0000000000000000000000000000000000000000000000000000000000BEBEBEBEBE000000000000000000000000000000DC0000000000000000000000000000BE28BE28BEBEBEBE2828BE0000000000
310
00000000000000000000DC000000000000000000000000000000BEBEBEBEBEBEBEBEBEBE000000000000000000000000000000DC0000000000000000000000000000BE28BE28BEBEBEBEBE28BE28BE0000000000000000000000000000DC00000000000000000000000000BE282828BEBEBEBEBE28BE28BE00000000000000
310
00000000000000DC00000000000000000000000000BE28BE28BEBEBEBEBEBE28BE28BE00000000000000000000000000DC00000000000000000000000000000000000000000000000000000000000028002800000000000000000000000000000000DC00000000000000000000000000000028002800000000282800000000
310
000000000000000000000000DC00000000000000000000000000000000282800000000282800000000000000000000000000000000DC0000000000000000000000000000002800280000000000280028000000000000000000000000000000DC00000000000000000000000000002828280000000000280028000000000000
310
000000000000000000DC00000000000000000000000000002800280000000000002800280000000000000000000000000000DC00000000000000000000000000000000000000000000000000000000000028002800000000000000000000000000000000DC0000000000000000000000000000002800280000000028280000
310
0000000000000000000000000000DC00000000000000000000000000000000282800000000282800000000000000000000000000000000DC0000000000000000000000000000002800280000000000280028000000000000000000000000000000DC0000000000000000000000000000282828000000000028002800000000
310
0000000000000000000000DC00000000000000000000000000002800280000000000002800280000000000000000000000000000DC00000000000000000000000000000000000000000000000000000000000028002800000000000000000000000000000000DC000000000000000000000000000000280028000000002828
310
00000000000000000000000000000000DC00000000000000000000000000000000282800000000282800000000000000000000000000000000DC0000000000000000000000000000002800280000000000280028000000000000000000000000000000DC000000000000000000000000000028282800000000002800280000
310
00000000000000000000000000DC00000000000000000000000000002800280000000000002800280000000000000000000000000000DC00000000000000000000000000000000000000000000000000000000002828002800000000000000000000000000000000DC00000000000000000000000000000028002800000000
310
282800000000000000000000000000000000DC00000000000000000000000000000000282800000000282800000000000000000000000000000000DC0000000000000000000000000000002800280000000000280028000000000000000000000000000000DC00000000000000000000000000002828280000000000280028
310
000000000000000000000000000000DC00000000000000000000000000002800280000000000002800280000000000000000000000000000DC00000000000000000000000000000000000000000000000000000000000028002800000000000000000000000000000000DC0000000000000000000000000000002800282828
310
2828282800000000000000000000000000000000DC00000000000000000000000000000000282800000000282800000000000000000000000000000000DC0000000000000000000000000000002800280000000000280028000000000000000000000000000000DC0000000000000000000000000000282828000000000028
310
0028000000000000000000000000000000DC00000000000000000000000000002800280000000000002800280000000000000000000000000000DC00000000000000000000000000000000000000000000000000000000000028282800000000000000000000000000000000DC000000000000000000000000000000280028
310
00000000282800000000000000000000000000000000DC00000000000000000000000000000000282828282828282800000000000000000000000000000000DC0000000000000000000000000000002800280000000000280028000000000000000000000000000000DC000000000000000000000000000028282800000000
310
00280028000000000000000000000000000000DC00000000000000000000000000002800280000000000002800280000000000000000000000000000DC00000000000000000000000000000000000000000000000000000000000000000000000000000000000000000000000000DC00000000000000000000000000000028
310
282800000000282800000000000000000000000000000000DC00000000000000000000000000000000282800000000282800000000000000000000000000000000DC0000000000000000000000000000002800282828282828280028000000000000000000000000000000DC00000000000000000000000000002828280000
310
000000280028000000000000000000000000000000DC00000000000000000000000000002800280000000000002800280000000000000000000000000000DC00000000000000000000000000000000000000000000000000000000000000000000000000000000000000000000000000DC0000000000000000000000000000
310
0000000000000000000000000000000000000000000000000000DC00000000000000000000000000000000282800000000282800000000000000000000000000000000DC0000000000000000000000000000002800280000000000280028000000000000000000000000000000DC0000000000000000000000000000282828
310
2800000028280028000000000000000000000000000000DC00000000000000000000000000002800280000000000002800280000000000000000000000000000DC00000000000000000000000000000000000000000000000000000000000000000000000000000000000000000000000000DC000000000000000000000000
310
00000000000000000000000000000000000000000000000000000000DC00000000000000000000000000000000000000000000000000000000000000000000000000000000DC0000000000000000000000000000002828280000000000282828000000000000000000000000000000DC000000000000000000000000000028
310
28280028282800280028000000000000000000000000000000DC00000000000000000000000000002800280000000000002800280000000000000000000000000000DC00000000000000000000000000000000000000000000000000000000000000000000000000000000000000000000000000DC00000000000000000000
310
000000000000000000000000000000000000000000000000000000000000DC00000000000000000000000000000000000000000000000000000000000000000000000000000000DC0000000000000000000000000000000000000000000000000000000000000000000000000000000000DC00000000000000000000000000
310
000028280000000000280028000000000000000000000000000000DC00000000000000000000000000002800282800000000282800280000000000000000000000000000DC00000000000000000000000000000000000000000000000000000000000000000000000000000000000000000000000000DC0000000000000000
310
0000000000000000000000000000000000000000000000000000000000000000DC00000000000000000000000000000000000000000000000000000000000000000000000000000000DC0000000000000000000000000000000000000000000000000000000000000000000000000000000000DC0000000000000000000000
310
0000000028280000000000282828000000000000000000000000000000DC00000000000000000000000000002800280028282828002800280000000000000000000000000000DC00000000000000000000000000000000000000000000000000000000000000000000000000000000000000000000000000DC000000000000
310
00000000000000000000000000000000000000000000000000000000000000000000DC00000000000000000000000000000000000000000000000000000000000000000000000000000000DC0000000000000000000000000000000000000000000000000000000000000000000000000000000000DC000000000000000000
310
00000000000000000000000000000000000000000000000000000000000000DC00000000000000000000000000002800280000000000002800280000000000000000000000000000DC00000000000000000000000000000000000000000000000000000000000000000000000000000000000000000000000000DC00000000
310
000000000000000000000000000000000000000000000000000000000000000000000000DC00000000000000000000000000000000000000000000000000000000000000000000000000000000DC0000000000000000000000000000000000000000000000000000000000000000000000000000000000DC00000000000000
310
000000000000000000000000000000000000000000000000000000000000000000DC00000000000000000000000000002828280000000000002828280000000000000000000000000000DC00000000000000000000000000000000000000000000000000000000000000000000000000000000000000000000000000DC0000
310
0000000000000000000000000000000000000000000000000000000000000000000000000000DC00000000000000000000000000000000000000000000000000000000000000000000000000000000DC0000000000000000000000000000000000000000000000000000000000000000000000000000000000DC0000000000
310
0000000000000000000000000000000000000000000000000000000000000000000000DC00000000000000000000000000000000000000000000000000000000000000000000000000000000DC00000000000000000000000000000000000000000000000000000000000000000000000000000000000000000000000000DC
310
00000000000000000000000000000000000000000000000000000000000000000000000000000000DC00000000000000000000000000000000000000000000000000000000000000000000000000000000DC0000000000000000000000000000000000000000000000000000000000000000000000000000000000DC000000
310
00000000000000000000000000000000000000000000000000000000000000000000000000DC00000000000000000000000000000000000000000000000000000000000000000000000000000000DC000000000000000000000000000000000000000000000000000000000000000000000000000000000000000000000000
310
00DC00000000000000000000000000000000000000000000000000000000000000000000000000000000DC00000000000000000000000000000000000000000000000000000000000000000000000000000000DC0000000000000000000000000000000000000000000000000000000000000000000000000000000000DC00
310
000000000000000000000000000000000000000000000000000000000000000000000000000000DC00000000000000000000000000000000000000000000000000000000000000000000000000000000DC00000000000000000000000000000000000000000000000000000000000000000000000000000000000000000000
310
000000DC00000000000000000000000000000000000000000000000000000000000000000000000000000000DC00000000000000000000000000000000000000000000000000000000000000000000000000000000DC0000000000000000000000000000000000000000000000000000000000000000000000000000000000
310
DC00000000000000000000000000000000000000000000000000000000000000000000000000000000DC00000000000000000000000000000000000000000000000000000000000000000000000000000000DC0000000000000000000000000000000000000000000000000000000000000000000000000000000000000000
310
0000000000DC00000000000000000000000000000000000000000000000000000000000000000000000000000000DC00000000000000000000000000000000000000000000000000000000000000000000000000000000DC000000000000000000000000000000000000000000000000000000000000000000000000000000
310
0000DC00000000000000000000000000000000000000000000000000000000000000000000000000000000DC00000000000000000000000000000000000000000000000000000000000000000000000000000000DC000000000000000000000000000000000000000000000000000000000000000000000000000000000000
310
00000000000000DC00000000000000000000000000000000000000000000000000000000000000000000000000000000DC00000000000000000000000000000000000000000000000000000000000000000000000000000000DC00000000000000000000000000000000000000000000000000000000000000000000000000
310
00000000DC00000000000000000000000000000000000000000000000000000000000000000000000000000000DC00000000000000000000000000000000000000000000000000000000000000000000000000000000DC00000000000000000000000000000000000000000000000000000000000000000000000000000000
310
000000000000000000DC00000000000000000000000000000000000000000000000000000000000000000000000000000000DC00000000000000000000000000000000000000000000000000000000000000000000000000000000DC0000000000000000000000000000000000000000000000000000000000000000000000
310
000000000000DC00000000000000000000000000000000000000000000000000000000000000000000000000000000DC00000000000000000000000000000000000000000000000000000000000000000000000000000000DC0000000000000000000000000000000000000000000000000000000000DCDCDCDCDCDCDCDCDC
310
DCDCDCDCDCDCDCDCDCDCDCDCDCDCDCDCDCDCDCDCDCDCDCDCDCDCDCDCDCDCDCDCDCDCDCDCDCDCDCDCDCDCDCDCDCDCDCDCDCDCDCDCDCDCDCDCDCDCDCDCDCDCDCDCDCDCDCDCDCDCDCDCDCDCDCDCDCDCDCDCDCDCDCDCDCDCDCDCDCDCDCDCDCDCDCDCDCDCDCDCDCDCDCDCDCDCDCDCDCDCDCDCDCDCDCDCDCDCDCDCDCDCDCDCDCDCDC
310
DCDCDCDCDCDCDCDCDCDCDCDCDCDCDCDCDCDCDCDCDCDCDCDCDCDCDCDCDCDCDCDCDCDCDCDCDCDCDCDCDCDCDCDCDCDCDCDCDCDCDCDCDCDCDCDCDCDCDCDCDCDCDCDCDCDCDCDCDCDCDCDCDCDCDCDCDCDCDCDCDCDCDCDCDCDCDCDCDCDCDC000000000000000000000000000000000000000000000000000000000000000000000000
310
00000000000000000000000000DC00000000000000000000000000000000000000000000000000000000000000000000000000000000DC00000000000000000000000000000000000000000000000000000000000000000000000000000000DC00000000000000000000000000000000000000000000000000000000000000
310
00000000000000000000DC00000000000000000000000000000000000000000000000000000000000000000000000000000000DC00000000000000000000000000000000000000000000000000000000000000000000000000000000DC000000000000000000000000000000000000000000000000000000000000F50000F5
310
F5F500F5F5F500F5F5F50000000000DC00000000F5F500F5F5F500F5F5F500F500F500F500F50000F5F500F5F5F500F5F5F500F5F5F50000DC00000000F5F500F5F5F50000F5F500F50000F500F5F50000F5F500F5F5F50000F5F500F5F5F50000DC00000000F5F500F5F5F500F5F5F500F500F500F500F50000F50000F5F5
310
F500F5F5F500F5F5F5000000DC000000F5F5F500F5F5F500F5F5F500F500F500F500F50000F50000F5F5F500F5F5F500F5F5F50000DC0000F5F5F50000F5F50000F5F500F50000F500F5F50000F5F5000000F50000F5F500F5F5F5F50000DC000000000000000000000000000000000000000000000000000000000000F500
310
00F5F50000F500F500F500000000000000DC00000000F50000F500F500F500F500F5F5F50000F5000000F50000F5F50000F500F500F500000000DC00000000F5000000F5F500F500F500F5F5F5000000F50000F5000000F5F50000F5F500F500000000DC00000000F50000F500F500F500F500F5F5F50000F5000000F50000
310
F500F500F500F500F50000000000DC000000F5F50000F500F500F500F500F5F5F50000F5000000F50000F500F500F500F500F500000000DC000000F5F500F500F50000F5F50000F5F5F50000F5000000F5000000F500F500F500F50000000000DC000000000000000000000000000000000000000000000000000000000000
310
F50000F500F500F500F500F500000000000000DC00000000F50000F500F500F500F50000F50000F500F50000F50000F500F500F500F500F500000000DC00000000F50000F500F500F5F5F50000F5F50000F5F50000F50000F500F50000F5F500F500000000DC00000000F50000F5F5F500F500F50000F50000F500F50000F5
310
0000F5F5F500F500F500F50000000000DC000000F500F500F500F500F500F50000F50000F500F50000F50000F5F5F500F500F500F500000000DC0000F500F500F5F5F50000F5F50000F5F50000F5F50000F5F500000000F5F5F5F500F50000000000DC00000000000000000000000000000000000000000000000000000000
310
0000F50000F5F5F500F5F5F500F500000000000000DC00000000F50000F5F5F500F5F5F50000F500000000000000F50000F5F5F500F5F5F500F500000000DC00000000F5000000F5F500F5F5F50000F500000000000000F5000000F5F50000F5F500F500000000DC00000000F50000F5F5F500F5F5F50000F5000000000000
310
00F50000F5F5F500F5F5F500F50000000000DC000000F5F5F500F5F5F500F5F5F50000F500000000000000F50000F5F5F500F5F5F500F500000000DC000000F5F500F5F5F50000F5F5000000F500000000000000F500F5F5F5F5F5F5F500F50000000000DC0000000000000000000000000000000000000000000000000000
310
0000000000000000000000000000000000000000000000DC00000000000000000000000000000000000000000000000000000000000000000000000000000000DC00000000000000000000000000000000000000000000000000000000000000000000000000000000DC000000000000000000000000000000000000000000
310
0000000000000000000000000000000000000000DC00000000000000000000000000000000000000000000000000000000000000000000000000000000DC00000000000000000000000000000000000000000000000000000000000000000000000000000000DC000000000000000000000000000000000000000000000000
310
0000000000DCDCDCDCDCDCDCDCDCDCDCDCDCDCDCDCDCDCDCDCDCDCDCDCDCDCDCDCDCDCDCDCDCDCDCDCDCDCDCDCDCDCDCDCDCDCDCDCDCDCDCDCDCDCDCDCDCDCDCDCDCDCDCDCDCDCDCDCDCDCDCDCDCDCDCDCDCDCDCDCDCDCDCDCDCDCDCDCDCDCDCDCDCDCDCDCDCDCDCDCDCDCDCDCDCDCDCDCDCDCDCDCDCDCDCDCDCDCDCDCDCDC
310
DCDCDCDCDCDCDCDCDCDCDCDCDCDCDCDCDCDCDCDCDCDCDCDCDCDCDCDCDCDCDCDCDCDCDCDCDCDCDCDCDCDCDCDCDCDCDCDCDCDCDCDCDCDCDCDCDCDCDCDCDCDCDCDCDCDCDCDCDCDCDCDCDCDCDCDCDCDCDCDCDCDCDCDCDCDCDCDCDCDCDCDCDCDCDCDCDCDCDCDCDCDCDCDCDC00000000000000000000000000000000000000000000
310
000000000000000000000000000000000000000000000000000000DC00000000000000000000000000000000000000000000000000000000000000000000000000000000DC00000000000000000000000000000000000000000000000000000000000000000000000000000000DC0000000000000000000000000000000000
310
000000000000000000000000000000000000000000000000DC00000000000000000000000000000000000000000000000000000000000000000000000000000000DC00000000000000000000000000000000000000000000000000000000000000000000000000000000DC0000000000000000000000000000000000000000
310
0000000000000000000000000000000000000000000000000000000000DC00000000000000000000000000000000000000000000000000000000000000000000000000000000DC00000000000000000000000000000000000000000000000000000000000000000000000000000000DC000000000000000000000000000000
310
0000000000000000000000000000000000000000000000000000DC00000000000000000000000000000000000000000000000000000000000000000000000000000000DC00000000000000000000000000000000000000000000000000000000000000000000000000000000DC000000000000000000000000000000000000
310
00000000000000000000000000000000000000000000000000000000000000DC00000000000000000000000000000000000000000000000000000000000000000000000000000000DC00000000000000000000000000000000000000000000000000000000000000000000000000000000DC00000000000000000000000000
310
00000000000000000000000000000000000000000000000000000000DC00000000000000000000000000000000000000000000000000000000000000000000000000000000DC00000000000000000000000000000000000000000000000000000000000000000000000000000000DC00000000000000000000000000000000
310
000000000000000000000000000000000000000000000000000000000000000000DC00000000000000000000000000000000000000000000000000000000000000000000000000000000DC00000000000000000000000000000000000000000000000000000000000000000000000000000000DC0000000000000000000000
310
000000000000000000000000000000000000000000000000000000000000DC00000000000000000000000000000000000000000000000000000000000000000000000000000000DC00000000000000000000000000000000000000000000000000000000000000000000000000000000DC0000000000000000000000000000
310
0000000000000000000000000000000000000000000000000000000000000000000000DC00000000000000000000000000000000000000000000000000000000000000000000000000000000DC00000000000000000000000000000000000000000000000000000000000000000000000000000000DC000000000000000000
310
0000000000000000000000000000000000000000000000000000000000000000DC00000000000000000000000000000000000000000000000000000000000000000000000000000000DC00000000000000000000000000000000000000000000000000000000000000000000000000000000DC000000000000000000000000
310
00000000000000000000000000000000000000000000000000000000000000000000000000DC00000000000000000000000000000000000000000000000000000000000000000000000000000000DC00000000000000000000000000000000000000000000000000000000000000000000000000000000DC00000000000000
310
00000000000000000000000000000000000000000000000000000000000000000000DC00000000000000000000000000000000000000000000000000000000000000000000000000000000DC00000000000000000000000000000000000000000000000000000000000000000000000000000000DC00000000000000000000
310
000000000000000000000000000000000000000000000000000000000000000000000000000000DC00000000000000000000000000000000000000000000000000000000000000000000000000000000DC00000000000000000000000000000000000000000000000000000000000000000000000000000000DC0000000000
310
000000000000000000000000000000000000000000000000000000000000000000000000DC00000000000000000000000000000000000000000000000000000000000000000000000000000000DC00000000000000000000000000000000000000000000000000000000000000000000000000000000DC0000000000000000
310
0000000000000000000000000000000000000000000000000000000000000000000000000000000000DC00000000000000000000000000000000000000000000000000000000000000000000000000000000DC00000000000000000000000000000000000000000000000000000000000000000000000000000000DC000000
310
0000000000000000000000000000000000000000000000000000000000000000000000000000DC00000000000000000000000000000000000000000000000000000000000000000000000000000000DC00000000000000000000000000000000000000000000000000000000000000000000000000000000DC000000000000
310
00000000000000000000000000000000000000000000000000000000000000000000000000000000000000DC00000000000000000000000000000000000000000000000000000000000000000000000000000000DC00000000000000000000000000000000000000000000000000000000000000000000000000000000DC00
310
00000000000000000000000000000000000000000000000000000000000000000000000000000000DC00000000000000000000000000000000000000000000000000000000000000000000000000000000DC00000000000000000000000000000000000000000000000000000000000000000000000000000000DC00000000
310
000000000000000000000000000000000000000000000000000000000000000000000000000000000000000000DC00000000000000000000000000000000000000000000000000000000000000000000000000000000DC00000000000000000000000000000000000000000000000000000000000000000000000000000000
310
DC0000000000000000000000000000000000000000000000000000000000000000000000000000000000DC00000000000000000000000000000000000000000000000000000000000000000000000000000000DC00000000000000000000000000000000000000000000000000000000000000000000000000000000DC0000
310
0000000000000000000000000000000000000000000000000000000000000000000000000000000000000000000000DC00000000000000000000000000000000000000000000000000000000000000000000000000000000DC0000000000000000000000000000000000000000000000000000000000000000000000000000
310
0000DC0000000000000000000000000000000000000000000000000000000000000000000000000000000000DC00000000000000000000000000000000000000000000000000000000000000000000000000000000DC00000000000000000000000000000000000000000000000000000000000000000000000000000000DC
310
00000000000000000000000000000000000000000000000000000000000000000000000000000000000000000000000000DC00000000000000000000000000000000000000000000000000000000000000000000000000000000DC000000000000000000000000000000000000000000000000000000000000000000000000
310
00000000DC0000000000000000000000000000000000000000000000000000000000000000000000000000000000DC00000000000000000000000000000000000000000000000000000000000000000000000000000000DC000000000000000000000000000000000000000000000000000000000000000000000000000000
310
00DC00000000000000000000000000000000000000000000000000000000000000000000000000000000000000000000000000DC00000000000000000000000000000000000000000000000000000000000000000000000000000000DC00000000000000000000000000000000000000000000000000000000000000000000
310
000000000000DC0000000000000000000000000000000000000000000000000000000000000000000000000000000000DC00000000000000000000000000000000000000000000000000000000000000000000000000000000DC00000000000000000000000000000000000000000000000000000000000000000000000000
310
000000DC00000000000000000000000000000000000000000000000000000000000000000000000000000000000000000000000000DC00000000000000000000000000000000000000000000000000000000000000000000000000000000DC0000000000000000000000000000000000000000000000000000000000000000
310
0000000000000000DC0000000000000000000000000000000000000000000000000000000000000000000000000000000000DC00000000000000000000000000000000000000000000000000000000000000000000000000000000DC0000000000000000000000000000000000000000000000000000000000000000000000
310
0000000000DC00000000000000000000000000000000000000000000000000000000000000000000000000000000000000000000000000DC00000000000000000000000000000000000000000000000000000000000000000000000000000000DC000000000000000000000000000000000000000000000000000000000000
310
00000000000000000000DC0000000000000000000000000000000000000000000000000000000000000000000000000000000000DC00000000000000000000000000000000000000000000000000000000000000000000000000000000DC000000000000000000000000000000002828000000002828000000000000000000
310
00000000000000DC00000000000000000000000000000000000000000000000000000000000000000000000000000000000000000000000000DC00000000000000000000000000000000000000000000000000000000000000000000000000000000DC00000000000000000000000000000000282800000000282800000000
310
000000000000000000000000DC0000000000000000000000000000000000282800000028280000000000000000000000000000000000DC00000000000000000000000000000000282800000028280000000000000000000000000000000000DC00000000000000000000000000000000282800000000282800000000000000
310
000000000000000000DC00000000000000000000000000000000000000000000000000000000000000000000000000000000000000000000000000DC00000000000000000000000000000000282800000028280000000000000000000000000000000000DC0000000000000000000000000000000028280000000028280000
310
0000000000000000000000000000DC0000000000000000000000000000000000282800000028280000000000000000000000000000000000DC00000000000000000000000000000000282800000028280000000000000000000000000000000000DC0000000000000000000000000000000028280028280028280000000000
310
0000000000000000000000DC00000000000000000000000000000000000000000000000000000000000028280000000000000000000000000000000000DC00000000000000000000000000000000282800000028280000000000000000000000000000000000DC000000000000000000000000000000002828000000002828
310
00000000000000000000000000000000DC0000000000000000000000000000000000282800280028280000000000000000000000000000000000DC00000000000000000000000000000000282828282828280000000000000000000000000000000000DC000000000000000000000000000000002828280000282828000000
310
00000000000000000000000000DC00000000000000000000000000000000000000000000000000000000000028280000000000000000000000000000000000DC00000000000000000000000000000000282828282828280000000000000000000000000000000000DC00000000000000000000000000000000282828282828
310
282800000000000000000000000000000000DC0000000000000000000000000000000000282828002828280000000000000000000000000000000000DC00000000000000000000000000000000282800000028280000000000000000000000000000000000DC00000000000000000000000000000000282800000000282800
310
000000000000000000000000000000DC00000000000000000000000000000000000000000000000000000000002828280000000000000000000000000000000000DC00000000000000000000000000000000282800000028280000000000000000000000000000000000DC0000000000000000000000000000000028280000
310
0000282800000000000000000000000000000000DC0000000000000000000000000000000000282800000028280000000000000000000000000000000000DC00000000000000000000000000000000282800000028280000000000000000000000000000000000DC0000000000000000000000000000000028280000000028
310
2800000000000000000000000000000000DC0000000000000000000000000000000000000000000000000000000000BEBEBEBE00000000000000000000000000000000DC000000000000000000000000000000BEBEBEBEBEBEBEBEBEBE000000000000000000000000000000DC000000000000000000000000000000BEBEBE
310
BEBEBEBEBEBEBE000000000000000000000000000000DC00000000000000000000000000000000BE2828BEBEBE2828BE00000000000000000000000000000000DC000000000000000000000000000000BE2828BEBEBE2828BE00000000000000000000000000000000DC000000000000000000000000000000BEBEBEBEBEBE
310
BEBEBEBE000000000000000000000000000000DC00000000000000000000000000000000000000000000000000000000000028280000000000000000000000000000000000DC00000000000000000000000000000000282800000028280000000000000000000000000000000000DC00000000000000000000000000000000
310
282828000000282800000000000000000000000000000000DC0000000000000000000000000000000000282800000028280000000000000000000000000000000000DC00000000000000000000000000000000282800000028280000000000000000000000000000000000DC00000000000000000000000000000000282800
310
000000282800000000000000000000000000000000DC00000000000000000000000000000000000000000000000000000000002828280000000000000000000000000000000000DC00000000000000000000000000000000282828282828280000000000000000000000000000000000DC0000000000000000000000000000
310
0000282800282828282800000000000000000000000000000000DC0000000000000000000000000000000000282828282828280000000000000000000000000000000000DC00000000000000000000000000000000282800000028280000000000000000000000000000000000DC0000000000000000000000000000000028
310
2800000000282800000000000000000000000000000000DC00000000000000000000000000000000000000000000000000000000000028280000000000000000000000000000000000DC00000000000000000000000000000000282800000028280000000000000000000000000000000000DC000000000000000000000000
310
00000000282800000000282800000000000000000000000000000000DC0000000000000000000000000000000000282800000028280000000000000000000000000000000000DC00000000000000000000000000000000282828282828280000000000000000000000000000000000DC000000000000000000000000000000
310
00282828282828282800000000000000000000000000000000DC00000000000000000000000000000000000000000000000000000000000000000000000000000000000000000000000000DC00000000000000000000000000000000282800000028280000000000000000000000000000000000DC00000000000000000000
310
000000000000282800000000282800000000000000000000000000000000DC0000000000000000000000000000000000282800000028280000000000000000000000000000000000DC00000000000000000000000000000000282800000028280000000000000000000000000000000000DC00000000000000000000000000
310
000000282800000000282800000000000000000000000000000000DC00000000000000000000000000000000000000000000000000000000000000000000000000000000000000000000000000DC00000000000000000000000000000000000000000000000000000000000000000000000000000000DC0000000000000000
310
0000000000000000000000000000000000000000000000000000000000000000DC0000000000000000000000000000000000000000000000000000000000000000000000000000000000DC00000000000000000000000000000000282800000028280000000000000000000000000000000000DC0000000000000000000000
310
0000000000282800000000282800000000000000000000000000000000DC00000000000000000000000000000000000000000000000000000000000000000000000000000000000000000000000000DC00000000000000000000000000000000000000000000000000000000000000000000000000000000DC000000000000
310
00000000000000000000000000000000000000000000000000000000000000000000DC0000000000000000000000000000000000000000000000000000000000000000000000000000000000DC00000000000000000000000000000000000000000000000000000000000000000000000000000000DC000000000000000000
310
00000000000000000000000000000000000000000000000000000000000000DC00000000000000000000000000000000000000000000000000000000000000000000000000000000000000000000000000DC00000000000000000000000000000000000000000000000000000000000000000000000000000000DC00000000
310
000000000000000000000000000000000000000000000000000000000000000000000000DC0000000000000000000000000000000000000000000000000000000000000000000000000000000000DC00000000000000000000000000000000000000000000000000000000000000000000000000000000DC00000000000000
310
000000000000000000000000000000000000000000000000000000000000000000DC00000000000000000000000000000000000000000000000000000000000000000000000000000000000000000000000000DC00000000000000000000000000000000000000000000000000000000000000000000000000000000DC0000
310
0000000000000000000000000000000000000000000000000000000000000000000000000000DC0000000000000000000000000000000000000000000000000000000000000000000000000000000000DC00000000000000000000000000000000000000000000000000000000000000000000000000000000DC0000000000
310
0000000000000000000000000000000000000000000000000000000000000000000000DC00000000000000000000000000000000000000000000000000000000000000000000000000000000000000000000000000DC00000000000000000000000000000000000000000000000000000000000000000000000000000000DC
310
00000000000000000000000000000000000000000000000000000000000000000000000000000000DC0000000000000000000000000000000000000000000000000000000000000000000000000000000000DC00000000000000000000000000000000000000000000000000000000000000000000000000000000DC000000
310
00000000000000000000000000000000000000000000000000000000000000000000000000DC00000000000000000000000000000000000000000000000000000000000000000000000000000000000000000000000000DC000000000000000000000000000000000000000000000000000000000000000000000000000000
310
00DC00000000000000000000000000000000000000000000000000000000000000000000000000000000DC0000000000000000000000000000000000000000000000000000000000000000000000000000000000DC00000000000000000000000000000000000000000000000000000000000000000000000000000000DC00
310
000000000000000000000000000000000000000000000000000000000000000000000000000000DC00000000000000000000000000000000000000000000000000000000000000000000000000000000000000000000000000DC00000000000000000000000000000000000000000000000000000000000000000000000000
310
000000DC00000000000000000000000000000000000000000000000000000000000000000000000000000000DC0000000000000000000000000000000000000000000000000000000000000000000000000000000000DC00000000000000000000000000000000000000000000000000000000000000000000000000000000
310
DC00000000000000000000000000000000000000000000000000000000000000000000000000000000DC00000000000000000000000000000000000000000000000000000000000000000000000000000000000000000000000000DC0000000000000000000000000000000000000000000000000000000000000000000000
310
0000000000DC00000000000000000000000000000000000000000000000000000000000000000000000000000000DC0000000000000000000000000000000000000000000000000000000000000000000000000000000000DC0000000000000000000000000000000000000000000000000000000000000000000000000000
310
0000DC00000000000000000000000000000000000000000000000000000000000000000000000000000000DC00000000000000000000000000000000000000000000000000000000000000000000000000000000000000000000000000DC000000000000000000000000000000000000000000000000000000000000000000
310
00000000000000DC00000000000000000000000000000000000000000000000000000000000000000000000000000000DC0000000000000000000000000000000000000000000000000000000000000000000000000000000000DC000000000000000000000000000000000000000000000000000000000000000000000000
310
00000000DC00000000000000000000000000000000000000000000000000000000000000000000000000000000DC00000000000000000000000000000000000000000000000000000000000000000000000000000000000000000000000000DC00000000000000000000000000000000000000000000000000000000000000
310
000000000000000000DC00000000000000000000000000000000000000000000000000000000000000000000000000000000DC0000000000000000000000000000000000000000000000000000000000000000000000000000000000DC00000000000000000000000000000000000000000000000000000000000000000000
310
000000000000DC00000000000000000000000000000000000000000000000000000000000000000000000000000000DC00000000000000000000000000000000000000000000000000000000000000000000000000000000000000000000000000DC0000000000000000000000000000000000000000000000000000000000
310
0000000000000000000000DC00000000000000000000000000000000000000000000000000000000000000000000000000000000DC0000000000000000000000000000000000000000000000000000000000000000000000000000000000DC0000000000000000000000000000000000000000000000000000000000000000
310
0000000000000000DC00000000000000000000000000000000000000000000000000000000000000000000000000000000DC00000000000000000000000000000000000000000000000000000000000000000000000000000000000000000000000000DC000000000000000000000000000000000000000000000000000000
310
00000000000000000000000000DC00000000000000000000000000000000000000000000000000000000000000000000000000000000DC0000000000000000000000000000000000000000000000000000000000000000000000000000000000DC000000000000000000000000000000000000000000000000000000000000
310
00000000000000000000DC00000000000000000000000000000000000000000000000000000000000000000000000000000000DC00000000000000000000000000000000000000000000000000000000000000000000000000000000000000000000000000DC00000000000000000000000000000000000000000000000000
310
000000000000000000000000000000DC00000000000000000000000000000000000000000000000000000000000000000000000000000000DC0000000000000000000000000000000000000000000000000000000000000000000000000000000000DC00000000000000000000000000000000000000000000000000000000
310
000000000000000000000000DC00000000000000000000000000000000000000000000000000000000000000000000000000000000DC00000000000000000000000000000000000000000000000000000000000000000000000000000000000000000000000000DC0000000000000000000000000000000000000000000000
310
0000000000000000000000000000000000DC00000000000000000000000000000000000000000000000000000000000000000000000000000000DC0000000000000000000000000000000000000000000000000000000000000000000000000000000000DC0000000000000000000000000000000000000000000000000000
310
0000000000000000000000000000DC00000000000000000000000000000000000000000000000000000000000000000000000000000000DC00000000000000000000000000000000000000000000000000000000000000000000000000000000000000000000000000DC000000000000000000000000000000000000000000
310
00000000000000000000000000000000000000DC00000000000000000000000000000000000000000000000000000000000000000000000000000000DC0000000000000000000000000000000000000000000000000000000000000000000000000000000000DC000000000000000000000000000000000000000000000000
310
00000000000000000000000000000000DC00000000000000000000000000000000000000000000000000000000000000000000000000000000DC00000000000000000000000000000000000000000000000000000000000000000000000000000000000000000000000000DC00000000000000000000000000000000000000
310
000000000000000000000000000000000000000000DC00000000000000000000000000000000000000000000000000000000000000000000000000000000DC0000000000000000000000000000000000000000000000000000000000000000000000000000000000DC00000000000000000000000000000000000000000000
310
000000000000000000000000000000000000DC00000000000000000000000000000000000000000000000000000000000000000000000000000000DC0000000000000000000000000000000000000000000000000000000000DCDCDCDCDCDCDCDCDCDCDCDCDCDCDCDCDCDCDCDCDCDCDCDCDCDCDCDCDCDCDCDCDCDCDCDCDCDC
310
DCDCDCDCDCDCDCDCDCDCDCDCDCDCDCDCDCDCDCDCDCDCDCDCDCDCDCDCDCDCDCDCDCDCDCDCDCDCDCDCDCDCDCDCDCDCDCDCDCDCDCDCDCDCDCDCDCDCDCDCDCDCDCDCDCDCDCDCDCDCDCDCDCDCDCDCDCDCDCDCDCDCDCDCDCDCDCDCDCDCDCDCDCDCDCDCDCDCDCDCDCDCDCDCDCDCDCDCDCDCDCDCDCDCDCDCDCDCDCDCDCDCDCDCDCDCDC
310
DCDCDCDCDCDCDCDCDCDCDCDCDCDCDCDCDCDCDCDCDCDCDCDCDCDCDCDCDCDCDCDCDCDCDCDCDCDCDCDCDCDCDCDCDCDCDCDCDCDCDCDCDCDCDCDCDCDCDCDCDCDC000000000000000000000000000000000000000000000000000000000000F5F5000000F5000000F50000F5F5F500000000DC000000000000F5F5F500F5F50000F5
310
00F50000000000F5F50000F5F50000F5F50000F5F5F5000000DC00000000000000F50000F5F5F500F500F5000000000000F5F50000F5000000F50000F5F5F5000000DC000000000000000000F50000F5F500F50000F50000000000F5F50000F5F50000F5F500F5F5F5F50000DC00000000000000F5F50000F5F500F500F500
310
0000000000F5F50000F5000000F50000F5F5F5000000DC00000000000000000000000000000000000000000000000000000000000000000000000000000000DC00000000000000000000000000000000000000000000000000000000000000F50000F500F500F500F500F5000000000000DC000000000000F5000000F5F5F5
310
00F500F500F500F50000F50000F5F5F500F5F5F500F50000000000DC000000000000F500F500F5F50000F5F5F500F500F50000F50000F500F500F500F500F50000000000DC00000000000000F5F5F5F500F5F50000F5F5F500F5F50000F5000000F5F50000F5F500F50000000000DC000000000000F500F500F5F5F500F5F5
310
F500F500F50000F50000F5F5F500F5F5F500F50000000000DC0000000000F5F5F500F5F5F500F500F500F500F50000F5F500F5F5F500F5F5F500F5F5F500000000DC00000000000000000000000000000000000000000000000000000000000000F50000F500F500F500F500F5000000000000DC000000000000F5F5F500F5
310
F5F500F5F5000000F5000000F50000F500F500F500F500F50000000000DC000000000000F5F5F500F500F50000F5000000F5000000F50000F500F500F500F500F50000000000DC0000000000000000F5F50000F5F50000F5F5000000F50000F5000000F5F50000F5F500F50000000000DC000000000000F5F5F500F500F500
310
00F5000000F5000000F50000F500F500F500F500F50000000000DC0000000000F5F5F500F5F5F500F5F5F50000F5000000F5000000F5F500F500F500F5000000000000DC000000000000000000000000000000000000000000000000000000000000F5F50000F5F5F500F5F5F500F5000000000000DC000000000000F5F5F5
310
00F5F5F50000F50000F500F500F5F50000F5F5F500F5F5F500F50000000000DC000000000000F5F5F500F5F5F50000F50000F500F50000F50000F5F5F500F5F5F500F50000000000DC000000000000000000F50000F5F5000000F50000F5F50000F5000000F5F50000F5F500F50000000000DC000000000000F5F5F500F5F5
310
F50000F50000F500F50000F50000F5F5F500F5F5F500F50000000000DC0000000000F5F5F500F5F5F50000F50000F500F50000F50000F5F5F500F5F5F500F5000000000000DC00000000000000000000000000000000000000000000000000000000000000000000000000000000000000000000000000DC00000000000000
310
000000000000000000000000000000000000000000000000000000000000000000DC00000000000000000000000000000000000000000000000000000000000000000000000000000000DC0000000000000000000000000000000000000000000000000000000000000000000000000000000000DC00000000000000000000
310
000000000000000000000000000000000000000000000000000000000000DC00000000000000000000000000000000000000000000000000000000000000000000000000000000DC0000000000000000000000000000000000000000000000000000000000DCDCDCDCDCDCDCDCDCDCDCDCDCDCDCDCDCDCDCDCDCDCDCDCDCDC
310
DCDCDCDCDCDCDCDCDCDCDCDCDCDCDCDCDCDCDCDCDCDCDCDCDCDCDCDCDCDCDCDCDCDCDCDCDCDCDCDCDCDCDCDCDCDCDCDCDCDCDCDCDCDCDCDCDCDCDCDCDCDCDCDCDCDCDCDCDCDCDCDCDCDCDCDCDCDCDCDCDCDCDCDCDCDCDCDCDCDCDCDCDCDCDCDCDCDCDCDCDCDCDCDCDCDCDCDCDCDCDCDCDCDCDCDCDCDCDCDCDCDCDCDCDCDCDC
310
DCDCDCDCDCDCDCDCDCDCDCDCDCDCDCDCDCDCDCDCDCDCDCDCDCDCDCDCDCDCDCDCDCDCDCDCDCDCDCDCDCDCDCDCDCDCDCDCDCDCDCDCDCDCDCDCDCDCDCDCDCDCDCDCDCDCDCDCDCDCDCDCDCDC0000000000000000000000000000000000000000000000000000000000000000000000000000000000000000000000000000000000
310
00000000000000000000000000000000000000000000000000000000000000000000000000000000000000000000000000000000000000000000000000000000000000000000000000000000000000000000000000000000000000000000000000000000000000000000000000000000000000000000000000000000000000
310
000000000000000000000000000000000000000000000000000000000000000000000000000000000000000000000000000000000000000000000000000000000000000000000000000000DC000000000000000000000000000000000000000000000000000000000000000000000000000000000000000000000000000000
310
00000000000000000000000000000000000000000000000000000000000000000000000000000000000000000000000000000000000000000000000000000000000000000000000000000000000000000000000000000000000000000000000000000000000000000000000000000000000000000000000000000000000000
310
0000000000000000000000000000000000000000000000000000000000000000000000000000000000000000000000000000000000000000000000000000000000000000000000000000000000DC00000000000000000000000000000000000000000000000000000000000000000000000000000000000000000000000000
310
0000000000000000000000000000000000000000000000000000DCDCDCDCDC0000000000000000000000000000000000000000000000000000000000000000F500000000DCDCDC0000000000F50000000000000000000000000000F5000000000000000000000000000000000000000000000000F500000000000000000000
310
00000000000000000000000000000000000000000000000000000000000000000000000000000000000000000000000000000000000000000000000000000000000000000000000000000000000000DC0000000000000000000000000000000000000000000000000000000000000000000000000000000000000000000000
310
00000000000000000000000000000000000000000000DCDC0000DCDCDCDCDCDCDCDCDCDCDCDCDCDCDCDCDCDCDCDCDCDCDCDC0000DCDC000000000000000000000000F5F50000000000000000000000F5000000000000000000000000F5F5000000000000000000000000000000000000000000000000F50000000000000000
310
000000000000000000000000000000000000000000000000000000000000000000000000000000000000000000000000000000000000000000000000000000000000000000000000000000000000000000DC000000000000000000000000000000000000000000000000000000000000000000000000000000000000000000
310
000000000000000000000000000000000000000000000000DCDC0000DCDCDCDCDCDCDCDCDCDCDCDCDCDCDCDCDCDCDCDCDCDCDCDC00DCDCDC0000000000000000000000000000F50000000000000000000000F50000000000000000F5000000F50000F5000000000000000000000000000000000000000000F5000000000000
310
0000000000000000000000000000000000000000000000000000000000000000000000000000000000000000000000000000000000000000000000000000000000000000000000000000000000000000000000DC00000000000000000000000000000000000000000000000000000000000000000000000000000000000000
310
0000000000000000000000000000000000000000000000000000DCDC00DCDCDCDCDCDCDCDCDCDCDCDCDCDCDCDCDCDCDCDCDCDCDCDCDCDCDCDCDC0000000000000000000000000000F5000000000000000000000000F50000000000000000F50000F50000F5000000000000000000000000000000000000F50000F500000000
310
00000000000000000000000000000000000000000000000000000000000000000000000000000000000000000000000000000000000000000000000000000000000000000000000000000000000000000000000000DC0000000000000000000000000000000000000000000000000000000000000000000000000000000000
310
00000000000000000000000000000000000000000000000000000000DCDC00DCDCDCDCDCDCDCDCDCDCDCDCDCDC00DCDCDCDCDCDCDCDCDCDCDCDCDCDC000000000000000000000000000000F50000000000000000000000F50000000000000000F50000F500F50000000000000000000000000000000000000000F500F50000
310
000000000000000000000000000000000000000000000000000000000000000000000000000000000000000000000000000000000000000000000000000000000000000000000000000000000000000000000000000000DC000000000000000000000000000000000000000000000000000000000000000000000000000000
310
000000000000000000000000000000000000000000000000000000000000DCDC00DCDCDCDCDCDCDCDCDCDCDCDCDCDC00DCDCDCDCDCDCDCDCDCDCDCDCDCDC00000000000000000000F500000000F50000000000000000000000F5000000000000000000F500F500F5000000000000000000000000000000000000000000F5F5
310
0000000000000000000000000000000000000000000000000000000000000000000000000000000000000000000000000000000000000000000000000000000000000000000000000000000000000000000000000000000000DC00000000000000000000000000000000000000000000000000000000000000000000000000
310
0000000000000000000000000000000000000000000000000000000000000000DCDC00DCDCDCDCDCDCDCDCDCDCDC00DCDCDCDCDCDC00000000DCDCDCDC00DCDC0000000000000000000000F500F5F500F500000000000000000000F50000000000000000000000F50000000000000000F5F5F5F5F5F5F5F500000000000000
310
F5F50000000000000000000000000000000000000000000000000000000000000000000000000000000000000000000000000000000000000000000000000000000000000000000000000000000000000000000000000000000000DC0000000000000000000000000000000000000000000000000000000000000000000000
310
000000000000000000000000000000000000000000000000000000000000DCDCDCDCDCDCDCDCDCDCDCDCDCDCDCDCDCDCDCDCDCDCDCDCDCDCDCDCDCDCDCDCDC00DCDC000000000000000000000000F5000000F50000000000000000000000F5000000000000F5F5F5F5F5F5F5F5000000000000000000000000000000000000
310
000000F50000000000000000000000000000000000000000000000000000000000000000000000000000000000000000000000000000000000000000000000000000000000000000000000000000000000000000000000000000000000DC000000000000000000000000000000000000000000000000000000000000000000
310
0000000000000000000000000000000000000000000000000000000000000000DCDCDCDCDCDCDCDCDCDCDCDCDCDCDCDCDCDCDCDCDCDCDCDCDCDCDCDCDCDCDCDC0000DCDC000000000000000000000000F5F5F5F5F5F500000000000000000000F500000000000000000000F500000000000000000000000000000000000000
310
000000000000F500000000000000000000000000000000000000000000000000000000000000000000000000000000000000000000000000000000000000000000000000000000000000000000000000000000000000000000000000000000DC00000000000000000000000000000000000000000000000000000000000000
310
00000000000000000000000000000000000000000000000000000000000000000000000000000000000000DCDCDCDCDCDCDC000000000000000000000000000000000000000000000000000000000000000000F50000000000000000F5F5F5F5F5F5F500000000000000000000F50000F50000000000000000000000000000
310
000000000000000000F5000000000000000000000000000000000000000000000000000000000000000000000000000000000000000000000000000000000000000000000000000000000000000000000000000000000000000000000000000000DC0000000000000000000000000000000000000000000000000000000000
310
0000000000000000000000000000000000000000000000000000000000000000000000000000000000000000000000DCDCDC0000000000000000000000000000000000000000000000000000000000000000000000F500000000000000000000000000000000000000000000000000F500F500F5F500000000000000000000
310
000000000000000000000000F50000000000000000000000000000000000000000000000000000000000000000000000000000000000000000000000000000000000000000000000000000000000000000000000000000000000000000000000000000DC000000000000000000000000000000000000000000000000000000
310
00000000000000000000000000000000000000000000000000000000000000000000000000000000000000000000000000000000000000000000000000000000000000000000000000000000000000000000000000000000000000000000000000000000000000000000000000000000000000000000000000000000000000
310
0000000000000000000000000000000000000000000000000000000000000000000000000000000000000000000000000000000000000000000000000000000000000000000000000000000000000000000000000000000000000000000000000000000000DC00000000000000000000000000000000000000000000000000
310
00000000000000000000000000000000000000000000000000000000000000000000000000000000000000000000000000000000000000000000000000000000000000000000000000000000000000000000000000000000000000000000000000000000000000000000000000000000000000000000000000000000000000
310
00000000000000000000000000000000000000000000000000000000000000000000000000000000000000000000000000000000000000000000000000000000000000000000000000000000000000000000000000000000000000000000000000000000000000DC0000000000000000000000000000000000000000000000
310
00000000000000000000000000000000000000000000000000000000000000000000000000000000000000000000000000000000000000000000000000000000000000000000000000000000000000000000000000000000000000000000000000000000000000000000000000000000000000000000000000000000000000
310
000000000000000000000000000000000000000000000000000000000000000000000000000000000000000000000000000000000000000000000000000000000000000000000000000000000000000000000000000000000000000000000000000000000000000000DC000000000000000000000000000000000000000000
310
0000000000000000DCDCDCDCDCDCDCDCDCDCDCDCDCDCDCDCDCDCDCDCDCDCDCDCDCDCDCDCDCDCDCDCDCDCDCDCDCDCDCDCDCDCDCDCDCDCDCDCDCDCDCDCDCDCDCDCDCDCDCDCDCDCDCDCDCDCDCDCDCDCDCDCDCDCDCDCDCDCDCDCDCDCDCDCDCDCDCDCDCDCDCDCDCDCDCDCDCDCDCDCDCDCDCDCDCDCDCDCDCDCDCDCDCDCDCDCDCDCDC
310
DCDCDCDCDCDCDCDCDCDCDCDCDCDCDCDCDCDCDCDCDCDCDCDCDCDCDCDCDCDCDCDCDCDCDCDCDCDCDCDCDCDCDCDCDCDCDCDCDCDCDCDCDCDCDCDCDCDCDCDCDCDCDCDCDCDCDCDCDCDCDCDCDCDCDCDCDCDCDCDCDCDCDCDCDCDCDCDCDCDCDCDCDCDCDCDCDCDCDCDCDCDCDCDCDCDCDCDC00000000000000000000000000000000000000
310
00000000000000000000000000000000000000000000000000000000000000000000000000000000000000000000000000000000000000000000000000000000000000000000000000000000000000000000000000000000000000000000000000000000000000000000000000000000000000000000000000000000000000
310
00000000000000000000000000000000000000000000000000000000000000000000000000000000000000000000000000000000000000000000000000000000000000000000000000000000000000000000000000000000000000000000000000000000000000000000000000000000000000000000000000000000000000
310
00000000000000000000000000000000000000000000000000000000000000000000000000000000000000000000000000000000000000000000000000000000000000000000000000000000000000000000000000000000000000000000000000000000000000000000000000000000000000000000000000000000000000
310
00000000000000000000000000000000000000000000000000000000000000000000000000000000000000000000000000000000000000000000000000000000000000000000000000000000000000000000000000000000000000000000000000000000000000000000000000000000000000000000000000000000000000
310
00000000000000000000000000000000000000000000000000000000000000000000000000000000000000000000000000000000000000000000000000000000000000000000000000000000000000000000000000000000000000000000000000000000000000000000000000000000000000000000000000000000000000
310
00000000000000000000000000000000000000000000000000000000000000000000000000000000000000000000000000000000000000000000000000000000000000000000000000000000000000000000000000000000000000000000000000000000000000000000000000000000000000000000000000000000000000
310
00000000000000000000000000000000000000000000000000000000000000000000000000000000000000000000000000000000000000000000000000000000000000000000000000000000000000000000000000000000000000000000000000000000000000000000000000000000000000000000000000000000000000
310
00000000000000000000000000000000000000000000000000000000000000000000000000000000000000000000000000000000000000000000000000000000000000000000000000000000000000000000000000000000000000000000000000000000000000000000000000000000000000000000000000000000000000
310
00000000000000000000000000000000000000000000000000000000000000000000000000000000000000000000000000000000000000000000000000000000000000000000000000000000000000000000000000000000000000000000000000000000000000000000000000000000000000000000000000000000000000
310
00000000000000000000000000000000000000000000000000000000000000000000000000000000000000000000000000000000000000000000000000000000000000000000000000000000000000000000000000000000000000000000000000000000000000000000000000000000000000000000000000000000000000
310
00000000000000000000000000000000000000000000000000000000000000000000000000000000000000000000000000000000000000000000000000000000000000000000000000000000000000000000000000000000000000000000000000000000000000000000000000000000000000000000000000000000000000
310
00000000000000000000000000000000000000000000000000000000000000000000000000000000000000000000000000000000000000000000000000000000000000000000000000000000000000000000000000000000000000000000000000000000000000000000000000000000000000000000000000000000000000
310
00000000000000000000000000000000000000000000000000000000000000000000000000000000000000000000000000000000000000000000000000000000000000000000000000000000000000000000000000000000000000000000000000000000000000000000000000000000000000000000000000000000000000
310
00000000000000000000000000000000000000000000000000000000000000000000000000000000000000000000000000000000000000000000000000000000000000000000000000000000000000000000000000000000000000000000000000000000000000000000000000000000000000000000000000000000000000
310
00000000000000000000000000000000000000000000000000000000000000000000000000000000000000000000000000000000000000000000000000000000000000000000000000000000000000000000000000000000000000000000000000000000000000000000000000000000000000000000000000000000000000
310
00000000000000000000000000000000000000000000000000000000000000000000000000000000000000000000000000000000000000000000000000000000000000000000000000000000000000000000000000000000000000000000000000000000000000000000000000000000000000000000000000000000000000
310
00000000000000000000000000000000000000000000000000000000000000000000000000000000000000000000000000000000000000000000000000000000000000000000000000000000000000000000000000000000000000000000000000000000000000000000000000000000000000000000000000000000000000
310
00000000000000000000000000000000000000000000000000000000000000000000000000000000000000000000000000000000000000000000000000000000000000000000000000000000000000000000000000000000000000000000000000000000000000000000000000000000000000000000000000000000000000
310
00000000000000000000000000000000000000000000000000000000000000000000000000000000000000000000000000000000000000000000000000000000000000000000000000000000000000000000000000000000000000000000000000000000000000000000000000000000000000000000000000000000000000
310
00000000000000000000000000000000000000000000000000000000000000000000000000000000000000000000000000000000000000000000000000000000000000000000000000000000000000000000000000000000000000000000000000000000000000000000000000000000000000000000000000000000000000
310
00000000000000000000000000000000000000000000000000000000000000000000000000000000000000000000000000000000000000000000000000000000000000000000000000000000000000000000000000000000000000000000000000000000000000000000000000000000000000000000000000000000000000
310
00000000000000000000000000000000000000000000000000000000000000000000000000000000000000000000000000000000000000000000000000000000000000000000000000000000000000000000000000000000000000000000000000000000000000000000000000000000000000000000000000000000000000
310
00000000000000000000000000000000000000000000000000000000000000000000000000000000000000000000000000000000000000000000000000000000000000000000000000000000000000000000000000000000000000000000000000000000000000000000000000000000000000000000000000000000000000
310
00000000000000000000000000000000000000000000000000000000000000000000000000000000000000000000000000000000000000000000000000000000000000000000000000000000000000000000000000000000000000000000000000000000000000000000000000000000000000000000000000000000000000
310
00000000000000000000000000000000000000000000000000000000000000000000000000000000000000000000000000000000000000000000000000000000000000000000000000000000000000000000000000000000000000000000000000000000000000000000000000000000000000000000000000000000000000
310
00000000000000000000000000000000000000000000000000000000000000000000000000000000000000000000000000000000000000000000000000000000000000000000000000000000000000000000000000000000000000000000000000000000000000000000000000000000000000000000000000000000000000
310
000000000000000000000000000000000000000000000000000000000000000000000000
  0
XRECORD
  5
86D
102
{ACAD_REACTORS
330
320
102
}
330
320
100
AcDbXrecord
280
     1
102
MATERIAL
148
0.0
149
0.0
149
0.0
 93
        0
 94
      127
282
     0
 72
     0
 77
     0
171
     0
175
     0
179
     0
273
     0
  0
XRECORD
  5
322
102
{ACAD_REACTORS
330
320
102
}
330
320
100
AcDbXrecord
280
     1
270
     1
271
     1
  0
XRECORD
  5
321
102
{ACAD_REACTORS
330
320
102
}
330
320
100
AcDbXrecord
280
     1
270
     1
271
     1
  0
XRECORD
  5
325
102
{ACAD_REACTORS
330
320
102
}
330
320
100
AcDbXrecord
280
     1
270
     1
271
     1
  0
XRECORD
  5
324
102
{ACAD_REACTORS
330
320
102
}
330
320
100
AcDbXrecord
280
     1
270
     1
271
     1
  0
XRECORD
  5
326
102
{ACAD_REACTORS
330
320
102
}
330
320
100
AcDbXrecord
280
     1
270
     1
271
     1
  0
XRECORD
  5
323
102
{ACAD_REACTORS
330
320
102
}
330
320
100
AcDbXrecord
280
     1
270
     1
271
     1
  0
XRECORD
  5
86C
102
{ACAD_REACTORS
330
318
102
}
330
318
100
AcDbXrecord
280
     1
102
MATERIAL
148
0.0
149
0.0
149
0.0
 93
        0
 94
      127
282
     0
 72
     0
 77
     0
171
     0
175
     0
179
     0
273
     0
  0
XRECORD
  5
31A
102
{ACAD_REACTORS
330
318
102
}
330
318
100
AcDbXrecord
280
     1
270
     1
271
     1
  0
XRECORD
  5
319
102
{ACAD_REACTORS
330
318
102
}
330
318
100
AcDbXrecord
280
     1
270
     1
271
     1
  0
XRECORD
  5
31D
102
{ACAD_REACTORS
330
318
102
}
330
318
100
AcDbXrecord
280
     1
270
     1
271
     1
  0
XRECORD
  5
31C
102
{ACAD_REACTORS
330
318
102
}
330
318
100
AcDbXrecord
280
     1
270
     1
271
     1
  0
XRECORD
  5
31E
102
{ACAD_REACTORS
330
318
102
}
330
318
100
AcDbXrecord
280
     1
270
     1
271
     1
  0
XRECORD
  5
31B
102
{ACAD_REACTORS
330
318
102
}
330
318
100
AcDbXrecord
280
     1
270
     1
271
     1
  0
XRECORD
  5
86E
102
{ACAD_REACTORS
330
328
102
}
330
328
100
AcDbXrecord
280
     1
102
MATERIAL
148
0.0
149
0.0
149
0.0
 93
        0
 94
      127
282
     0
 72
     0
 77
     0
171
     0
175
     0
179
     0
273
     0
  0
XRECORD
  5
32A
102
{ACAD_REACTORS
330
328
102
}
330
328
100
AcDbXrecord
280
     1
270
     1
271
     1
  0
XRECORD
  5
329
102
{ACAD_REACTORS
330
328
102
}
330
328
100
AcDbXrecord
280
     1
270
     1
271
     1
  0
XRECORD
  5
32D
102
{ACAD_REACTORS
330
328
102
}
330
328
100
AcDbXrecord
280
     1
270
     1
271
     1
  0
XRECORD
  5
32C
102
{ACAD_REACTORS
330
328
102
}
330
328
100
AcDbXrecord
280
     1
270
     1
271
     1
  0
XRECORD
  5
32E
102
{ACAD_REACTORS
330
328
102
}
330
328
100
AcDbXrecord
280
     1
270
     1
271
     1
  0
XRECORD
  5
32B
102
{ACAD_REACTORS
330
328
102
}
330
328
100
AcDbXrecord
280
     1
270
     1
271
     1
  0
CELLSTYLEMAP
  5
86A
102
{ACAD_REACTORS
330
869
102
}
330
869
100
AcDbCellStyleMap
 90
        3
300
CELLSTYLE
  1
TABLEFORMAT_BEGIN
 90
        5
170
     1
 91
        0
 92
    32768
 62
   257
 93
        1
300
CONTENTFORMAT
  1
CONTENTFORMAT_BEGIN
 90
        0
 91
        0
 92
      512
 93
        0
300

 40
0.0
140
1.0
 94
        5
 62
     0
340
17
144
0.25
309
CONTENTFORMAT_END
171
     0
 94
        0
309
TABLEFORMAT_END
  1
CELLSTYLE_BEGIN
 90
        1
 91
        1
300
_TITLE
309
CELLSTYLE_END
300
CELLSTYLE
  1
TABLEFORMAT_BEGIN
 90
        5
170
     1
 91
        0
 92
        0
 62
   257
 93
        1
300
CONTENTFORMAT
  1
CONTENTFORMAT_BEGIN
 90
        0
 91
        0
 92
      512
 93
        0
300

 40
0.0
140
1.0
 94
        5
 62
     0
340
17
144
0.18
309
CONTENTFORMAT_END
171
     0
 94
        0
309
TABLEFORMAT_END
  1
CELLSTYLE_BEGIN
 90
        2
 91
        1
300
_HEADER
309
CELLSTYLE_END
300
CELLSTYLE
  1
TABLEFORMAT_BEGIN
 90
        5
170
     1
 91
        0
 92
        0
 62
   257
 93
        1
300
CONTENTFORMAT
  1
CONTENTFORMAT_BEGIN
 90
        0
 91
        0
 92
      512
 93
        0
300

 40
0.0
140
1.0
 94
        2
 62
     0
340
17
144
0.18
309
CONTENTFORMAT_END
171
     0
 94
        0
309
TABLEFORMAT_END
  1
CELLSTYLE_BEGIN
 90
        3
 91
        2
300
_DATA
309
CELLSTYLE_END
  0
XRECORD
  5
89F
102
{ACAD_REACTORS
330
869
102
}
330
869
100
AcDbXrecord
280
     1
102
ACAD_ROUNDTRIP_PRE2007_TABLESTYLE
 90
      512
 91
        0
  1

 92
      512
 93
        0
  2

 94
      512
 95
        0
  3

  0
XRECORD
  5
87A
102
{ACAD_REACTORS
330
879
102
}
330
879
100
AcDbXrecord
280
     1
102
RTVSPropertyOp0
 70
     1
102
RTVSPropertyOp1
 70
     1
102
RTVSPropertyOp2
 70
     1
102
RTVSPropertyOp3
 70
     1
102
RTVSPropertyOp4
 70
     1
102
RTVSPropertyOp5
 70
     1
102
RTVSPropertyOp6
 70
     1
102
RTVSPropertyOp7
 70
     1
102
RTVSPropertyOp8
 70
     1
102
RTVSPropertyOp9
 70
     1
102
RTVSPropertyOp10
 70
     1
102
RTVSPropertyOp11
 70
     1
102
RTVSPropertyOp12
 70
     1
102
RTVSPropertyOp13
 70
     1
102
RTVSPropertyOp14
 70
     1
102
RTVSPropertyOp15
 70
     1
102
RTVSPropertyOp16
 70
     1
102
RTVSPropertyOp17
 70
     1
102
RTVSPropertyOp18
 70
     1
102
RTVSPropertyOp19
 70
     1
102
RTVSPropertyOp20
 70
     1
102
RTVSPropertyOp21
 70
     1
102
RTVSPropertyOp22
 70
     1
102
RTVSPropertyOp23
 70
     1
102
RTVSPropertyOp24
 70
     1
102
RTVSPropertyOp25
 70
     1
102
RTVSPropertyOp26
 70
     1
102
RTVSPropertyOp27
 70
     1
102
RTVSPropertyOp28
 70
     1
102
RTVSPropertyOp29
 70
     1
102
RTVSPropertyOp30
 70
     1
102
RTVSPropertyOp31
 70
     1
102
RTVSPropertyOp32
 70
     1
  0
XRECORD
  5
878
102
{ACAD_REACTORS
330
877
102
}
330
877
100
AcDbXrecord
280
     1
102
RTVSPropertyOp0
 70
     1
102
RTVSPropertyOp1
 70
     1
102
RTVSPropertyOp2
 70
     1
102
RTVSPropertyOp3
 70
     1
102
RTVSPropertyOp4
 70
     1
102
RTVSPropertyOp5
 70
     1
102
RTVSPropertyOp6
 70
     1
102
RTVSPropertyOp7
 70
     1
102
RTVSPropertyOp8
 70
     1
102
RTVSPropertyOp9
 70
     1
102
RTVSPropertyOp10
 70
     1
102
RTVSPropertyOp11
 70
     1
102
RTVSPropertyOp12
 70
     1
102
RTVSPropertyOp13
 70
     1
102
RTVSPropertyOp14
 70
     1
102
RTVSPropertyOp15
 70
     1
102
RTVSPropertyOp16
 70
     1
102
RTVSPropertyOp17
 70
     1
102
RTVSPropertyOp18
 70
     1
102
RTVSPropertyOp19
 70
     1
102
RTVSPropertyOp20
 70
     1
102
RTVSPropertyOp21
 70
     1
102
RTVSPropertyOp22
 70
     1
102
RTVSPropertyOp23
 70
     1
102
RTVSPropertyOp24
 70
     1
102
RTVSPropertyOp25
 70
     1
102
RTVSPropertyOp26
 70
     1
102
RTVSPropertyOp27
 70
     1
102
RTVSPropertyOp28
 70
     1
102
RTVSPropertyOp29
 70
     1
102
RTVSPropertyOp30
 70
     1
102
RTVSPropertyOp31
 70
     1
102
RTVSPropertyOp32
 70
     1
  0
XRECORD
  5
886
102
{ACAD_REACTORS
330
885
102
}
330
885
100
AcDbXrecord
280
     1
102
RTVSPropertyOp0
 70
     1
102
RTVSPropertyOp1
 70
     1
102
RTVSPropertyOp2
 70
     1
102
RTVSPropertyOp3
 70
     1
102
RTVSPropertyOp4
 70
     1
102
RTVSPropertyOp5
 70
     1
102
RTVSPropertyOp6
 70
     1
102
RTVSPropertyOp7
 70
     1
102
RTVSPropertyOp8
 70
     1
102
RTVSPropertyOp9
 70
     1
102
RTVSPropertyOp10
 70
     1
102
RTVSPropertyOp11
 70
     1
102
RTVSPropertyOp12
 70
     1
102
RTVSPropertyOp13
 70
     1
102
RTVSPropertyOp14
 70
     1
102
RTVSPropertyOp15
 70
     1
102
RTVSPropertyOp16
 70
     1
102
RTVSPropertyOp17
 70
     1
102
RTVSPropertyOp18
 70
     1
102
RTVSPropertyOp19
 70
     1
102
RTVSPropertyOp20
 70
     1
102
RTVSPropertyOp21
 70
     1
102
RTVSPropertyOp22
 70
     1
102
RTVSPropertyOp23
 70
     1
102
RTVSPropertyOp24
 70
     1
102
RTVSPropertyOp25
 70
     1
102
RTVSPropertyOp26
 70
     1
102
RTVSPropertyOp27
 70
     1
102
RTVSPropertyOp28
 70
     1
102
RTVSPropertyOp29
 70
     1
102
RTVSPropertyOp30
 70
     1
102
RTVSPropertyOp31
 70
     1
102
RTVSPropertyOp32
 70
     1
  0
XRECORD
  5
88E
102
{ACAD_REACTORS
330
88D
102
}
330
88D
100
AcDbXrecord
280
     1
102
RTVSPropertyOp0
 70
     1
102
RTVSPropertyOp1
 70
     1
102
RTVSPropertyOp2
 70
     1
102
RTVSPropertyOp3
 70
     1
102
RTVSPropertyOp4
 70
     1
102
RTVSPropertyOp5
 70
     1
102
RTVSPropertyOp6
 70
     1
102
RTVSPropertyOp7
 70
     1
102
RTVSPropertyOp8
 70
     1
102
RTVSPropertyOp9
 70
     1
102
RTVSPropertyOp10
 70
     1
102
RTVSPropertyOp11
 70
     1
102
RTVSPropertyOp12
 70
     1
102
RTVSPropertyOp13
 70
     1
102
RTVSPropertyOp14
 70
     1
102
RTVSPropertyOp15
 70
     1
102
RTVSPropertyOp16
 70
     1
102
RTVSPropertyOp17
 70
     1
102
RTVSPropertyOp18
 70
     1
102
RTVSPropertyOp19
 70
     1
102
RTVSPropertyOp20
 70
     1
102
RTVSPropertyOp21
 70
     1
102
RTVSPropertyOp22
 70
     1
102
RTVSPropertyOp23
 70
     1
102
RTVSPropertyOp24
 70
     1
102
RTVSPropertyOp25
 70
     1
102
RTVSPropertyOp26
 70
     1
102
RTVSPropertyOp27
 70
     1
102
RTVSPropertyOp28
 70
     1
102
RTVSPropertyOp29
 70
     1
102
RTVSPropertyOp30
 70
     1
102
RTVSPropertyOp31
 70
     1
102
RTVSPropertyOp32
 70
     1
  0
XRECORD
  5
880
102
{ACAD_REACTORS
330
87F
102
}
330
87F
100
AcDbXrecord
280
     1
102
RTVSPropertyOp0
 70
     1
102
RTVSPropertyOp1
 70
     1
102
RTVSPropertyOp2
 70
     1
102
RTVSPropertyOp3
 70
     1
102
RTVSPropertyOp4
 70
     1
102
RTVSPropertyOp5
 70
     1
102
RTVSPropertyOp6
 70
     1
102
RTVSPropertyOp7
 70
     1
102
RTVSPropertyOp8
 70
     1
102
RTVSPropertyOp9
 70
     1
102
RTVSPropertyOp10
 70
     1
102
RTVSPropertyOp11
 70
     1
102
RTVSPropertyOp12
 70
     1
102
RTVSPropertyOp13
 70
     1
102
RTVSPropertyOp14
 70
     1
102
RTVSPropertyOp15
 70
     1
102
RTVSPropertyOp16
 70
     1
102
RTVSPropertyOp17
 70
     1
102
RTVSPropertyOp18
 70
     1
102
RTVSPropertyOp19
 70
     1
102
RTVSPropertyOp20
 70
     1
102
RTVSPropertyOp21
 70
     1
102
RTVSPropertyOp22
 70
     1
102
RTVSPropertyOp23
 70
     1
102
RTVSPropertyOp24
 70
     1
102
RTVSPropertyOp25
 70
     1
102
RTVSPropertyOp26
 70
     1
102
RTVSPropertyOp27
 70
     1
102
RTVSPropertyOp28
 70
     1
102
RTVSPropertyOp29
 70
     1
102
RTVSPropertyOp30
 70
     1
102
RTVSPropertyOp31
 70
     1
102
RTVSPropertyOp32
 70
     1
  0
XRECORD
  5
884
102
{ACAD_REACTORS
330
883
102
}
330
883
100
AcDbXrecord
280
     1
102
RTVSPropertyOp0
 70
     1
102
RTVSPropertyOp1
 70
     1
102
RTVSPropertyOp2
 70
     1
102
RTVSPropertyOp3
 70
     1
102
RTVSPropertyOp4
 70
     1
102
RTVSPropertyOp5
 70
     1
102
RTVSPropertyOp6
 70
     1
102
RTVSPropertyOp7
 70
     1
102
RTVSPropertyOp8
 70
     1
102
RTVSPropertyOp9
 70
     1
102
RTVSPropertyOp10
 70
     1
102
RTVSPropertyOp11
 70
     1
102
RTVSPropertyOp12
 70
     1
102
RTVSPropertyOp13
 70
     1
102
RTVSPropertyOp14
 70
     1
102
RTVSPropertyOp15
 70
     1
102
RTVSPropertyOp16
 70
     1
102
RTVSPropertyOp17
 70
     1
102
RTVSPropertyOp18
 70
     1
102
RTVSPropertyOp19
 70
     1
102
RTVSPropertyOp20
 70
     1
102
RTVSPropertyOp21
 70
     1
102
RTVSPropertyOp22
 70
     1
102
RTVSPropertyOp23
 70
     1
102
RTVSPropertyOp24
 70
     1
102
RTVSPropertyOp25
 70
     1
102
RTVSPropertyOp26
 70
     1
102
RTVSPropertyOp27
 70
     1
102
RTVSPropertyOp28
 70
     1
102
RTVSPropertyOp29
 70
     1
102
RTVSPropertyOp30
 70
     1
102
RTVSPropertyOp31
 70
     1
102
RTVSPropertyOp32
 70
     1
  0
XRECORD
  5
89E
102
{ACAD_REACTORS
330
89D
102
}
330
89D
100
AcDbXrecord
280
     1
102
RTVSPropertyOp0
 70
     0
102
RTVSPropertyOp1
 70
     0
102
RTVSPropertyOp2
 70
     0
102
RTVSPropertyOp3
 70
     0
102
RTVSPropertyOp4
 70
     0
102
RTVSPropertyOp5
 70
     0
102
RTVSPropertyOp6
 70
     0
102
RTVSPropertyOp7
 70
     0
102
RTVSPropertyOp8
 70
     0
102
RTVSPropertyOp9
 70
     0
102
RTVSPropertyOp10
 70
     0
102
RTVSPropertyOp11
 70
     0
102
RTVSPropertyOp12
 70
     0
102
RTVSPropertyOp13
 70
     0
102
RTVSPropertyOp14
 70
     2
102
RTVSPropertyOp15
 70
     0
102
RTVSPropertyOp16
 70
     0
102
RTVSPropertyOp17
 70
     0
102
RTVSPropertyOp18
 70
     0
102
RTVSPropertyOp19
 70
     0
102
RTVSPropertyOp20
 70
     0
102
RTVSPropertyOp21
 70
     0
102
RTVSPropertyOp22
 70
     0
102
RTVSPropertyOp23
 70
     0
102
RTVSPropertyOp24
 70
     0
102
RTVSPropertyOp25
 70
     0
102
RTVSPropertyOp26
 70
     0
102
RTVSPropertyOp27
 70
     0
102
RTVSPropertyOp28
 70
     1
102
RTVSPropertyOp29
 70
     1
102
RTVSPropertyOp30
 70
     1
102
RTVSPropertyOp31
 70
     1
102
RTVSPropertyOp32
 70
     1
  0
XRECORD
  5
88C
102
{ACAD_REACTORS
330
88B
102
}
330
88B
100
AcDbXrecord
280
     1
102
RTVSPropertyOp0
 70
     1
102
RTVSPropertyOp1
 70
     1
102
RTVSPropertyOp2
 70
     1
102
RTVSPropertyOp3
 70
     1
102
RTVSPropertyOp4
 70
     1
102
RTVSPropertyOp5
 70
     1
102
RTVSPropertyOp6
 70
     1
102
RTVSPropertyOp7
 70
     1
102
RTVSPropertyOp8
 70
     1
102
RTVSPropertyOp9
 70
     1
102
RTVSPropertyOp10
 70
     1
102
RTVSPropertyOp11
 70
     1
102
RTVSPropertyOp12
 70
     1
102
RTVSPropertyOp13
 70
     1
102
RTVSPropertyOp14
 70
     1
102
RTVSPropertyOp15
 70
     1
102
RTVSPropertyOp16
 70
     1
102
RTVSPropertyOp17
 70
     1
102
RTVSPropertyOp18
 70
     1
102
RTVSPropertyOp19
 70
     1
102
RTVSPropertyOp20
 70
     1
102
RTVSPropertyOp21
 70
     1
102
RTVSPropertyOp22
 70
     1
102
RTVSPropertyOp23
 70
     1
102
RTVSPropertyOp24
 70
     1
102
RTVSPropertyOp25
 70
     1
102
RTVSPropertyOp26
 70
     1
102
RTVSPropertyOp27
 70
     1
102
RTVSPropertyOp28
 70
     1
102
RTVSPropertyOp29
 70
     1
102
RTVSPropertyOp30
 70
     1
102
RTVSPropertyOp31
 70
     1
102
RTVSPropertyOp32
 70
     1
  0
XRECORD
  5
870
102
{ACAD_REACTORS
330
86F
102
}
330
86F
100
AcDbXrecord
280
     1
102
RTVSPropertyOp0
 70
     1
102
RTVSPropertyOp1
 70
     1
102
RTVSPropertyOp2
 70
     1
102
RTVSPropertyOp3
 70
     1
102
RTVSPropertyOp4
 70
     1
102
RTVSPropertyOp5
 70
     1
102
RTVSPropertyOp6
 70
     1
102
RTVSPropertyOp7
 70
     1
102
RTVSPropertyOp8
 70
     1
102
RTVSPropertyOp9
 70
     1
102
RTVSPropertyOp10
 70
     1
102
RTVSPropertyOp11
 70
     1
102
RTVSPropertyOp12
 70
     1
102
RTVSPropertyOp13
 70
     1
102
RTVSPropertyOp14
 70
     1
102
RTVSPropertyOp15
 70
     1
102
RTVSPropertyOp16
 70
     1
102
RTVSPropertyOp17
 70
     1
102
RTVSPropertyOp18
 70
     1
102
RTVSPropertyOp19
 70
     1
102
RTVSPropertyOp20
 70
     1
102
RTVSPropertyOp21
 70
     1
102
RTVSPropertyOp22
 70
     1
102
RTVSPropertyOp23
 70
     1
102
RTVSPropertyOp24
 70
     1
102
RTVSPropertyOp25
 70
     1
102
RTVSPropertyOp26
 70
     1
102
RTVSPropertyOp27
 70
     1
102
RTVSPropertyOp28
 70
     1
102
RTVSPropertyOp29
 70
     1
102
RTVSPropertyOp30
 70
     1
102
RTVSPropertyOp31
 70
     1
102
RTVSPropertyOp32
 70
     1
  0
XRECORD
  5
872
102
{ACAD_REACTORS
330
871
102
}
330
871
100
AcDbXrecord
280
     1
102
RTVSPropertyOp0
 70
     1
102
RTVSPropertyOp1
 70
     1
102
RTVSPropertyOp2
 70
     1
102
RTVSPropertyOp3
 70
     1
102
RTVSPropertyOp4
 70
     1
102
RTVSPropertyOp5
 70
     1
102
RTVSPropertyOp6
 70
     1
102
RTVSPropertyOp7
 70
     1
102
RTVSPropertyOp8
 70
     1
102
RTVSPropertyOp9
 70
     1
102
RTVSPropertyOp10
 70
     1
102
RTVSPropertyOp11
 70
     1
102
RTVSPropertyOp12
 70
     1
102
RTVSPropertyOp13
 70
     1
102
RTVSPropertyOp14
 70
     1
102
RTVSPropertyOp15
 70
     1
102
RTVSPropertyOp16
 70
     1
102
RTVSPropertyOp17
 70
     1
102
RTVSPropertyOp18
 70
     1
102
RTVSPropertyOp19
 70
     1
102
RTVSPropertyOp20
 70
     1
102
RTVSPropertyOp21
 70
     1
102
RTVSPropertyOp22
 70
     1
102
RTVSPropertyOp23
 70
     1
102
RTVSPropertyOp24
 70
     1
102
RTVSPropertyOp25
 70
     1
102
RTVSPropertyOp26
 70
     1
102
RTVSPropertyOp27
 70
     1
102
RTVSPropertyOp28
 70
     1
102
RTVSPropertyOp29
 70
     1
102
RTVSPropertyOp30
 70
     1
102
RTVSPropertyOp31
 70
     1
102
RTVSPropertyOp32
 70
     1
  0
XRECORD
  5
874
102
{ACAD_REACTORS
330
873
102
}
330
873
100
AcDbXrecord
280
     1
102
RTVSPropertyOp0
 70
     1
102
RTVSPropertyOp1
 70
     1
102
RTVSPropertyOp2
 70
     1
102
RTVSPropertyOp3
 70
     1
102
RTVSPropertyOp4
 70
     1
102
RTVSPropertyOp5
 70
     1
102
RTVSPropertyOp6
 70
     1
102
RTVSPropertyOp7
 70
     1
102
RTVSPropertyOp8
 70
     1
102
RTVSPropertyOp9
 70
     1
102
RTVSPropertyOp10
 70
     1
102
RTVSPropertyOp11
 70
     1
102
RTVSPropertyOp12
 70
     1
102
RTVSPropertyOp13
 70
     1
102
RTVSPropertyOp14
 70
     1
102
RTVSPropertyOp15
 70
     1
102
RTVSPropertyOp16
 70
     1
102
RTVSPropertyOp17
 70
     1
102
RTVSPropertyOp18
 70
     1
102
RTVSPropertyOp19
 70
     1
102
RTVSPropertyOp20
 70
     1
102
RTVSPropertyOp21
 70
     1
102
RTVSPropertyOp22
 70
     1
102
RTVSPropertyOp23
 70
     1
102
RTVSPropertyOp24
 70
     1
102
RTVSPropertyOp25
 70
     1
102
RTVSPropertyOp26
 70
     1
102
RTVSPropertyOp27
 70
     1
102
RTVSPropertyOp28
 70
     1
102
RTVSPropertyOp29
 70
     1
102
RTVSPropertyOp30
 70
     1
102
RTVSPropertyOp31
 70
     1
102
RTVSPropertyOp32
 70
     1
  0
XRECORD
  5
876
102
{ACAD_REACTORS
330
875
102
}
330
875
100
AcDbXrecord
280
     1
102
RTVSPropertyOp0
 70
     1
102
RTVSPropertyOp1
 70
     1
102
RTVSPropertyOp2
 70
     1
102
RTVSPropertyOp3
 70
     1
102
RTVSPropertyOp4
 70
     1
102
RTVSPropertyOp5
 70
     1
102
RTVSPropertyOp6
 70
     1
102
RTVSPropertyOp7
 70
     1
102
RTVSPropertyOp8
 70
     1
102
RTVSPropertyOp9
 70
     1
102
RTVSPropertyOp10
 70
     1
102
RTVSPropertyOp11
 70
     1
102
RTVSPropertyOp12
 70
     1
102
RTVSPropertyOp13
 70
     1
102
RTVSPropertyOp14
 70
     1
102
RTVSPropertyOp15
 70
     1
102
RTVSPropertyOp16
 70
     1
102
RTVSPropertyOp17
 70
     1
102
RTVSPropertyOp18
 70
     1
102
RTVSPropertyOp19
 70
     1
102
RTVSPropertyOp20
 70
     1
102
RTVSPropertyOp21
 70
     1
102
RTVSPropertyOp22
 70
     1
102
RTVSPropertyOp23
 70
     1
102
RTVSPropertyOp24
 70
     1
102
RTVSPropertyOp25
 70
     1
102
RTVSPropertyOp26
 70
     1
102
RTVSPropertyOp27
 70
     1
102
RTVSPropertyOp28
 70
     1
102
RTVSPropertyOp29
 70
     1
102
RTVSPropertyOp30
 70
     1
102
RTVSPropertyOp31
 70
     1
102
RTVSPropertyOp32
 70
     1
  0
XRECORD
  5
87E
102
{ACAD_REACTORS
330
87D
102
}
330
87D
100
AcDbXrecord
280
     1
102
RTVSPropertyOp0
 70
     1
102
RTVSPropertyOp1
 70
     1
102
RTVSPropertyOp2
 70
     1
102
RTVSPropertyOp3
 70
     1
102
RTVSPropertyOp4
 70
     1
102
RTVSPropertyOp5
 70
     1
102
RTVSPropertyOp6
 70
     1
102
RTVSPropertyOp7
 70
     1
102
RTVSPropertyOp8
 70
     1
102
RTVSPropertyOp9
 70
     1
102
RTVSPropertyOp10
 70
     1
102
RTVSPropertyOp11
 70
     1
102
RTVSPropertyOp12
 70
     1
102
RTVSPropertyOp13
 70
     1
102
RTVSPropertyOp14
 70
     1
102
RTVSPropertyOp15
 70
     1
102
RTVSPropertyOp16
 70
     1
102
RTVSPropertyOp17
 70
     1
102
RTVSPropertyOp18
 70
     1
102
RTVSPropertyOp19
 70
     1
102
RTVSPropertyOp20
 70
     1
102
RTVSPropertyOp21
 70
     1
102
RTVSPropertyOp22
 70
     1
102
RTVSPropertyOp23
 70
     1
102
RTVSPropertyOp24
 70
     1
102
RTVSPropertyOp25
 70
     1
102
RTVSPropertyOp26
 70
     1
102
RTVSPropertyOp27
 70
     1
102
RTVSPropertyOp28
 70
     1
102
RTVSPropertyOp29
 70
     1
102
RTVSPropertyOp30
 70
     1
102
RTVSPropertyOp31
 70
     1
102
RTVSPropertyOp32
 70
     1
  0
XRECORD
  5
89A
102
{ACAD_REACTORS
330
899
102
}
330
899
100
AcDbXrecord
280
     1
102
RTVSPropertyOp0
 70
     0
102
RTVSPropertyOp1
 70
     0
102
RTVSPropertyOp2
 70
     0
102
RTVSPropertyOp3
 70
     0
102
RTVSPropertyOp4
 70
     0
102
RTVSPropertyOp5
 70
     0
102
RTVSPropertyOp6
 70
     0
102
RTVSPropertyOp7
 70
     0
102
RTVSPropertyOp8
 70
     0
102
RTVSPropertyOp9
 70
     0
102
RTVSPropertyOp10
 70
     0
102
RTVSPropertyOp11
 70
     0
102
RTVSPropertyOp12
 70
     0
102
RTVSPropertyOp13
 70
     0
102
RTVSPropertyOp14
 70
     2
102
RTVSPropertyOp15
 70
     0
102
RTVSPropertyOp16
 70
     0
102
RTVSPropertyOp17
 70
     0
102
RTVSPropertyOp18
 70
     0
102
RTVSPropertyOp19
 70
     0
102
RTVSPropertyOp20
 70
     0
102
RTVSPropertyOp21
 70
     0
102
RTVSPropertyOp22
 70
     0
102
RTVSPropertyOp23
 70
     0
102
RTVSPropertyOp24
 70
     0
102
RTVSPropertyOp25
 70
     0
102
RTVSPropertyOp26
 70
     0
102
RTVSPropertyOp27
 70
     0
102
RTVSPropertyOp28
 70
     1
102
RTVSPropertyOp29
 70
     1
102
RTVSPropertyOp30
 70
     1
102
RTVSPropertyOp31
 70
     1
102
RTVSPropertyOp32
 70
     1
  0
XRECORD
  5
88A
102
{ACAD_REACTORS
330
889
102
}
330
889
100
AcDbXrecord
280
     1
102
RTVSPropertyOp0
 70
     1
102
RTVSPropertyOp1
 70
     1
102
RTVSPropertyOp2
 70
     1
102
RTVSPropertyOp3
 70
     1
102
RTVSPropertyOp4
 70
     1
102
RTVSPropertyOp5
 70
     1
102
RTVSPropertyOp6
 70
     1
102
RTVSPropertyOp7
 70
     1
102
RTVSPropertyOp8
 70
     1
102
RTVSPropertyOp9
 70
     1
102
RTVSPropertyOp10
 70
     1
102
RTVSPropertyOp11
 70
     1
102
RTVSPropertyOp12
 70
     1
102
RTVSPropertyOp13
 70
     1
102
RTVSPropertyOp14
 70
     1
102
RTVSPropertyOp15
 70
     1
102
RTVSPropertyOp16
 70
     1
102
RTVSPropertyOp17
 70
     1
102
RTVSPropertyOp18
 70
     1
102
RTVSPropertyOp19
 70
     1
102
RTVSPropertyOp20
 70
     1
102
RTVSPropertyOp21
 70
     1
102
RTVSPropertyOp22
 70
     1
102
RTVSPropertyOp23
 70
     1
102
RTVSPropertyOp24
 70
     1
102
RTVSPropertyOp25
 70
     1
102
RTVSPropertyOp26
 70
     1
102
RTVSPropertyOp27
 70
     1
102
RTVSPropertyOp28
 70
     1
102
RTVSPropertyOp29
 70
     1
102
RTVSPropertyOp30
 70
     1
102
RTVSPropertyOp31
 70
     1
102
RTVSPropertyOp32
 70
     1
  0
XRECORD
  5
89C
102
{ACAD_REACTORS
330
89B
102
}
330
89B
100
AcDbXrecord
280
     1
102
RTVSPropertyOp0
 70
     0
102
RTVSPropertyOp1
 70
     0
102
RTVSPropertyOp2
 70
     0
102
RTVSPropertyOp3
 70
     0
102
RTVSPropertyOp4
 70
     0
102
RTVSPropertyOp5
 70
     0
102
RTVSPropertyOp6
 70
     0
102
RTVSPropertyOp7
 70
     0
102
RTVSPropertyOp8
 70
     0
102
RTVSPropertyOp9
 70
     0
102
RTVSPropertyOp10
 70
     0
102
RTVSPropertyOp11
 70
     0
102
RTVSPropertyOp12
 70
     0
102
RTVSPropertyOp13
 70
     0
102
RTVSPropertyOp14
 70
     2
102
RTVSPropertyOp15
 70
     0
102
RTVSPropertyOp16
 70
     0
102
RTVSPropertyOp17
 70
     0
102
RTVSPropertyOp18
 70
     0
102
RTVSPropertyOp19
 70
     0
102
RTVSPropertyOp20
 70
     0
102
RTVSPropertyOp21
 70
     0
102
RTVSPropertyOp22
 70
     0
102
RTVSPropertyOp23
 70
     0
102
RTVSPropertyOp24
 70
     0
102
RTVSPropertyOp25
 70
     0
102
RTVSPropertyOp26
 70
     0
102
RTVSPropertyOp27
 70
     0
102
RTVSPropertyOp28
 70
     1
102
RTVSPropertyOp29
 70
     1
102
RTVSPropertyOp30
 70
     1
102
RTVSPropertyOp31
 70
     1
102
RTVSPropertyOp32
 70
     1
  0
XRECORD
  5
882
102
{ACAD_REACTORS
330
881
102
}
330
881
100
AcDbXrecord
280
     1
102
RTVSPropertyOp0
 70
     1
102
RTVSPropertyOp1
 70
     1
102
RTVSPropertyOp2
 70
     1
102
RTVSPropertyOp3
 70
     1
102
RTVSPropertyOp4
 70
     1
102
RTVSPropertyOp5
 70
     1
102
RTVSPropertyOp6
 70
     1
102
RTVSPropertyOp7
 70
     1
102
RTVSPropertyOp8
 70
     1
102
RTVSPropertyOp9
 70
     1
102
RTVSPropertyOp10
 70
     1
102
RTVSPropertyOp11
 70
     1
102
RTVSPropertyOp12
 70
     1
102
RTVSPropertyOp13
 70
     1
102
RTVSPropertyOp14
 70
     1
102
RTVSPropertyOp15
 70
     1
102
RTVSPropertyOp16
 70
     1
102
RTVSPropertyOp17
 70
     1
102
RTVSPropertyOp18
 70
     1
102
RTVSPropertyOp19
 70
     1
102
RTVSPropertyOp20
 70
     1
102
RTVSPropertyOp21
 70
     1
102
RTVSPropertyOp22
 70
     1
102
RTVSPropertyOp23
 70
     1
102
RTVSPropertyOp24
 70
     1
102
RTVSPropertyOp25
 70
     1
102
RTVSPropertyOp26
 70
     1
102
RTVSPropertyOp27
 70
     1
102
RTVSPropertyOp28
 70
     1
102
RTVSPropertyOp29
 70
     1
102
RTVSPropertyOp30
 70
     1
102
RTVSPropertyOp31
 70
     1
102
RTVSPropertyOp32
 70
     1
  0
XRECORD
  5
898
102
{ACAD_REACTORS
330
897
102
}
330
897
100
AcDbXrecord
280
     1
102
RTVSPropertyOp0
 70
     1
102
RTVSPropertyOp1
 70
     1
102
RTVSPropertyOp2
 70
     1
102
RTVSPropertyOp3
 70
     1
102
RTVSPropertyOp4
 70
     1
102
RTVSPropertyOp5
 70
     1
102
RTVSPropertyOp6
 70
     1
102
RTVSPropertyOp7
 70
     1
102
RTVSPropertyOp8
 70
     1
102
RTVSPropertyOp9
 70
     1
102
RTVSPropertyOp10
 70
     1
102
RTVSPropertyOp11
 70
     1
102
RTVSPropertyOp12
 70
     1
102
RTVSPropertyOp13
 70
     1
102
RTVSPropertyOp14
 70
     1
102
RTVSPropertyOp15
 70
     1
102
RTVSPropertyOp16
 70
     1
102
RTVSPropertyOp17
 70
     1
102
RTVSPropertyOp18
 70
     1
102
RTVSPropertyOp19
 70
     1
102
RTVSPropertyOp20
 70
     1
102
RTVSPropertyOp21
 70
     1
102
RTVSPropertyOp22
 70
     1
102
RTVSPropertyOp23
 70
     1
102
RTVSPropertyOp24
 70
     1
102
RTVSPropertyOp25
 70
     1
102
RTVSPropertyOp26
 70
     1
102
RTVSPropertyOp27
 70
     1
102
RTVSPropertyOp28
 70
     1
102
RTVSPropertyOp29
 70
     1
102
RTVSPropertyOp30
 70
     1
102
RTVSPropertyOp31
 70
     1
102
RTVSPropertyOp32
 70
     1
  0
XRECORD
  5
896
102
{ACAD_REACTORS
330
895
102
}
330
895
100
AcDbXrecord
280
     1
102
RTVSPropertyOp0
 70
     1
102
RTVSPropertyOp1
 70
     1
102
RTVSPropertyOp2
 70
     1
102
RTVSPropertyOp3
 70
     1
102
RTVSPropertyOp4
 70
     1
102
RTVSPropertyOp5
 70
     1
102
RTVSPropertyOp6
 70
     1
102
RTVSPropertyOp7
 70
     1
102
RTVSPropertyOp8
 70
     1
102
RTVSPropertyOp9
 70
     1
102
RTVSPropertyOp10
 70
     1
102
RTVSPropertyOp11
 70
     1
102
RTVSPropertyOp12
 70
     1
102
RTVSPropertyOp13
 70
     1
102
RTVSPropertyOp14
 70
     1
102
RTVSPropertyOp15
 70
     1
102
RTVSPropertyOp16
 70
     1
102
RTVSPropertyOp17
 70
     1
102
RTVSPropertyOp18
 70
     1
102
RTVSPropertyOp19
 70
     1
102
RTVSPropertyOp20
 70
     1
102
RTVSPropertyOp21
 70
     1
102
RTVSPropertyOp22
 70
     1
102
RTVSPropertyOp23
 70
     1
102
RTVSPropertyOp24
 70
     1
102
RTVSPropertyOp25
 70
     1
102
RTVSPropertyOp26
 70
     1
102
RTVSPropertyOp27
 70
     1
102
RTVSPropertyOp28
 70
     1
102
RTVSPropertyOp29
 70
     1
102
RTVSPropertyOp30
 70
     1
102
RTVSPropertyOp31
 70
     1
102
RTVSPropertyOp32
 70
     1
  0
XRECORD
  5
890
102
{ACAD_REACTORS
330
88F
102
}
330
88F
100
AcDbXrecord
280
     1
102
RTVSPropertyOp0
 70
     1
102
RTVSPropertyOp1
 70
     1
102
RTVSPropertyOp2
 70
     1
102
RTVSPropertyOp3
 70
     1
102
RTVSPropertyOp4
 70
     1
102
RTVSPropertyOp5
 70
     1
102
RTVSPropertyOp6
 70
     1
102
RTVSPropertyOp7
 70
     1
102
RTVSPropertyOp8
 70
     1
102
RTVSPropertyOp9
 70
     1
102
RTVSPropertyOp10
 70
     1
102
RTVSPropertyOp11
 70
     1
102
RTVSPropertyOp12
 70
     1
102
RTVSPropertyOp13
 70
     1
102
RTVSPropertyOp14
 70
     1
102
RTVSPropertyOp15
 70
     1
102
RTVSPropertyOp16
 70
     1
102
RTVSPropertyOp17
 70
     1
102
RTVSPropertyOp18
 70
     1
102
RTVSPropertyOp19
 70
     1
102
RTVSPropertyOp20
 70
     1
102
RTVSPropertyOp21
 70
     1
102
RTVSPropertyOp22
 70
     1
102
RTVSPropertyOp23
 70
     1
102
RTVSPropertyOp24
 70
     1
102
RTVSPropertyOp25
 70
     1
102
RTVSPropertyOp26
 70
     1
102
RTVSPropertyOp27
 70
     1
102
RTVSPropertyOp28
 70
     1
102
RTVSPropertyOp29
 70
     1
102
RTVSPropertyOp30
 70
     1
102
RTVSPropertyOp31
 70
     1
102
RTVSPropertyOp32
 70
     1
  0
XRECORD
  5
892
102
{ACAD_REACTORS
330
891
102
}
330
891
100
AcDbXrecord
280
     1
102
RTVSPropertyOp0
 70
     1
102
RTVSPropertyOp1
 70
     1
102
RTVSPropertyOp2
 70
     1
102
RTVSPropertyOp3
 70
     1
102
RTVSPropertyOp4
 70
     1
102
RTVSPropertyOp5
 70
     1
102
RTVSPropertyOp6
 70
     1
102
RTVSPropertyOp7
 70
     1
102
RTVSPropertyOp8
 70
     1
102
RTVSPropertyOp9
 70
     1
102
RTVSPropertyOp10
 70
     1
102
RTVSPropertyOp11
 70
     1
102
RTVSPropertyOp12
 70
     1
102
RTVSPropertyOp13
 70
     1
102
RTVSPropertyOp14
 70
     1
102
RTVSPropertyOp15
 70
     1
102
RTVSPropertyOp16
 70
     1
102
RTVSPropertyOp17
 70
     1
102
RTVSPropertyOp18
 70
     1
102
RTVSPropertyOp19
 70
     1
102
RTVSPropertyOp20
 70
     1
102
RTVSPropertyOp21
 70
     1
102
RTVSPropertyOp22
 70
     1
102
RTVSPropertyOp23
 70
     1
102
RTVSPropertyOp24
 70
     1
102
RTVSPropertyOp25
 70
     1
102
RTVSPropertyOp26
 70
     1
102
RTVSPropertyOp27
 70
     1
102
RTVSPropertyOp28
 70
     1
102
RTVSPropertyOp29
 70
     1
102
RTVSPropertyOp30
 70
     1
102
RTVSPropertyOp31
 70
     1
102
RTVSPropertyOp32
 70
     1
  0
XRECORD
  5
888
102
{ACAD_REACTORS
330
887
102
}
330
887
100
AcDbXrecord
280
     1
102
RTVSPropertyOp0
 70
     1
102
RTVSPropertyOp1
 70
     1
102
RTVSPropertyOp2
 70
     1
102
RTVSPropertyOp3
 70
     1
102
RTVSPropertyOp4
 70
     1
102
RTVSPropertyOp5
 70
     1
102
RTVSPropertyOp6
 70
     1
102
RTVSPropertyOp7
 70
     1
102
RTVSPropertyOp8
 70
     1
102
RTVSPropertyOp9
 70
     1
102
RTVSPropertyOp10
 70
     1
102
RTVSPropertyOp11
 70
     1
102
RTVSPropertyOp12
 70
     1
102
RTVSPropertyOp13
 70
     1
102
RTVSPropertyOp14
 70
     1
102
RTVSPropertyOp15
 70
     1
102
RTVSPropertyOp16
 70
     1
102
RTVSPropertyOp17
 70
     1
102
RTVSPropertyOp18
 70
     1
102
RTVSPropertyOp19
 70
     1
102
RTVSPropertyOp20
 70
     1
102
RTVSPropertyOp21
 70
     1
102
RTVSPropertyOp22
 70
     1
102
RTVSPropertyOp23
 70
     1
102
RTVSPropertyOp24
 70
     1
102
RTVSPropertyOp25
 70
     1
102
RTVSPropertyOp26
 70
     1
102
RTVSPropertyOp27
 70
     1
102
RTVSPropertyOp28
 70
     1
102
RTVSPropertyOp29
 70
     1
102
RTVSPropertyOp30
 70
     1
102
RTVSPropertyOp31
 70
     1
102
RTVSPropertyOp32
 70
     1
  0
XRECORD
  5
87C
102
{ACAD_REACTORS
330
87B
102
}
330
87B
100
AcDbXrecord
280
     1
102
RTVSPropertyOp0
 70
     1
102
RTVSPropertyOp1
 70
     1
102
RTVSPropertyOp2
 70
     1
102
RTVSPropertyOp3
 70
     1
102
RTVSPropertyOp4
 70
     1
102
RTVSPropertyOp5
 70
     1
102
RTVSPropertyOp6
 70
     1
102
RTVSPropertyOp7
 70
     1
102
RTVSPropertyOp8
 70
     1
102
RTVSPropertyOp9
 70
     1
102
RTVSPropertyOp10
 70
     1
102
RTVSPropertyOp11
 70
     1
102
RTVSPropertyOp12
 70
     1
102
RTVSPropertyOp13
 70
     1
102
RTVSPropertyOp14
 70
     1
102
RTVSPropertyOp15
 70
     1
102
RTVSPropertyOp16
 70
     1
102
RTVSPropertyOp17
 70
     1
102
RTVSPropertyOp18
 70
     1
102
RTVSPropertyOp19
 70
     1
102
RTVSPropertyOp20
 70
     1
102
RTVSPropertyOp21
 70
     1
102
RTVSPropertyOp22
 70
     1
102
RTVSPropertyOp23
 70
     1
102
RTVSPropertyOp24
 70
     1
102
RTVSPropertyOp25
 70
     1
102
RTVSPropertyOp26
 70
     1
102
RTVSPropertyOp27
 70
     1
102
RTVSPropertyOp28
 70
     1
102
RTVSPropertyOp29
 70
     1
102
RTVSPropertyOp30
 70
     1
102
RTVSPropertyOp31
 70
     1
102
RTVSPropertyOp32
 70
     1
  0
XRECORD
  5
894
102
{ACAD_REACTORS
330
893
102
}
330
893
100
AcDbXrecord
280
     1
102
RTVSPropertyOp0
 70
     1
102
RTVSPropertyOp1
 70
     1
102
RTVSPropertyOp2
 70
     1
102
RTVSPropertyOp3
 70
     1
102
RTVSPropertyOp4
 70
     1
102
RTVSPropertyOp5
 70
     1
102
RTVSPropertyOp6
 70
     1
102
RTVSPropertyOp7
 70
     1
102
RTVSPropertyOp8
 70
     1
102
RTVSPropertyOp9
 70
     1
102
RTVSPropertyOp10
 70
     1
102
RTVSPropertyOp11
 70
     1
102
RTVSPropertyOp12
 70
     1
102
RTVSPropertyOp13
 70
     1
102
RTVSPropertyOp14
 70
     1
102
RTVSPropertyOp15
 70
     1
102
RTVSPropertyOp16
 70
     1
102
RTVSPropertyOp17
 70
     1
102
RTVSPropertyOp18
 70
     1
102
RTVSPropertyOp19
 70
     1
102
RTVSPropertyOp20
 70
     1
102
RTVSPropertyOp21
 70
     1
102
RTVSPropertyOp22
 70
     1
102
RTVSPropertyOp23
 70
     1
102
RTVSPropertyOp24
 70
     1
102
RTVSPropertyOp25
 70
     1
102
RTVSPropertyOp26
 70
     1
102
RTVSPropertyOp27
 70
     1
102
RTVSPropertyOp28
 70
     1
102
RTVSPropertyOp29
 70
     1
102
RTVSPropertyOp30
 70
     1
102
RTVSPropertyOp31
 70
     1
102
RTVSPropertyOp32
 70
     1
  0
ENDSEC
  0
EOF
