  0
SECTION
  2
HEADER
  9
$ACADVER
  1
AC1015
  9
$ACADMAINTVER
 70
    20
  9
$DWGCODEPAGE
  3
ANSI_932
  9
$INSBASE
 10
0.0
 20
0.0
 30
0.0
  9
$EXTMIN
 10
-76.01415159992241
 20
-36.12183823927509
 30
0.0
  9
$EXTMAX
 10
446.4858484000775
 20
205.0
 30
0.0
  9
$LIMMIN
 10
0.0
 20
0.0
  9
$LIMMAX
 10
297.0
 20
210.0
  9
$ORTHOMODE
 70
     0
  9
$REGENMODE
 70
     1
  9
$FILLMODE
 70
     1
  9
$QTEXTMODE
 70
     0
  9
$MIRRTEXT
 70
     1
  9
$LTSCALE
 40
1.0
  9
$ATTMODE
 70
     1
  9
$TEXTSIZE
 40
0.2
  9
$TRACEWID
 40
0.05
  9
$TEXTSTYLE
  7
STANDARD
  9
$CLAYER
  8
LAY-1
  9
$CELTYPE
  6
CONTINUOUS
  9
$CECOLOR
 62
   256
  9
$CELTSCALE
 40
1.0
  9
$DISPSILH
 70
     0
  9
$DIMSCALE
 40
1.0
  9
$DIMASZ
 40
2.0
  9
$DIMEXO
 40
0.8
  9
$DIMDLI
 40
0.1
  9
$DIMRND
 40
0.0
  9
$DIMDLE
 40
0.0
  9
$DIMEXE
 40
0.5
  9
$DIMTP
 40
0.0
  9
$DIMTM
 40
0.0
  9
$DIMTXT
 40
3.0
  9
$DIMCEN
 40
0.0
  9
$DIMTSZ
 40
0.0
  9
$DIMTOL
 70
     0
  9
$DIMLIM
 70
     0
  9
$DIMTIH
 70
     0
  9
$DIMTOH
 70
     0
  9
$DIMSE1
 70
     0
  9
$DIMSE2
 70
     0
  9
$DIMTAD
 70
     1
  9
$DIMZIN
 70
     8
  9
$DIMBLK
  1
OPEN30
  9
$DIMASO
 70
     1
  9
$DIMSHO
 70
     1
  9
$DIMPOST
  1

  9
$DIMAPOST
  1

  9
$DIMALT
 70
     0
  9
$DIMALTD
 70
     2
  9
$DIMALTF
 40
25.4
  9
$DIMLFAC
 40
1.0
  9
$DIMTOFL
 70
     1
  9
$DIMTVP
 40
0.0
  9
$DIMTIX
 70
     0
  9
$DIMSOXD
 70
     0
  9
$DIMSAH
 70
     0
  9
$DIMBLK1
  1

  9
$DIMBLK2
  1

  9
$DIMSTYLE
  2
DIM-F1
  9
$DIMCLRD
 70
     1
  9
$DIMCLRE
 70
     1
  9
$DIMCLRT
 70
     7
  9
$DIMTFAC
 40
1.0
  9
$DIMGAP
 40
0.3
  9
$DIMJUST
 70
     0
  9
$DIMSD1
 70
     0
  9
$DIMSD2
 70
     0
  9
$DIMTOLJ
 70
     1
  9
$DIMTZIN
 70
     0
  9
$DIMALTZ
 70
     0
  9
$DIMALTTZ
 70
     0
  9
$DIMUPT
 70
     0
  9
$DIMDEC
 70
     2
  9
$DIMTDEC
 70
     2
  9
$DIMALTU
 70
     2
  9
$DIMALTTD
 70
     2
  9
$DIMTXSTY
  7
MSゴシック
  9
$DIMAUNIT
 70
     0
  9
$DIMADEC
 70
     0
  9
$DIMALTRND
 40
0.0
  9
$DIMAZIN
 70
     0
  9
$DIMDSEP
 70
    46
  9
$DIMATFIT
 70
     3
  9
$DIMFRAC
 70
     0
  9
$DIMLDRBLK
  1
OPEN30
  9
$DIMLUNIT
 70
     2
  9
$DIMLWD
 70
    -2
  9
$DIMLWE
 70
    -2
  9
$DIMTMOVE
 70
     2
  9
$LUNITS
 70
     2
  9
$LUPREC
 70
     4
  9
$SKETCHINC
 40
0.1
  9
$FILLETRAD
 40
0.0
  9
$AUNITS
 70
     0
  9
$AUPREC
 70
     0
  9
$MENU
  1
acad
  9
$ELEVATION
 40
0.0
  9
$PELEVATION
 40
0.0
  9
$THICKNESS
 40
0.0
  9
$LIMCHECK
 70
     0
  9
$CHAMFERA
 40
0.0
  9
$CHAMFERB
 40
0.0
  9
$CHAMFERC
 40
0.0
  9
$CHAMFERD
 40
0.0
  9
$SKPOLY
 70
     0
  9
$TDCREATE
 40
2453483.984035648
  9
$TDUCREATE
 40
2453483.609035648
  9
$TDUPDATE
 40
2458989.729331933
  9
$TDUUPDATE
 40
2458989.354331933
  9
$TDINDWG
 40
0.2059664120
  9
$TDUSRTIMER
 40
0.2059664120
  9
$USRTIMER
 70
     1
  9
$ANGBASE
 50
0.0
  9
$ANGDIR
 70
     0
  9
$PDMODE
 70
     0
  9
$PDSIZE
 40
0.0
  9
$PLINEWID
 40
0.0
  9
$SPLFRAME
 70
     0
  9
$SPLINETYPE
 70
     6
  9
$SPLINESEGS
 70
     8
  9
$HANDSEED
  5
33A1
  9
$SURFTAB1
 70
     6
  9
$SURFTAB2
 70
     6
  9
$SURFTYPE
 70
     6
  9
$SURFU
 70
     6
  9
$SURFV
 70
     6
  9
$UCSBASE
  2

  9
$UCSNAME
  2

  9
$UCSORG
 10
0.0
 20
0.0
 30
0.0
  9
$UCSXDIR
 10
1.0
 20
0.0
 30
0.0
  9
$UCSYDIR
 10
0.0
 20
1.0
 30
0.0
  9
$UCSORTHOREF
  2

  9
$UCSORTHOVIEW
 70
     0
  9
$UCSORGTOP
 10
0.0
 20
0.0
 30
0.0
  9
$UCSORGBOTTOM
 10
0.0
 20
0.0
 30
0.0
  9
$UCSORGLEFT
 10
0.0
 20
0.0
 30
0.0
  9
$UCSORGRIGHT
 10
0.0
 20
0.0
 30
0.0
  9
$UCSORGFRONT
 10
0.0
 20
0.0
 30
0.0
  9
$UCSORGBACK
 10
0.0
 20
0.0
 30
0.0
  9
$PUCSBASE
  2

  9
$PUCSNAME
  2

  9
$PUCSORG
 10
0.0
 20
0.0
 30
0.0
  9
$PUCSXDIR
 10
1.0
 20
0.0
 30
0.0
  9
$PUCSYDIR
 10
0.0
 20
1.0
 30
0.0
  9
$PUCSORTHOREF
  2

  9
$PUCSORTHOVIEW
 70
     0
  9
$PUCSORGTOP
 10
0.0
 20
0.0
 30
0.0
  9
$PUCSORGBOTTOM
 10
0.0
 20
0.0
 30
0.0
  9
$PUCSORGLEFT
 10
0.0
 20
0.0
 30
0.0
  9
$PUCSORGRIGHT
 10
0.0
 20
0.0
 30
0.0
  9
$PUCSORGFRONT
 10
0.0
 20
0.0
 30
0.0
  9
$PUCSORGBACK
 10
0.0
 20
0.0
 30
0.0
  9
$USERI1
 70
     0
  9
$USERI2
 70
     0
  9
$USERI3
 70
     0
  9
$USERI4
 70
     0
  9
$USERI5
 70
     0
  9
$USERR1
 40
0.0
  9
$USERR2
 40
0.0
  9
$USERR3
 40
0.0
  9
$USERR4
 40
0.0
  9
$USERR5
 40
0.0
  9
$WORLDVIEW
 70
     1
  9
$SHADEDGE
 70
     3
  9
$SHADEDIF
 70
    70
  9
$TILEMODE
 70
     1
  9
$MAXACTVP
 70
    16
  9
$PINSBASE
 10
0.0
 20
0.0
 30
0.0
  9
$PLIMCHECK
 70
     0
  9
$PEXTMIN
 10
1.000000000000000E+20
 20
1.000000000000000E+20
 30
1.000000000000000E+20
  9
$PEXTMAX
 10
-1.000000000000000E+20
 20
-1.000000000000000E+20
 30
-1.000000000000000E+20
  9
$PLIMMIN
 10
0.0
 20
0.0
  9
$PLIMMAX
 10
12.0
 20
9.0
  9
$UNITMODE
 70
     0
  9
$VISRETAIN
 70
     0
  9
$PLINEGEN
 70
     1
  9
$PSLTSCALE
 70
     0
  9
$TREEDEPTH
 70
  3020
  9
$CMLSTYLE
  2
STANDARD
  9
$CMLJUST
 70
     0
  9
$CMLSCALE
 40
1.0
  9
$PROXYGRAPHICS
 70
     0
  9
$MEASUREMENT
 70
     0
  9
$CELWEIGHT
370
    -1
  9
$ENDCAPS
280
     0
  9
$JOINSTYLE
280
     0
  9
$LWDISPLAY
290
     0
  9
$INSUNITS
 70
     0
  9
$HYPERLINKBASE
  1

  9
$STYLESHEET
  1
免震.CTB
  9
$XEDIT
290
     1
  9
$CEPSNTYPE
380
     0
  9
$PSTYLEMODE
290
     1
  9
$FINGERPRINTGUID
  2
{CF3A2432-C442-4D8B-8A23-7D7250BC0709}
  9
$VERSIONGUID
  2
{D8E64D68-1FFD-4D84-AEA0-CD78675DE6F6}
  9
$EXTNAMES
290
     1
  9
$PSVPSCALE
 40
0.0
  9
$OLESTARTUP
290
     0
  0
ENDSEC
  0
SECTION
  2
CLASSES
  0
CLASS
  1
IMAGE
  2
AcDbRasterImage
  3
ISM
 90
    32895
280
     0
281
     1
  0
CLASS
  1
DICTIONARYVAR
  2
AcDbDictionaryVar
  3
ObjectDBX Classes
 90
        0
280
     0
281
     0
  0
CLASS
  1
RASTERVARIABLES
  2
AcDbRasterVariables
  3
ISM
 90
    32768
280
     0
281
     0
  0
CLASS
  1
IMAGEDEF
  2
AcDbRasterImageDef
  3
ISM
 90
    32768
280
     0
281
     0
  0
CLASS
  1
IMAGEDEF_REACTOR
  2
AcDbRasterImageDefReactor
  3
ISM
 90
    32769
280
     0
281
     0
  0
CLASS
  1
IDBUFFER
  2
AcDbIdBuffer
  3
ObjectDBX Classes
 90
    32768
280
     0
281
     0
  0
CLASS
  1
SPATIAL_FILTER
  2
AcDbSpatialFilter
  3
ObjectDBX Classes
 90
    32768
280
     0
281
     0
  0
CLASS
  1
SORTENTSTABLE
  2
AcDbSortentsTable
  3
ObjectDBX Classes
 90
        0
280
     0
281
     0
  0
CLASS
  1
LAYER_INDEX
  2
AcDbLayerIndex
  3
ObjectDBX Classes
 90
    32768
280
     0
281
     0
  0
CLASS
  1
SPATIAL_INDEX
  2
AcDbSpatialIndex
  3
ObjectDBX Classes
 90
    32768
280
     0
281
     0
  0
CLASS
  1
OBJECT_PTR
  2
CAseDLPNTableRecord
  3
"ASE-LPNTableRecord"
 90
    32769
280
     0
281
     0
  0
CLASS
  1
LAYOUT
  2
AcDbLayout
  3
ObjectDBX Classes
 90
        0
280
     0
281
     0
  0
CLASS
  1
PLOTSETTINGS
  2
AcDbPlotSettings
  3
ObjectDBX Classes
 90
    32768
280
     0
281
     0
  0
CLASS
  1
ACDBDICTIONARYWDFLT
  2
AcDbDictionaryWithDefault
  3
ObjectDBX Classes
 90
        0
280
     0
281
     0
  0
CLASS
  1
ACDBPLACEHOLDER
  2
AcDbPlaceHolder
  3
ObjectDBX Classes
 90
        0
280
     0
281
     0
  0
CLASS
  1
VBA_PROJECT
  2
AcDbVbaProject
  3
acad
 90
    32768
280
     0
281
     0
  0
CLASS
  1
WIPEOUT
  2
AcDbWipeout
  3
"WipeOut|Product Desc: Object Enabler for WipeOut entity^I^I^I^I^I^I|Company: Autodesk, Inc.^I^I^I^I^I^I|WEB Address: www.autodesk.com"
 90
    32895
280
     0
281
     1
  0
CLASS
  1
WIPEOUTVARIABLES
  2
AcDbWipeoutVariables
  3
"WipeOut|Product Desc:     WipeOut Dbx Application|Company:          Autodesk, Inc.|WEB Address:      www.autodesk.com"
 90
    32768
280
     0
281
     0
  0
CLASS
  1
RTEXT
  2
RText
  3
RText|AutoCAD Express Tool|expresstools@autodesk.com
 90
    32768
280
     0
281
     1
  0
CLASS
  1
ARCALIGNEDTEXT
  2
AcDbArcAlignedText
  3
ATEXT|AutoCAD Express Tool|expresstools@autodesk.com
 90
    32768
280
     0
281
     1
  0
CLASS
  1
TABLESTYLE
  2
AcDbTableStyle
  3
ObjectDBX Classes
 90
     4095
280
     0
281
     0
  0
CLASS
  1
MATERIAL
  2
AcDbMaterial
  3
ObjectDBX Classes
 90
     1153
280
     0
281
     0
  0
CLASS
  1
VISUALSTYLE
  2
AcDbVisualStyle
  3
ObjectDBX Classes
 90
     4095
280
     0
281
     0
  0
CLASS
  1
SCALE
  2
AcDbScale
  3
ObjectDBX Classes
 90
     1153
280
     0
281
     0
  0
CLASS
  1
MLEADERSTYLE
  2
AcDbMLeaderStyle
  3
ACDB_MLEADERSTYLE_CLASS
 90
     4095
280
     0
281
     0
  0
CLASS
  1
CELLSTYLEMAP
  2
AcDbCellStyleMap
  3
ObjectDBX Classes
 90
     1152
280
     0
281
     0
  0
ENDSEC
  0
SECTION
  2
TABLES
  0
TABLE
  2
VPORT
  5
7
330
0
100
AcDbSymbolTable
 70
     1
  0
VPORT
  5
3315
330
7
100
AcDbSymbolTableRecord
100
AcDbViewportTableRecord
  2
*Active
 70
     0
 10
0.0
 20
0.0
 11
1.0
 21
1.0
 12
241.8477774278082
 22
85.69432785100753
 13
0.0
 23
0.0
 14
1.0
 24
1.0
 15
0.0
 25
0.0
 16
0.0
 26
0.0
 36
1.0
 17
0.0
 27
0.0
 37
0.0
 40
379.2541379313614
 41
2.09061135371179
 42
50.0
 43
0.0
 44
0.0
 50
0.0
 51
0.0
 71
     0
 72
   100
 73
     1
 74
     1
 75
     0
 76
     0
 77
     0
 78
     0
281
     0
 65
     1
110
0.0
120
0.0
130
0.0
111
1.0
121
0.0
131
0.0
112
0.0
122
1.0
132
0.0
 79
     0
146
0.0
1001
ACAD_NAV_VCDISPLAY
1070
     3
  0
ENDTAB
  0
TABLE
  2
LTYPE
  5
4
330
0
100
AcDbSymbolTable
 70
     1
  0
LTYPE
  5
11
330
4
100
AcDbSymbolTableRecord
100
AcDbLinetypeTableRecord
  2
BYBLOCK
 70
     0
  3

 72
    65
 73
     0
 40
0.0
  0
LTYPE
  5
12
330
4
100
AcDbSymbolTableRecord
100
AcDbLinetypeTableRecord
  2
BYLAYER
 70
     0
  3

 72
    65
 73
     0
 40
0.0
  0
LTYPE
  5
13
330
4
100
AcDbSymbolTableRecord
100
AcDbLinetypeTableRecord
  2
CONTINUOUS
 70
     0
  3
実線
 72
    65
 73
     0
 40
0.0
  0
ENDTAB
  0
TABLE
  2
LAYER
  5
2
102
{ACAD_XDICTIONARY
360
4AD
102
}
330
0
100
AcDbSymbolTable
 70
     4
  0
LAYER
  5
14
330
2
100
AcDbSymbolTableRecord
100
AcDbLayerTableRecord
  2
0
 70
     0
 62
     7
  6
CONTINUOUS
370
    -3
390
41B
  0
LAYER
  5
25
330
2
100
AcDbSymbolTableRecord
100
AcDbLayerTableRecord
  2
LAY-1
 70
     0
 62
     7
  6
CONTINUOUS
370
    -3
390
41B
  0
LAYER
  5
27
330
2
100
AcDbSymbolTableRecord
100
AcDbLayerTableRecord
  2
LAY-3
 70
     0
 62
     7
  6
CONTINUOUS
370
    -3
390
41B
  0
LAYER
  5
48A
330
2
100
AcDbSymbolTableRecord
100
AcDbLayerTableRecord
  2
DEFPOINTS
 70
     0
 62
     7
  6
CONTINUOUS
290
     0
370
    -3
390
41B
  0
ENDTAB
  0
TABLE
  2
STYLE
  5
3
330
0
100
AcDbSymbolTable
 70
     4
  0
STYLE
  5
17
330
3
100
AcDbSymbolTableRecord
100
AcDbTextStyleTableRecord
  2
STANDARD
 70
     0
 40
0.0
 41
1.0
 50
0.0
 71
     0
 42
0.2
  3
monotxt
  4
extfont
  0
STYLE
  5
23
330
3
100
AcDbSymbolTableRecord
100
AcDbTextStyleTableRecord
  2
EXCADSTD
 70
     0
 40
0.0
 41
1.0
 50
0.0
 71
     0
 42
0.2
  3
monotxt
  4
extfont
  0
STYLE
  5
413
330
3
100
AcDbSymbolTableRecord
100
AcDbTextStyleTableRecord
  2
EXCADTTF1
 70
     0
 40
0.0
 41
1.0
 50
0.0
 71
     0
 42
0.2
  3
MS Gothic.ttf
  4

1001
ACAD
1000
MS Gothic
1071
    32817
  0
STYLE
  5
4A2
330
3
100
AcDbSymbolTableRecord
100
AcDbTextStyleTableRecord
  2
MSゴシック
 70
     0
 40
0.0
 41
1.0
 50
0.0
 71
     0
 42
0.2
  3
MS Gothic.ttf
  4

1001
ACAD
1000
MS Gothic
1071
    32817
  0
ENDTAB
  0
TABLE
  2
VIEW
  5
5
330
0
100
AcDbSymbolTable
 70
     0
  0
ENDTAB
  0
TABLE
  2
UCS
  5
6
330
0
100
AcDbSymbolTable
 70
     0
  0
ENDTAB
  0
TABLE
  2
APPID
  5
8
330
0
100
AcDbSymbolTable
 70
    12
  0
APPID
  5
16
330
8
100
AcDbSymbolTableRecord
100
AcDbRegAppTableRecord
  2
ACAD
 70
     0
  0
APPID
  5
4A7
330
8
100
AcDbSymbolTableRecord
100
AcDbRegAppTableRecord
  2
ACAD_DSTYLE_DIMEXT_LENGTH
 70
     0
  0
APPID
  5
4A8
330
8
100
AcDbSymbolTableRecord
100
AcDbRegAppTableRecord
  2
ACAD_DSTYLE_DIMJOGGED_JOGANGLE_SYMBOL
 70
     0
  0
APPID
  5
4A9
330
8
100
AcDbSymbolTableRecord
100
AcDbRegAppTableRecord
  2
ACAD_PSEXT
 70
     0
  0
APPID
  5
1378
330
8
100
AcDbSymbolTableRecord
100
AcDbRegAppTableRecord
  2
ACAD_DSTYLE_DIMTEXT_FILL
 70
     0
  0
APPID
  5
137A
330
8
100
AcDbSymbolTableRecord
100
AcDbRegAppTableRecord
  2
ACAD_DSTYLE_DIMEXT_ENABLED
 70
     0
  0
APPID
  5
137B
330
8
100
AcDbSymbolTableRecord
100
AcDbRegAppTableRecord
  2
ACAD_DSTYLE_DIM_LINETYPE
 70
     0
  0
APPID
  5
137C
330
8
100
AcDbSymbolTableRecord
100
AcDbRegAppTableRecord
  2
ACAD_DSTYLE_DIM_EXT1_LINETYPE
 70
     0
  0
APPID
  5
137D
330
8
100
AcDbSymbolTableRecord
100
AcDbRegAppTableRecord
  2
ACAD_DSTYLE_DIM_EXT2_LINETYPE
 70
     0
  0
APPID
  5
1582
330
8
100
AcDbSymbolTableRecord
100
AcDbRegAppTableRecord
  2
ACAD_EXEMPT_FROM_CAD_STANDARDS
 70
     0
  0
APPID
  5
3364
330
8
100
AcDbSymbolTableRecord
100
AcDbRegAppTableRecord
  2
ACAD_NAV_VCDISPLAY
 70
     0
  0
APPID
  5
33A0
330
8
100
AcDbSymbolTableRecord
100
AcDbRegAppTableRecord
  2
ACAD_MLEADERVER
 70
     0
  0
ENDTAB
  0
TABLE
  2
DIMSTYLE
  5
9
330
0
100
AcDbSymbolTable
 70
     2
100
AcDbDimStyleTable
 71
     2
340
4A6
340
18
  0
DIMSTYLE
105
18
330
9
100
AcDbSymbolTableRecord
100
AcDbDimStyleTableRecord
  2
STANDARD
 70
     0
340
17
  0
DIMSTYLE
105
4A6
330
9
100
AcDbSymbolTableRecord
100
AcDbDimStyleTableRecord
  2
DIM-F1
 70
     0
 41
2.0
 42
0.8
 43
0.1
 44
0.5
 73
     0
 74
     0
 77
     1
 78
     8
140
3.0
141
0.0
147
0.3
172
     1
176
     1
177
     1
178
     7
271
     2
272
     2
279
     2
340
4A2
341
427
342
427
  0
ENDTAB
  0
TABLE
  2
BLOCK_RECORD
  5
1
330
0
100
AcDbSymbolTable
 70
     1
  0
BLOCK_RECORD
  5
A
102
{ACAD_XDICTIONARY
360
D48
102
}
330
1
100
AcDbSymbolTableRecord
100
AcDbBlockTableRecord
  2
*MODEL_SPACE
340
422
  0
BLOCK_RECORD
  5
B
330
1
100
AcDbSymbolTableRecord
100
AcDbBlockTableRecord
  2
*PAPER_SPACE
340
423
  0
BLOCK_RECORD
  5
427
330
1
100
AcDbSymbolTableRecord
100
AcDbBlockTableRecord
  2
_OPEN30
340
0
  0
ENDTAB
  0
ENDSEC
  0
SECTION
  2
BLOCKS
  0
BLOCK
  5
D
330
A
100
AcDbEntity
  8
0
100
AcDbBlockBegin
  2
*MODEL_SPACE
 70
     0
 10
0.0
 20
0.0
 30
0.0
  3
*MODEL_SPACE
  1

  0
ENDBLK
  5
E
330
A
100
AcDbEntity
  8
0
100
AcDbBlockEnd
  0
BLOCK
  5
F
330
B
100
AcDbEntity
 67
     1
  8
0
100
AcDbBlockBegin
  2
*PAPER_SPACE
 70
     0
 10
0.0
 20
0.0
 30
0.0
  3
*PAPER_SPACE
  1

  0
ENDBLK
  5
10
330
B
100
AcDbEntity
 67
     1
  8
0
100
AcDbBlockEnd
  0
BLOCK
  5
428
330
427
100
AcDbEntity
  8
0
100
AcDbBlockBegin
  2
_OPEN30
 70
     0
 10
0.0
 20
0.0
 30
0.0
  3
_OPEN30
  1

  0
LINE
  5
429
330
427
100
AcDbEntity
  8
0
  6
ByBlock
 62
     0
100
AcDbLine
 10
-1.0
 20
0.26794919
 30
0.0
 11
0.0
 21
0.0
 31
0.0
  0
LINE
  5
42A
330
427
100
AcDbEntity
  8
0
  6
ByBlock
 62
     0
100
AcDbLine
 10
0.0
 20
0.0
 30
0.0
 11
-1.0
 21
-0.26794919
 31
0.0
  0
LINE
  5
42B
330
427
100
AcDbEntity
  8
0
  6
ByBlock
 62
     0
100
AcDbLine
 10
0.0
 20
0.0
 30
0.0
 11
-1.0
 21
0.0
 31
0.0
  0
ENDBLK
  5
42C
330
427
100
AcDbEntity
  8
0
100
AcDbBlockEnd
  0
ENDSEC
  0
SECTION
  2
ENTITIES
  0
LINE
  5
84
330
A
100
AcDbEntity
  8
LAY-3
  6
Continuous
100
AcDbLine
 10
92.37370799999998
 20
191.75
 30
0.0
 11
93.82629200000002
 21
191.75
 31
0.0
  0
LINE
  5
85
330
A
100
AcDbEntity
  8
LAY-3
  6
Continuous
100
AcDbLine
 10
91.34216
 20
191.5
 30
0.0
 11
94.85784
 21
191.5
 31
0.0
  0
LINE
  5
86
330
A
100
AcDbEntity
  8
LAY-3
  6
Continuous
100
AcDbLine
 10
90.74893600000001
 20
191.25
 30
0.0
 11
95.45106399999999
 21
191.25
 31
0.0
  0
LINE
  5
87
330
A
100
AcDbEntity
  8
LAY-3
  6
Continuous
100
AcDbLine
 10
90.29999999999999
 20
191.0
 30
0.0
 11
95.90000000000001
 21
191.0
 31
0.0
  0
LINE
  5
88
330
A
100
AcDbEntity
  8
LAY-3
  6
Continuous
100
AcDbLine
 10
89.93337700000003
 20
190.75
 30
0.0
 11
96.26662299999999
 21
190.75
 31
0.0
  0
LINE
  5
89
330
A
100
AcDbEntity
  8
LAY-3
  6
Continuous
100
AcDbLine
 10
89.62293199999997
 20
190.5
 30
0.0
 11
96.57706799999999
 21
190.5
 31
0.0
  0
LINE
  5
8A
330
A
100
AcDbEntity
  8
LAY-3
  6
Continuous
100
AcDbLine
 10
80.6
 20
190.25
 30
0.0
 11
88.65575699999999
 21
190.25
 31
0.0
  0
LINE
  5
8B
330
A
100
AcDbEntity
  8
LAY-3
  6
Continuous
100
AcDbLine
 10
89.35467
 20
190.25
 30
0.0
 11
96.84533000000001
 21
190.25
 31
0.0
  0
LINE
  5
8C
330
A
100
AcDbEntity
  8
LAY-3
  6
Continuous
100
AcDbLine
 10
97.544243
 20
190.25
 30
0.0
 11
103.6
 21
190.25
 31
0.0
  0
LINE
  5
8D
330
A
100
AcDbEntity
  8
LAY-3
  6
Continuous
100
AcDbLine
 10
104.45
 20
190.25
 30
0.0
 11
111.15
 21
190.25
 31
0.0
  0
LINE
  5
8E
330
A
100
AcDbEntity
  8
LAY-3
  6
Continuous
100
AcDbLine
 10
111.9
 20
190.25
 30
0.0
 11
113.6
 21
190.25
 31
0.0
  0
LINE
  5
8F
330
A
100
AcDbEntity
  8
LAY-3
  6
Continuous
100
AcDbLine
 10
117.1
 20
190.25
 30
0.0
 11
118.8
 21
190.25
 31
0.0
  0
LINE
  5
90
330
A
100
AcDbEntity
  8
LAY-3
  6
Continuous
100
AcDbLine
 10
80.6
 20
190.0
 30
0.0
 11
88.456316
 21
190.0
 31
0.0
  0
LINE
  5
91
330
A
100
AcDbEntity
  8
LAY-3
  6
Continuous
100
AcDbLine
 10
89.12005
 20
190.0
 30
0.0
 11
97.07995
 21
190.0
 31
0.0
  0
LINE
  5
92
330
A
100
AcDbEntity
  8
LAY-3
  6
Continuous
100
AcDbLine
 10
97.743684
 20
190.0
 30
0.0
 11
103.6
 21
190.0
 31
0.0
  0
LINE
  5
93
330
A
100
AcDbEntity
  8
LAY-3
  6
Continuous
100
AcDbLine
 10
104.45
 20
190.0
 30
0.0
 11
111.15
 21
190.0
 31
0.0
  0
LINE
  5
94
330
A
100
AcDbEntity
  8
LAY-3
  6
Continuous
100
AcDbLine
 10
111.9
 20
190.0
 30
0.0
 11
113.764522
 21
190.0
 31
0.0
  0
LINE
  5
95
330
A
100
AcDbEntity
  8
LAY-3
  6
Continuous
100
AcDbLine
 10
117.1
 20
190.0
 30
0.0
 11
118.8
 21
190.0
 31
0.0
  0
LINE
  5
96
330
A
100
AcDbEntity
  8
LAY-3
  6
Continuous
100
AcDbLine
 10
80.6
 20
189.75
 30
0.0
 11
88.27804
 21
189.75
 31
0.0
  0
LINE
  5
97
330
A
100
AcDbEntity
  8
LAY-3
  6
Continuous
100
AcDbLine
 10
88.91341399999998
 20
189.75
 30
0.0
 11
91.80096199999999
 21
189.75
 31
0.0
  0
LINE
  5
98
330
A
100
AcDbEntity
  8
LAY-3
  6
Continuous
100
AcDbLine
 10
94.39903800000001
 20
189.75
 30
0.0
 11
97.28658600000001
 21
189.75
 31
0.0
  0
LINE
  5
99
330
A
100
AcDbEntity
  8
LAY-3
  6
Continuous
100
AcDbLine
 10
97.92196
 20
189.75
 30
0.0
 11
103.6
 21
189.75
 31
0.0
  0
LINE
  5
9A
330
A
100
AcDbEntity
  8
LAY-3
  6
Continuous
100
AcDbLine
 10
104.45
 20
189.75
 30
0.0
 11
111.15
 21
189.75
 31
0.0
  0
LINE
  5
9B
330
A
100
AcDbEntity
  8
LAY-3
  6
Continuous
100
AcDbLine
 10
111.9
 20
189.75
 30
0.0
 11
113.929044
 21
189.75
 31
0.0
  0
LINE
  5
9C
330
A
100
AcDbEntity
  8
LAY-3
  6
Continuous
100
AcDbLine
 10
117.1
 20
189.75
 30
0.0
 11
118.8
 21
189.75
 31
0.0
  0
LINE
  5
9D
330
A
100
AcDbEntity
  8
LAY-3
  6
Continuous
100
AcDbLine
 10
80.6
 20
189.5
 30
0.0
 11
88.11865500000001
 21
189.5
 31
0.0
  0
LINE
  5
9E
330
A
100
AcDbEntity
  8
LAY-3
  6
Continuous
100
AcDbLine
 10
88.73079
 20
189.5
 30
0.0
 11
91.297224
 21
189.5
 31
0.0
  0
LINE
  5
9F
330
A
100
AcDbEntity
  8
LAY-3
  6
Continuous
100
AcDbLine
 10
94.902776
 20
189.5
 30
0.0
 11
97.46921
 21
189.5
 31
0.0
  0
LINE
  5
A0
330
A
100
AcDbEntity
  8
LAY-3
  6
Continuous
100
AcDbLine
 10
98.08134500000001
 20
189.5
 30
0.0
 11
103.6
 21
189.5
 31
0.0
  0
LINE
  5
A1
330
A
100
AcDbEntity
  8
LAY-3
  6
Continuous
100
AcDbLine
 10
104.45
 20
189.5
 30
0.0
 11
111.15
 21
189.5
 31
0.0
  0
LINE
  5
A2
330
A
100
AcDbEntity
  8
LAY-3
  6
Continuous
100
AcDbLine
 10
111.9
 20
189.5
 30
0.0
 11
114.093566
 21
189.5
 31
0.0
  0
LINE
  5
A3
330
A
100
AcDbEntity
  8
LAY-3
  6
Continuous
100
AcDbLine
 10
117.1
 20
189.5
 30
0.0
 11
118.8
 21
189.5
 31
0.0
  0
LINE
  5
A4
330
A
100
AcDbEntity
  8
LAY-3
  6
Continuous
100
AcDbLine
 10
80.6
 20
189.25
 30
0.0
 11
87.976398
 21
189.25
 31
0.0
  0
LINE
  5
A5
330
A
100
AcDbEntity
  8
LAY-3
  6
Continuous
100
AcDbLine
 10
88.56927199999999
 20
189.25
 30
0.0
 11
90.934936
 21
189.25
 31
0.0
  0
LINE
  5
A6
330
A
100
AcDbEntity
  8
LAY-3
  6
Continuous
100
AcDbLine
 10
95.265064
 20
189.25
 30
0.0
 11
97.63072800000001
 21
189.25
 31
0.0
  0
LINE
  5
A7
330
A
100
AcDbEntity
  8
LAY-3
  6
Continuous
100
AcDbLine
 10
98.223602
 20
189.25
 30
0.0
 11
103.6
 21
189.25
 31
0.0
  0
LINE
  5
A8
330
A
100
AcDbEntity
  8
LAY-3
  6
Continuous
100
AcDbLine
 10
104.45
 20
189.25
 30
0.0
 11
111.15
 21
189.25
 31
0.0
  0
LINE
  5
A9
330
A
100
AcDbEntity
  8
LAY-3
  6
Continuous
100
AcDbLine
 10
111.9
 20
189.25
 30
0.0
 11
114.258088
 21
189.25
 31
0.0
  0
LINE
  5
AA
330
A
100
AcDbEntity
  8
LAY-3
  6
Continuous
100
AcDbLine
 10
117.1
 20
189.25
 30
0.0
 11
118.8
 21
189.25
 31
0.0
  0
LINE
  5
AB
330
A
100
AcDbEntity
  8
LAY-3
  6
Continuous
100
AcDbLine
 10
80.6
 20
189.0
 30
0.0
 11
87.84987599999999
 21
189.0
 31
0.0
  0
LINE
  5
AC
330
A
100
AcDbEntity
  8
LAY-3
  6
Continuous
100
AcDbLine
 10
88.42667099999998
 20
189.0
 30
0.0
 11
90.65051
 21
189.0
 31
0.0
  0
LINE
  5
AD
330
A
100
AcDbEntity
  8
LAY-3
  6
Continuous
100
AcDbLine
 10
92.22108
 20
189.0
 30
0.0
 11
93.97892
 21
189.0
 31
0.0
  0
LINE
  5
AE
330
A
100
AcDbEntity
  8
LAY-3
  6
Continuous
100
AcDbLine
 10
95.54949
 20
189.0
 30
0.0
 11
97.77332900000001
 21
189.0
 31
0.0
  0
LINE
  5
AF
330
A
100
AcDbEntity
  8
LAY-3
  6
Continuous
100
AcDbLine
 10
98.350124
 20
189.0
 30
0.0
 11
103.6
 21
189.0
 31
0.0
  0
LINE
  5
B0
330
A
100
AcDbEntity
  8
LAY-3
  6
Continuous
100
AcDbLine
 10
104.45
 20
189.0
 30
0.0
 11
111.15
 21
189.0
 31
0.0
  0
LINE
  5
B1
330
A
100
AcDbEntity
  8
LAY-3
  6
Continuous
100
AcDbLine
 10
111.9
 20
189.0
 30
0.0
 11
114.42261
 21
189.0
 31
0.0
  0
LINE
  5
B2
330
A
100
AcDbEntity
  8
LAY-3
  6
Continuous
100
AcDbLine
 10
117.1
 20
189.0
 30
0.0
 11
118.8
 21
189.0
 31
0.0
  0
LINE
  5
B3
330
A
100
AcDbEntity
  8
LAY-3
  6
Continuous
100
AcDbLine
 10
80.6
 20
188.75
 30
0.0
 11
87.73797599999998
 21
188.75
 31
0.0
  0
LINE
  5
B4
330
A
100
AcDbEntity
  8
LAY-3
  6
Continuous
100
AcDbLine
 10
88.30130200000002
 20
188.75
 30
0.0
 11
90.419049
 21
188.75
 31
0.0
  0
LINE
  5
B5
330
A
100
AcDbEntity
  8
LAY-3
  6
Continuous
100
AcDbLine
 10
91.69999999999999
 20
188.75
 30
0.0
 11
94.50000000000001
 21
188.75
 31
0.0
  0
LINE
  5
B6
330
A
100
AcDbEntity
  8
LAY-3
  6
Continuous
100
AcDbLine
 10
95.780951
 20
188.75
 30
0.0
 11
97.89869799999999
 21
188.75
 31
0.0
  0
LINE
  5
B7
330
A
100
AcDbEntity
  8
LAY-3
  6
Continuous
100
AcDbLine
 10
98.46202400000001
 20
188.75
 30
0.0
 11
103.6
 21
188.75
 31
0.0
  0
LINE
  5
B8
330
A
100
AcDbEntity
  8
LAY-3
  6
Continuous
100
AcDbLine
 10
104.45
 20
188.75
 30
0.0
 11
111.15
 21
188.75
 31
0.0
  0
LINE
  5
B9
330
A
100
AcDbEntity
  8
LAY-3
  6
Continuous
100
AcDbLine
 10
111.9
 20
188.75
 30
0.0
 11
114.587132
 21
188.75
 31
0.0
  0
LINE
  5
BA
330
A
100
AcDbEntity
  8
LAY-3
  6
Continuous
100
AcDbLine
 10
117.1
 20
188.75
 30
0.0
 11
118.8
 21
188.75
 31
0.0
  0
LINE
  5
BB
330
A
100
AcDbEntity
  8
LAY-3
  6
Continuous
100
AcDbLine
 10
84.1
 20
188.5
 30
0.0
 11
85.84999999999999
 21
188.5
 31
0.0
  0
LINE
  5
BC
330
A
100
AcDbEntity
  8
LAY-3
  6
Continuous
100
AcDbLine
 10
88.19184399999997
 20
188.5
 30
0.0
 11
90.227719
 21
188.5
 31
0.0
  0
LINE
  5
BD
330
A
100
AcDbEntity
  8
LAY-3
  6
Continuous
100
AcDbLine
 10
91.361466
 20
188.5
 30
0.0
 11
94.83853399999999
 21
188.5
 31
0.0
  0
LINE
  5
BE
330
A
100
AcDbEntity
  8
LAY-3
  6
Continuous
100
AcDbLine
 10
95.972281
 20
188.5
 30
0.0
 11
98.00815599999999
 21
188.5
 31
0.0
  0
LINE
  5
BF
330
A
100
AcDbEntity
  8
LAY-3
  6
Continuous
100
AcDbLine
 10
101.67152
 20
188.5
 30
0.0
 11
103.6
 21
188.5
 31
0.0
  0
LINE
  5
C0
330
A
100
AcDbEntity
  8
LAY-3
  6
Continuous
100
AcDbLine
 10
104.45
 20
188.5
 30
0.0
 11
106.2
 21
188.5
 31
0.0
  0
LINE
  5
C1
330
A
100
AcDbEntity
  8
LAY-3
  6
Continuous
100
AcDbLine
 10
111.9
 20
188.5
 30
0.0
 11
114.751654
 21
188.5
 31
0.0
  0
LINE
  5
C2
330
A
100
AcDbEntity
  8
LAY-3
  6
Continuous
100
AcDbLine
 10
117.1
 20
188.5
 30
0.0
 11
118.8
 21
188.5
 31
0.0
  0
LINE
  5
C3
330
A
100
AcDbEntity
  8
LAY-3
  6
Continuous
100
AcDbLine
 10
84.1
 20
188.25
 30
0.0
 11
85.84999999999999
 21
188.25
 31
0.0
  0
LINE
  5
C4
330
A
100
AcDbEntity
  8
LAY-3
  6
Continuous
100
AcDbLine
 10
88.09725099999999
 20
188.25
 30
0.0
 11
90.068911
 21
188.25
 31
0.0
  0
LINE
  5
C5
330
A
100
AcDbEntity
  8
LAY-3
  6
Continuous
100
AcDbLine
 10
91.11002499999999
 20
188.25
 30
0.0
 11
95.08997499999999
 21
188.25
 31
0.0
  0
LINE
  5
C6
330
A
100
AcDbEntity
  8
LAY-3
  6
Continuous
100
AcDbLine
 10
96.131089
 20
188.25
 30
0.0
 11
98.10274900000001
 21
188.25
 31
0.0
  0
LINE
  5
C7
330
A
100
AcDbEntity
  8
LAY-3
  6
Continuous
100
AcDbLine
 10
101.446146
 20
188.25
 30
0.0
 11
103.374625
 21
188.25
 31
0.0
  0
LINE
  5
C8
330
A
100
AcDbEntity
  8
LAY-3
  6
Continuous
100
AcDbLine
 10
104.45
 20
188.25
 30
0.0
 11
106.2
 21
188.25
 31
0.0
  0
LINE
  5
C9
330
A
100
AcDbEntity
  8
LAY-3
  6
Continuous
100
AcDbLine
 10
111.9
 20
188.25
 30
0.0
 11
114.916176
 21
188.25
 31
0.0
  0
LINE
  5
CA
330
A
100
AcDbEntity
  8
LAY-3
  6
Continuous
100
AcDbLine
 10
117.1
 20
188.25
 30
0.0
 11
118.8
 21
188.25
 31
0.0
  0
LINE
  5
CB
330
A
100
AcDbEntity
  8
LAY-3
  6
Continuous
100
AcDbLine
 10
84.1
 20
188.0
 30
0.0
 11
85.84999999999999
 21
188.0
 31
0.0
  0
LINE
  5
CC
330
A
100
AcDbEntity
  8
LAY-3
  6
Continuous
100
AcDbLine
 10
88.01669399999999
 20
188.0
 30
0.0
 11
89.937722
 21
188.0
 31
0.0
  0
LINE
  5
CD
330
A
100
AcDbEntity
  8
LAY-3
  6
Continuous
100
AcDbLine
 10
90.91539500000001
 20
188.0
 30
0.0
 11
95.28460499999999
 21
188.0
 31
0.0
  0
LINE
  5
CE
330
A
100
AcDbEntity
  8
LAY-3
  6
Continuous
100
AcDbLine
 10
96.26227800000002
 20
188.0
 30
0.0
 11
98.18330600000001
 21
188.0
 31
0.0
  0
LINE
  5
CF
330
A
100
AcDbEntity
  8
LAY-3
  6
Continuous
100
AcDbLine
 10
101.220771
 20
188.0
 30
0.0
 11
103.149251
 21
188.0
 31
0.0
  0
LINE
  5
D0
330
A
100
AcDbEntity
  8
LAY-3
  6
Continuous
100
AcDbLine
 10
104.45
 20
188.0
 30
0.0
 11
106.2
 21
188.0
 31
0.0
  0
LINE
  5
D1
330
A
100
AcDbEntity
  8
LAY-3
  6
Continuous
100
AcDbLine
 10
111.9
 20
188.0
 30
0.0
 11
113.6
 21
188.0
 31
0.0
  0
LINE
  5
D2
330
A
100
AcDbEntity
  8
LAY-3
  6
Continuous
100
AcDbLine
 10
113.645037
 20
188.0
 30
0.0
 11
115.080699
 21
188.0
 31
0.0
  0
LINE
  5
D3
330
A
100
AcDbEntity
  8
LAY-3
  6
Continuous
100
AcDbLine
 10
117.1
 20
188.0
 30
0.0
 11
118.8
 21
188.0
 31
0.0
  0
LINE
  5
D4
330
A
100
AcDbEntity
  8
LAY-3
  6
Continuous
100
AcDbLine
 10
84.1
 20
187.75
 30
0.0
 11
85.84999999999999
 21
187.75
 31
0.0
  0
LINE
  5
D5
330
A
100
AcDbEntity
  8
LAY-3
  6
Continuous
100
AcDbLine
 10
87.94951500000001
 20
187.75
 30
0.0
 11
89.83082600000001
 21
187.75
 31
0.0
  0
LINE
  5
D6
330
A
100
AcDbEntity
  8
LAY-3
  6
Continuous
100
AcDbLine
 10
90.76333599999999
 20
187.75
 30
0.0
 11
95.43666399999999
 21
187.75
 31
0.0
  0
LINE
  5
D7
330
A
100
AcDbEntity
  8
LAY-3
  6
Continuous
100
AcDbLine
 10
96.36917400000001
 20
187.75
 30
0.0
 11
98.25048500000001
 21
187.75
 31
0.0
  0
LINE
  5
D8
330
A
100
AcDbEntity
  8
LAY-3
  6
Continuous
100
AcDbLine
 10
100.995396
 20
187.75
 30
0.0
 11
102.923876
 21
187.75
 31
0.0
  0
LINE
  5
D9
330
A
100
AcDbEntity
  8
LAY-3
  6
Continuous
100
AcDbLine
 10
104.45
 20
187.75
 30
0.0
 11
106.2
 21
187.75
 31
0.0
  0
LINE
  5
DA
330
A
100
AcDbEntity
  8
LAY-3
  6
Continuous
100
AcDbLine
 10
111.9
 20
187.75
 30
0.0
 11
113.6
 21
187.75
 31
0.0
  0
LINE
  5
DB
330
A
100
AcDbEntity
  8
LAY-3
  6
Continuous
100
AcDbLine
 10
113.809559
 20
187.75
 30
0.0
 11
115.245221
 21
187.75
 31
0.0
  0
LINE
  5
DC
330
A
100
AcDbEntity
  8
LAY-3
  6
Continuous
100
AcDbLine
 10
117.1
 20
187.75
 30
0.0
 11
118.8
 21
187.75
 31
0.0
  0
LINE
  5
DD
330
A
100
AcDbEntity
  8
LAY-3
  6
Continuous
100
AcDbLine
 10
84.1
 20
187.5
 30
0.0
 11
85.84999999999999
 21
187.5
 31
0.0
  0
LINE
  5
DE
330
A
100
AcDbEntity
  8
LAY-3
  6
Continuous
100
AcDbLine
 10
87.895195
 20
187.5
 30
0.0
 11
89.745898
 21
187.5
 31
0.0
  0
LINE
  5
DF
330
A
100
AcDbEntity
  8
LAY-3
  6
Continuous
100
AcDbLine
 10
90.64592199999999
 20
187.5
 30
0.0
 11
95.55407800000001
 21
187.5
 31
0.0
  0
LINE
  5
E0
330
A
100
AcDbEntity
  8
LAY-3
  6
Continuous
100
AcDbLine
 10
96.454102
 20
187.5
 30
0.0
 11
98.304805
 21
187.5
 31
0.0
  0
LINE
  5
E1
330
A
100
AcDbEntity
  8
LAY-3
  6
Continuous
100
AcDbLine
 10
100.770021
 20
187.5
 30
0.0
 11
102.698501
 21
187.5
 31
0.0
  0
LINE
  5
E2
330
A
100
AcDbEntity
  8
LAY-3
  6
Continuous
100
AcDbLine
 10
104.45
 20
187.5
 30
0.0
 11
106.2
 21
187.5
 31
0.0
  0
LINE
  5
E3
330
A
100
AcDbEntity
  8
LAY-3
  6
Continuous
100
AcDbLine
 10
111.9
 20
187.5
 30
0.0
 11
113.6
 21
187.5
 31
0.0
  0
LINE
  5
E4
330
A
100
AcDbEntity
  8
LAY-3
  6
Continuous
100
AcDbLine
 10
113.974081
 20
187.5
 30
0.0
 11
115.409743
 21
187.5
 31
0.0
  0
LINE
  5
E5
330
A
100
AcDbEntity
  8
LAY-3
  6
Continuous
100
AcDbLine
 10
117.1
 20
187.5
 30
0.0
 11
118.8
 21
187.5
 31
0.0
  0
LINE
  5
E6
330
A
100
AcDbEntity
  8
LAY-3
  6
Continuous
100
AcDbLine
 10
84.1
 20
187.25
 30
0.0
 11
85.84999999999999
 21
187.25
 31
0.0
  0
LINE
  5
E7
330
A
100
AcDbEntity
  8
LAY-3
  6
Continuous
100
AcDbLine
 10
87.853334
 20
187.25
 30
0.0
 11
89.68130100000001
 21
187.25
 31
0.0
  0
LINE
  5
E8
330
A
100
AcDbEntity
  8
LAY-3
  6
Continuous
100
AcDbLine
 10
90.558347
 20
187.25
 30
0.0
 11
95.641653
 21
187.25
 31
0.0
  0
LINE
  5
E9
330
A
100
AcDbEntity
  8
LAY-3
  6
Continuous
100
AcDbLine
 10
96.51869900000001
 20
187.25
 30
0.0
 11
98.346666
 21
187.25
 31
0.0
  0
LINE
  5
EA
330
A
100
AcDbEntity
  8
LAY-3
  6
Continuous
100
AcDbLine
 10
100.544647
 20
187.25
 30
0.0
 11
102.473126
 21
187.25
 31
0.0
  0
LINE
  5
EB
330
A
100
AcDbEntity
  8
LAY-3
  6
Continuous
100
AcDbLine
 10
104.45
 20
187.25
 30
0.0
 11
111.15
 21
187.25
 31
0.0
  0
LINE
  5
EC
330
A
100
AcDbEntity
  8
LAY-3
  6
Continuous
100
AcDbLine
 10
111.9
 20
187.25
 30
0.0
 11
113.6
 21
187.25
 31
0.0
  0
LINE
  5
ED
330
A
100
AcDbEntity
  8
LAY-3
  6
Continuous
100
AcDbLine
 10
114.138603
 20
187.25
 30
0.0
 11
115.574265
 21
187.25
 31
0.0
  0
LINE
  5
EE
330
A
100
AcDbEntity
  8
LAY-3
  6
Continuous
100
AcDbLine
 10
117.1
 20
187.25
 30
0.0
 11
118.8
 21
187.25
 31
0.0
  0
LINE
  5
EF
330
A
100
AcDbEntity
  8
LAY-3
  6
Continuous
100
AcDbLine
 10
84.1
 20
187.0
 30
0.0
 11
85.84999999999999
 21
187.0
 31
0.0
  0
LINE
  5
F0
330
A
100
AcDbEntity
  8
LAY-3
  6
Continuous
100
AcDbLine
 10
87.823638
 20
187.0
 30
0.0
 11
89.63589799999999
 21
187.0
 31
0.0
  0
LINE
  5
F1
330
A
100
AcDbEntity
  8
LAY-3
  6
Continuous
100
AcDbLine
 10
90.497597
 20
187.0
 30
0.0
 11
95.702403
 21
187.0
 31
0.0
  0
LINE
  5
F2
330
A
100
AcDbEntity
  8
LAY-3
  6
Continuous
100
AcDbLine
 10
96.56410200000001
 20
187.0
 30
0.0
 11
98.376362
 21
187.0
 31
0.0
  0
LINE
  5
F3
330
A
100
AcDbEntity
  8
LAY-3
  6
Continuous
100
AcDbLine
 10
100.319272
 20
187.0
 30
0.0
 11
102.247752
 21
187.0
 31
0.0
  0
LINE
  5
F4
330
A
100
AcDbEntity
  8
LAY-3
  6
Continuous
100
AcDbLine
 10
104.45
 20
187.0
 30
0.0
 11
111.15
 21
187.0
 31
0.0
  0
LINE
  5
F5
330
A
100
AcDbEntity
  8
LAY-3
  6
Continuous
100
AcDbLine
 10
111.9
 20
187.0
 30
0.0
 11
113.6
 21
187.0
 31
0.0
  0
LINE
  5
F6
330
A
100
AcDbEntity
  8
LAY-3
  6
Continuous
100
AcDbLine
 10
114.303125
 20
187.0
 30
0.0
 11
115.738787
 21
187.0
 31
0.0
  0
LINE
  5
F7
330
A
100
AcDbEntity
  8
LAY-3
  6
Continuous
100
AcDbLine
 10
117.1
 20
187.0
 30
0.0
 11
118.8
 21
187.0
 31
0.0
  0
LINE
  5
F8
330
A
100
AcDbEntity
  8
LAY-3
  6
Continuous
100
AcDbLine
 10
84.1
 20
186.75
 30
0.0
 11
85.84999999999999
 21
186.75
 31
0.0
  0
LINE
  5
F9
330
A
100
AcDbEntity
  8
LAY-3
  6
Continuous
100
AcDbLine
 10
87.8059
 20
186.75
 30
0.0
 11
89.60894000000001
 21
186.75
 31
0.0
  0
LINE
  5
FA
330
A
100
AcDbEntity
  8
LAY-3
  6
Continuous
100
AcDbLine
 10
90.46181899999998
 20
186.75
 30
0.0
 11
95.73818100000002
 21
186.75
 31
0.0
  0
LINE
  5
FB
330
A
100
AcDbEntity
  8
LAY-3
  6
Continuous
100
AcDbLine
 10
96.59106000000001
 20
186.75
 30
0.0
 11
98.3941
 21
186.75
 31
0.0
  0
LINE
  5
FC
330
A
100
AcDbEntity
  8
LAY-3
  6
Continuous
100
AcDbLine
 10
100.093897
 20
186.75
 30
0.0
 11
102.022377
 21
186.75
 31
0.0
  0
LINE
  5
FD
330
A
100
AcDbEntity
  8
LAY-3
  6
Continuous
100
AcDbLine
 10
104.45
 20
186.75
 30
0.0
 11
111.15
 21
186.75
 31
0.0
  0
LINE
  5
FE
330
A
100
AcDbEntity
  8
LAY-3
  6
Continuous
100
AcDbLine
 10
111.9
 20
186.75
 30
0.0
 11
113.6
 21
186.75
 31
0.0
  0
LINE
  5
FF
330
A
100
AcDbEntity
  8
LAY-3
  6
Continuous
100
AcDbLine
 10
114.467647
 20
186.75
 30
0.0
 11
115.903309
 21
186.75
 31
0.0
  0
LINE
  5
100
330
A
100
AcDbEntity
  8
LAY-3
  6
Continuous
100
AcDbLine
 10
117.1
 20
186.75
 30
0.0
 11
118.8
 21
186.75
 31
0.0
  0
LINE
  5
101
330
A
100
AcDbEntity
  8
LAY-3
  6
Continuous
100
AcDbLine
 10
84.1
 20
186.5
 30
0.0
 11
85.84999999999999
 21
186.5
 31
0.0
  0
LINE
  5
102
330
A
100
AcDbEntity
  8
LAY-3
  6
Continuous
100
AcDbLine
 10
87.79999999999999
 20
186.5
 30
0.0
 11
89.59999999999999
 21
186.5
 31
0.0
  0
LINE
  5
103
330
A
100
AcDbEntity
  8
LAY-3
  6
Continuous
100
AcDbLine
 10
90.44999999999999
 20
186.5
 30
0.0
 11
95.75000000000001
 21
186.5
 31
0.0
  0
LINE
  5
104
330
A
100
AcDbEntity
  8
LAY-3
  6
Continuous
100
AcDbLine
 10
96.6
 20
186.5
 30
0.0
 11
98.40000000000001
 21
186.5
 31
0.0
  0
LINE
  5
105
330
A
100
AcDbEntity
  8
LAY-3
  6
Continuous
100
AcDbLine
 10
99.86852200000001
 20
186.5
 30
0.0
 11
101.797002
 21
186.5
 31
0.0
  0
LINE
  5
106
330
A
100
AcDbEntity
  8
LAY-3
  6
Continuous
100
AcDbLine
 10
104.45
 20
186.5
 30
0.0
 11
111.15
 21
186.5
 31
0.0
  0
LINE
  5
107
330
A
100
AcDbEntity
  8
LAY-3
  6
Continuous
100
AcDbLine
 10
111.9
 20
186.5
 30
0.0
 11
113.6
 21
186.5
 31
0.0
  0
LINE
  5
108
330
A
100
AcDbEntity
  8
LAY-3
  6
Continuous
100
AcDbLine
 10
114.632169
 20
186.5
 30
0.0
 11
116.067831
 21
186.5
 31
0.0
  0
LINE
  5
109
330
A
100
AcDbEntity
  8
LAY-3
  6
Continuous
100
AcDbLine
 10
117.1
 20
186.5
 30
0.0
 11
118.8
 21
186.5
 31
0.0
  0
LINE
  5
10A
330
A
100
AcDbEntity
  8
LAY-3
  6
Continuous
100
AcDbLine
 10
84.1
 20
186.25
 30
0.0
 11
85.84999999999999
 21
186.25
 31
0.0
  0
LINE
  5
10B
330
A
100
AcDbEntity
  8
LAY-3
  6
Continuous
100
AcDbLine
 10
87.8059
 20
186.25
 30
0.0
 11
89.60894000000001
 21
186.25
 31
0.0
  0
LINE
  5
10C
330
A
100
AcDbEntity
  8
LAY-3
  6
Continuous
100
AcDbLine
 10
90.46181899999998
 20
186.25
 30
0.0
 11
95.73818100000002
 21
186.25
 31
0.0
  0
LINE
  5
10D
330
A
100
AcDbEntity
  8
LAY-3
  6
Continuous
100
AcDbLine
 10
96.59106000000001
 20
186.25
 30
0.0
 11
98.3941
 21
186.25
 31
0.0
  0
LINE
  5
10E
330
A
100
AcDbEntity
  8
LAY-3
  6
Continuous
100
AcDbLine
 10
99.643148
 20
186.25
 30
0.0
 11
101.571627
 21
186.25
 31
0.0
  0
LINE
  5
10F
330
A
100
AcDbEntity
  8
LAY-3
  6
Continuous
100
AcDbLine
 10
104.45
 20
186.25
 30
0.0
 11
111.15
 21
186.25
 31
0.0
  0
LINE
  5
110
330
A
100
AcDbEntity
  8
LAY-3
  6
Continuous
100
AcDbLine
 10
111.9
 20
186.25
 30
0.0
 11
113.6
 21
186.25
 31
0.0
  0
LINE
  5
111
330
A
100
AcDbEntity
  8
LAY-3
  6
Continuous
100
AcDbLine
 10
114.796691
 20
186.25
 30
0.0
 11
116.232353
 21
186.25
 31
0.0
  0
LINE
  5
112
330
A
100
AcDbEntity
  8
LAY-3
  6
Continuous
100
AcDbLine
 10
117.1
 20
186.25
 30
0.0
 11
118.8
 21
186.25
 31
0.0
  0
LINE
  5
113
330
A
100
AcDbEntity
  8
LAY-3
  6
Continuous
100
AcDbLine
 10
84.1
 20
186.0
 30
0.0
 11
85.84999999999999
 21
186.0
 31
0.0
  0
LINE
  5
114
330
A
100
AcDbEntity
  8
LAY-3
  6
Continuous
100
AcDbLine
 10
87.823638
 20
186.0
 30
0.0
 11
89.63589799999999
 21
186.0
 31
0.0
  0
LINE
  5
115
330
A
100
AcDbEntity
  8
LAY-3
  6
Continuous
100
AcDbLine
 10
90.497597
 20
186.0
 30
0.0
 11
95.702403
 21
186.0
 31
0.0
  0
LINE
  5
116
330
A
100
AcDbEntity
  8
LAY-3
  6
Continuous
100
AcDbLine
 10
96.56410200000001
 20
186.0
 30
0.0
 11
98.376362
 21
186.0
 31
0.0
  0
LINE
  5
117
330
A
100
AcDbEntity
  8
LAY-3
  6
Continuous
100
AcDbLine
 10
99.417773
 20
186.0
 30
0.0
 11
101.346253
 21
186.0
 31
0.0
  0
LINE
  5
118
330
A
100
AcDbEntity
  8
LAY-3
  6
Continuous
100
AcDbLine
 10
104.45
 20
186.0
 30
0.0
 11
111.15
 21
186.0
 31
0.0
  0
LINE
  5
119
330
A
100
AcDbEntity
  8
LAY-3
  6
Continuous
100
AcDbLine
 10
111.9
 20
186.0
 30
0.0
 11
113.6
 21
186.0
 31
0.0
  0
LINE
  5
11A
330
A
100
AcDbEntity
  8
LAY-3
  6
Continuous
100
AcDbLine
 10
114.961213
 20
186.0
 30
0.0
 11
116.396875
 21
186.0
 31
0.0
  0
LINE
  5
11B
330
A
100
AcDbEntity
  8
LAY-3
  6
Continuous
100
AcDbLine
 10
117.1
 20
186.0
 30
0.0
 11
118.8
 21
186.0
 31
0.0
  0
LINE
  5
11C
330
A
100
AcDbEntity
  8
LAY-3
  6
Continuous
100
AcDbLine
 10
84.1
 20
185.75
 30
0.0
 11
85.84999999999999
 21
185.75
 31
0.0
  0
LINE
  5
11D
330
A
100
AcDbEntity
  8
LAY-3
  6
Continuous
100
AcDbLine
 10
87.853334
 20
185.75
 30
0.0
 11
89.68130100000001
 21
185.75
 31
0.0
  0
LINE
  5
11E
330
A
100
AcDbEntity
  8
LAY-3
  6
Continuous
100
AcDbLine
 10
90.558347
 20
185.75
 30
0.0
 11
95.641653
 21
185.75
 31
0.0
  0
LINE
  5
11F
330
A
100
AcDbEntity
  8
LAY-3
  6
Continuous
100
AcDbLine
 10
96.51869900000001
 20
185.75
 30
0.0
 11
98.346666
 21
185.75
 31
0.0
  0
LINE
  5
120
330
A
100
AcDbEntity
  8
LAY-3
  6
Continuous
100
AcDbLine
 10
99.19239799999999
 20
185.75
 30
0.0
 11
101.120878
 21
185.75
 31
0.0
  0
LINE
  5
121
330
A
100
AcDbEntity
  8
LAY-3
  6
Continuous
100
AcDbLine
 10
104.45
 20
185.75
 30
0.0
 11
106.2
 21
185.75
 31
0.0
  0
LINE
  5
122
330
A
100
AcDbEntity
  8
LAY-3
  6
Continuous
100
AcDbLine
 10
111.9
 20
185.75
 30
0.0
 11
113.6
 21
185.75
 31
0.0
  0
LINE
  5
123
330
A
100
AcDbEntity
  8
LAY-3
  6
Continuous
100
AcDbLine
 10
115.125735
 20
185.75
 30
0.0
 11
116.561397
 21
185.75
 31
0.0
  0
LINE
  5
124
330
A
100
AcDbEntity
  8
LAY-3
  6
Continuous
100
AcDbLine
 10
117.1
 20
185.75
 30
0.0
 11
118.8
 21
185.75
 31
0.0
  0
LINE
  5
125
330
A
100
AcDbEntity
  8
LAY-3
  6
Continuous
100
AcDbLine
 10
84.1
 20
185.5
 30
0.0
 11
85.84999999999999
 21
185.5
 31
0.0
  0
LINE
  5
126
330
A
100
AcDbEntity
  8
LAY-3
  6
Continuous
100
AcDbLine
 10
87.895195
 20
185.5
 30
0.0
 11
89.745898
 21
185.5
 31
0.0
  0
LINE
  5
127
330
A
100
AcDbEntity
  8
LAY-3
  6
Continuous
100
AcDbLine
 10
90.64592199999999
 20
185.5
 30
0.0
 11
95.55407800000001
 21
185.5
 31
0.0
  0
LINE
  5
128
330
A
100
AcDbEntity
  8
LAY-3
  6
Continuous
100
AcDbLine
 10
96.454102
 20
185.5
 30
0.0
 11
98.304805
 21
185.5
 31
0.0
  0
LINE
  5
129
330
A
100
AcDbEntity
  8
LAY-3
  6
Continuous
100
AcDbLine
 10
98.967024
 20
185.5
 30
0.0
 11
100.895503
 21
185.5
 31
0.0
  0
LINE
  5
12A
330
A
100
AcDbEntity
  8
LAY-3
  6
Continuous
100
AcDbLine
 10
104.45
 20
185.5
 30
0.0
 11
106.2
 21
185.5
 31
0.0
  0
LINE
  5
12B
330
A
100
AcDbEntity
  8
LAY-3
  6
Continuous
100
AcDbLine
 10
111.9
 20
185.5
 30
0.0
 11
113.6
 21
185.5
 31
0.0
  0
LINE
  5
12C
330
A
100
AcDbEntity
  8
LAY-3
  6
Continuous
100
AcDbLine
 10
115.290257
 20
185.5
 30
0.0
 11
116.725919
 21
185.5
 31
0.0
  0
LINE
  5
12D
330
A
100
AcDbEntity
  8
LAY-3
  6
Continuous
100
AcDbLine
 10
117.1
 20
185.5
 30
0.0
 11
118.8
 21
185.5
 31
0.0
  0
LINE
  5
12E
330
A
100
AcDbEntity
  8
LAY-3
  6
Continuous
100
AcDbLine
 10
84.1
 20
185.25
 30
0.0
 11
85.84999999999999
 21
185.25
 31
0.0
  0
LINE
  5
12F
330
A
100
AcDbEntity
  8
LAY-3
  6
Continuous
100
AcDbLine
 10
87.94951500000001
 20
185.25
 30
0.0
 11
89.83082600000001
 21
185.25
 31
0.0
  0
LINE
  5
130
330
A
100
AcDbEntity
  8
LAY-3
  6
Continuous
100
AcDbLine
 10
90.76333599999999
 20
185.25
 30
0.0
 11
95.43666399999999
 21
185.25
 31
0.0
  0
LINE
  5
131
330
A
100
AcDbEntity
  8
LAY-3
  6
Continuous
100
AcDbLine
 10
96.36917400000001
 20
185.25
 30
0.0
 11
98.25048500000001
 21
185.25
 31
0.0
  0
LINE
  5
132
330
A
100
AcDbEntity
  8
LAY-3
  6
Continuous
100
AcDbLine
 10
98.779023
 20
185.25
 30
0.0
 11
100.670128
 21
185.25
 31
0.0
  0
LINE
  5
133
330
A
100
AcDbEntity
  8
LAY-3
  6
Continuous
100
AcDbLine
 10
104.45
 20
185.25
 30
0.0
 11
106.2
 21
185.25
 31
0.0
  0
LINE
  5
134
330
A
100
AcDbEntity
  8
LAY-3
  6
Continuous
100
AcDbLine
 10
111.9
 20
185.25
 30
0.0
 11
113.6
 21
185.25
 31
0.0
  0
LINE
  5
135
330
A
100
AcDbEntity
  8
LAY-3
  6
Continuous
100
AcDbLine
 10
115.454779
 20
185.25
 30
0.0
 11
116.890441
 21
185.25
 31
0.0
  0
LINE
  5
136
330
A
100
AcDbEntity
  8
LAY-3
  6
Continuous
100
AcDbLine
 10
117.1
 20
185.25
 30
0.0
 11
118.8
 21
185.25
 31
0.0
  0
LINE
  5
137
330
A
100
AcDbEntity
  8
LAY-3
  6
Continuous
100
AcDbLine
 10
84.1
 20
185.0
 30
0.0
 11
85.84999999999999
 21
185.0
 31
0.0
  0
LINE
  5
138
330
A
100
AcDbEntity
  8
LAY-3
  6
Continuous
100
AcDbLine
 10
88.01669399999999
 20
185.0
 30
0.0
 11
89.937722
 21
185.0
 31
0.0
  0
LINE
  5
139
330
A
100
AcDbEntity
  8
LAY-3
  6
Continuous
100
AcDbLine
 10
90.91539500000001
 20
185.0
 30
0.0
 11
95.28460499999999
 21
185.0
 31
0.0
  0
LINE
  5
13A
330
A
100
AcDbEntity
  8
LAY-3
  6
Continuous
100
AcDbLine
 10
96.26227800000002
 20
185.0
 30
0.0
 11
98.18330600000001
 21
185.0
 31
0.0
  0
LINE
  5
13B
330
A
100
AcDbEntity
  8
LAY-3
  6
Continuous
100
AcDbLine
 10
98.718167
 20
185.0
 30
0.0
 11
100.444754
 21
185.0
 31
0.0
  0
LINE
  5
13C
330
A
100
AcDbEntity
  8
LAY-3
  6
Continuous
100
AcDbLine
 10
104.45
 20
185.0
 30
0.0
 11
106.2
 21
185.0
 31
0.0
  0
LINE
  5
13D
330
A
100
AcDbEntity
  8
LAY-3
  6
Continuous
100
AcDbLine
 10
111.9
 20
185.0
 30
0.0
 11
113.6
 21
185.0
 31
0.0
  0
LINE
  5
13E
330
A
100
AcDbEntity
  8
LAY-3
  6
Continuous
100
AcDbLine
 10
115.619301
 20
185.0
 30
0.0
 11
117.054963
 21
185.0
 31
0.0
  0
LINE
  5
13F
330
A
100
AcDbEntity
  8
LAY-3
  6
Continuous
100
AcDbLine
 10
117.1
 20
185.0
 30
0.0
 11
118.8
 21
185.0
 31
0.0
  0
LINE
  5
140
330
A
100
AcDbEntity
  8
LAY-3
  6
Continuous
100
AcDbLine
 10
84.1
 20
184.75
 30
0.0
 11
85.84999999999999
 21
184.75
 31
0.0
  0
LINE
  5
141
330
A
100
AcDbEntity
  8
LAY-3
  6
Continuous
100
AcDbLine
 10
88.09725099999999
 20
184.75
 30
0.0
 11
90.068911
 21
184.75
 31
0.0
  0
LINE
  5
142
330
A
100
AcDbEntity
  8
LAY-3
  6
Continuous
100
AcDbLine
 10
91.11002499999999
 20
184.75
 30
0.0
 11
95.08997499999999
 21
184.75
 31
0.0
  0
LINE
  5
143
330
A
100
AcDbEntity
  8
LAY-3
  6
Continuous
100
AcDbLine
 10
96.131089
 20
184.75
 30
0.0
 11
98.10274900000001
 21
184.75
 31
0.0
  0
LINE
  5
144
330
A
100
AcDbEntity
  8
LAY-3
  6
Continuous
100
AcDbLine
 10
98.64538500000001
 20
184.75
 30
0.0
 11
100.219379
 21
184.75
 31
0.0
  0
LINE
  5
145
330
A
100
AcDbEntity
  8
LAY-3
  6
Continuous
100
AcDbLine
 10
104.45
 20
184.75
 30
0.0
 11
106.2
 21
184.75
 31
0.0
  0
LINE
  5
146
330
A
100
AcDbEntity
  8
LAY-3
  6
Continuous
100
AcDbLine
 10
111.9
 20
184.75
 30
0.0
 11
113.6
 21
184.75
 31
0.0
  0
LINE
  5
147
330
A
100
AcDbEntity
  8
LAY-3
  6
Continuous
100
AcDbLine
 10
115.783824
 20
184.75
 30
0.0
 11
118.8
 21
184.75
 31
0.0
  0
LINE
  5
148
330
A
100
AcDbEntity
  8
LAY-3
  6
Continuous
100
AcDbLine
 10
84.1
 20
184.5
 30
0.0
 11
85.84999999999999
 21
184.5
 31
0.0
  0
LINE
  5
149
330
A
100
AcDbEntity
  8
LAY-3
  6
Continuous
100
AcDbLine
 10
88.19184399999997
 20
184.5
 30
0.0
 11
90.227719
 21
184.5
 31
0.0
  0
LINE
  5
14A
330
A
100
AcDbEntity
  8
LAY-3
  6
Continuous
100
AcDbLine
 10
91.361466
 20
184.5
 30
0.0
 11
94.83853399999999
 21
184.5
 31
0.0
  0
LINE
  5
14B
330
A
100
AcDbEntity
  8
LAY-3
  6
Continuous
100
AcDbLine
 10
95.972281
 20
184.5
 30
0.0
 11
98.00815599999999
 21
184.5
 31
0.0
  0
LINE
  5
14C
330
A
100
AcDbEntity
  8
LAY-3
  6
Continuous
100
AcDbLine
 10
98.56020100000002
 20
184.5
 30
0.0
 11
103.6
 21
184.5
 31
0.0
  0
LINE
  5
14D
330
A
100
AcDbEntity
  8
LAY-3
  6
Continuous
100
AcDbLine
 10
104.45
 20
184.5
 30
0.0
 11
111.15
 21
184.5
 31
0.0
  0
LINE
  5
14E
330
A
100
AcDbEntity
  8
LAY-3
  6
Continuous
100
AcDbLine
 10
111.9
 20
184.5
 30
0.0
 11
113.6
 21
184.5
 31
0.0
  0
LINE
  5
14F
330
A
100
AcDbEntity
  8
LAY-3
  6
Continuous
100
AcDbLine
 10
115.948346
 20
184.5
 30
0.0
 11
118.8
 21
184.5
 31
0.0
  0
LINE
  5
150
330
A
100
AcDbEntity
  8
LAY-3
  6
Continuous
100
AcDbLine
 10
84.1
 20
184.25
 30
0.0
 11
85.84999999999999
 21
184.25
 31
0.0
  0
LINE
  5
151
330
A
100
AcDbEntity
  8
LAY-3
  6
Continuous
100
AcDbLine
 10
88.30130200000002
 20
184.25
 30
0.0
 11
90.419049
 21
184.25
 31
0.0
  0
LINE
  5
152
330
A
100
AcDbEntity
  8
LAY-3
  6
Continuous
100
AcDbLine
 10
91.69999999999999
 20
184.25
 30
0.0
 11
94.50000000000001
 21
184.25
 31
0.0
  0
LINE
  5
153
330
A
100
AcDbEntity
  8
LAY-3
  6
Continuous
100
AcDbLine
 10
95.780951
 20
184.25
 30
0.0
 11
97.89869799999999
 21
184.25
 31
0.0
  0
LINE
  5
154
330
A
100
AcDbEntity
  8
LAY-3
  6
Continuous
100
AcDbLine
 10
98.46202400000001
 20
184.25
 30
0.0
 11
103.6
 21
184.25
 31
0.0
  0
LINE
  5
155
330
A
100
AcDbEntity
  8
LAY-3
  6
Continuous
100
AcDbLine
 10
104.45
 20
184.25
 30
0.0
 11
111.15
 21
184.25
 31
0.0
  0
LINE
  5
156
330
A
100
AcDbEntity
  8
LAY-3
  6
Continuous
100
AcDbLine
 10
111.9
 20
184.25
 30
0.0
 11
113.6
 21
184.25
 31
0.0
  0
LINE
  5
157
330
A
100
AcDbEntity
  8
LAY-3
  6
Continuous
100
AcDbLine
 10
116.112868
 20
184.25
 30
0.0
 11
118.8
 21
184.25
 31
0.0
  0
LINE
  5
158
330
A
100
AcDbEntity
  8
LAY-3
  6
Continuous
100
AcDbLine
 10
84.1
 20
184.0
 30
0.0
 11
85.84999999999999
 21
184.0
 31
0.0
  0
LINE
  5
159
330
A
100
AcDbEntity
  8
LAY-3
  6
Continuous
100
AcDbLine
 10
88.42667099999998
 20
184.0
 30
0.0
 11
90.65051
 21
184.0
 31
0.0
  0
LINE
  5
15A
330
A
100
AcDbEntity
  8
LAY-3
  6
Continuous
100
AcDbLine
 10
92.22108
 20
184.0
 30
0.0
 11
93.97892
 21
184.0
 31
0.0
  0
LINE
  5
15B
330
A
100
AcDbEntity
  8
LAY-3
  6
Continuous
100
AcDbLine
 10
95.54949
 20
184.0
 30
0.0
 11
97.77332900000001
 21
184.0
 31
0.0
  0
LINE
  5
15C
330
A
100
AcDbEntity
  8
LAY-3
  6
Continuous
100
AcDbLine
 10
98.350124
 20
184.0
 30
0.0
 11
103.6
 21
184.0
 31
0.0
  0
LINE
  5
15D
330
A
100
AcDbEntity
  8
LAY-3
  6
Continuous
100
AcDbLine
 10
104.45
 20
184.0
 30
0.0
 11
111.15
 21
184.0
 31
0.0
  0
LINE
  5
15E
330
A
100
AcDbEntity
  8
LAY-3
  6
Continuous
100
AcDbLine
 10
111.9
 20
184.0
 30
0.0
 11
113.6
 21
184.0
 31
0.0
  0
LINE
  5
15F
330
A
100
AcDbEntity
  8
LAY-3
  6
Continuous
100
AcDbLine
 10
116.27739
 20
184.0
 30
0.0
 11
118.8
 21
184.0
 31
0.0
  0
LINE
  5
160
330
A
100
AcDbEntity
  8
LAY-3
  6
Continuous
100
AcDbLine
 10
84.1
 20
183.75
 30
0.0
 11
85.84999999999999
 21
183.75
 31
0.0
  0
LINE
  5
161
330
A
100
AcDbEntity
  8
LAY-3
  6
Continuous
100
AcDbLine
 10
88.56927199999999
 20
183.75
 30
0.0
 11
90.934936
 21
183.75
 31
0.0
  0
LINE
  5
162
330
A
100
AcDbEntity
  8
LAY-3
  6
Continuous
100
AcDbLine
 10
95.265064
 20
183.75
 30
0.0
 11
97.63072800000001
 21
183.75
 31
0.0
  0
LINE
  5
163
330
A
100
AcDbEntity
  8
LAY-3
  6
Continuous
100
AcDbLine
 10
98.223602
 20
183.75
 30
0.0
 11
103.6
 21
183.75
 31
0.0
  0
LINE
  5
164
330
A
100
AcDbEntity
  8
LAY-3
  6
Continuous
100
AcDbLine
 10
104.45
 20
183.75
 30
0.0
 11
111.15
 21
183.75
 31
0.0
  0
LINE
  5
165
330
A
100
AcDbEntity
  8
LAY-3
  6
Continuous
100
AcDbLine
 10
111.9
 20
183.75
 30
0.0
 11
113.6
 21
183.75
 31
0.0
  0
LINE
  5
166
330
A
100
AcDbEntity
  8
LAY-3
  6
Continuous
100
AcDbLine
 10
116.441912
 20
183.75
 30
0.0
 11
118.8
 21
183.75
 31
0.0
  0
LINE
  5
167
330
A
100
AcDbEntity
  8
LAY-3
  6
Continuous
100
AcDbLine
 10
84.1
 20
183.5
 30
0.0
 11
85.84999999999999
 21
183.5
 31
0.0
  0
LINE
  5
168
330
A
100
AcDbEntity
  8
LAY-3
  6
Continuous
100
AcDbLine
 10
88.73079
 20
183.5
 30
0.0
 11
91.297224
 21
183.5
 31
0.0
  0
LINE
  5
169
330
A
100
AcDbEntity
  8
LAY-3
  6
Continuous
100
AcDbLine
 10
94.902776
 20
183.5
 30
0.0
 11
97.46921
 21
183.5
 31
0.0
  0
LINE
  5
16A
330
A
100
AcDbEntity
  8
LAY-3
  6
Continuous
100
AcDbLine
 10
98.08134500000001
 20
183.5
 30
0.0
 11
103.6
 21
183.5
 31
0.0
  0
LINE
  5
16B
330
A
100
AcDbEntity
  8
LAY-3
  6
Continuous
100
AcDbLine
 10
104.45
 20
183.5
 30
0.0
 11
111.15
 21
183.5
 31
0.0
  0
LINE
  5
16C
330
A
100
AcDbEntity
  8
LAY-3
  6
Continuous
100
AcDbLine
 10
111.9
 20
183.5
 30
0.0
 11
113.6
 21
183.5
 31
0.0
  0
LINE
  5
16D
330
A
100
AcDbEntity
  8
LAY-3
  6
Continuous
100
AcDbLine
 10
116.606434
 20
183.5
 30
0.0
 11
118.8
 21
183.5
 31
0.0
  0
LINE
  5
16E
330
A
100
AcDbEntity
  8
LAY-3
  6
Continuous
100
AcDbLine
 10
84.1
 20
183.25
 30
0.0
 11
85.84999999999999
 21
183.25
 31
0.0
  0
LINE
  5
16F
330
A
100
AcDbEntity
  8
LAY-3
  6
Continuous
100
AcDbLine
 10
88.91341399999998
 20
183.25
 30
0.0
 11
91.80096199999999
 21
183.25
 31
0.0
  0
LINE
  5
170
330
A
100
AcDbEntity
  8
LAY-3
  6
Continuous
100
AcDbLine
 10
94.39903800000001
 20
183.25
 30
0.0
 11
97.28658600000001
 21
183.25
 31
0.0
  0
LINE
  5
171
330
A
100
AcDbEntity
  8
LAY-3
  6
Continuous
100
AcDbLine
 10
97.92196
 20
183.25
 30
0.0
 11
103.6
 21
183.25
 31
0.0
  0
LINE
  5
172
330
A
100
AcDbEntity
  8
LAY-3
  6
Continuous
100
AcDbLine
 10
104.45
 20
183.25
 30
0.0
 11
111.15
 21
183.25
 31
0.0
  0
LINE
  5
173
330
A
100
AcDbEntity
  8
LAY-3
  6
Continuous
100
AcDbLine
 10
111.9
 20
183.25
 30
0.0
 11
113.6
 21
183.25
 31
0.0
  0
LINE
  5
174
330
A
100
AcDbEntity
  8
LAY-3
  6
Continuous
100
AcDbLine
 10
116.770956
 20
183.25
 30
0.0
 11
118.8
 21
183.25
 31
0.0
  0
LINE
  5
175
330
A
100
AcDbEntity
  8
LAY-3
  6
Continuous
100
AcDbLine
 10
84.1
 20
183.0
 30
0.0
 11
85.84999999999999
 21
183.0
 31
0.0
  0
LINE
  5
176
330
A
100
AcDbEntity
  8
LAY-3
  6
Continuous
100
AcDbLine
 10
89.12005
 20
183.0
 30
0.0
 11
97.07995
 21
183.0
 31
0.0
  0
LINE
  5
177
330
A
100
AcDbEntity
  8
LAY-3
  6
Continuous
100
AcDbLine
 10
97.743684
 20
183.0
 30
0.0
 11
103.6
 21
183.0
 31
0.0
  0
LINE
  5
178
330
A
100
AcDbEntity
  8
LAY-3
  6
Continuous
100
AcDbLine
 10
104.45
 20
183.0
 30
0.0
 11
111.15
 21
183.0
 31
0.0
  0
LINE
  5
179
330
A
100
AcDbEntity
  8
LAY-3
  6
Continuous
100
AcDbLine
 10
111.9
 20
183.0
 30
0.0
 11
113.6
 21
183.0
 31
0.0
  0
LINE
  5
17A
330
A
100
AcDbEntity
  8
LAY-3
  6
Continuous
100
AcDbLine
 10
116.935478
 20
183.0
 30
0.0
 11
118.8
 21
183.0
 31
0.0
  0
LINE
  5
17B
330
A
100
AcDbEntity
  8
LAY-3
  6
Continuous
100
AcDbLine
 10
89.35467
 20
182.75
 30
0.0
 11
96.84533000000001
 21
182.75
 31
0.0
  0
LINE
  5
17C
330
A
100
AcDbEntity
  8
LAY-3
  6
Continuous
100
AcDbLine
 10
89.62293199999997
 20
182.5
 30
0.0
 11
96.57706799999999
 21
182.5
 31
0.0
  0
LINE
  5
17D
330
A
100
AcDbEntity
  8
LAY-3
  6
Continuous
100
AcDbLine
 10
89.93337700000003
 20
182.25
 30
0.0
 11
96.26662299999999
 21
182.25
 31
0.0
  0
LINE
  5
17E
330
A
100
AcDbEntity
  8
LAY-3
  6
Continuous
100
AcDbLine
 10
90.29999999999999
 20
182.0
 30
0.0
 11
95.90000000000001
 21
182.0
 31
0.0
  0
LINE
  5
17F
330
A
100
AcDbEntity
  8
LAY-3
  6
Continuous
100
AcDbLine
 10
90.74893600000001
 20
181.75
 30
0.0
 11
95.45106399999999
 21
181.75
 31
0.0
  0
LINE
  5
180
330
A
100
AcDbEntity
  8
LAY-3
  6
Continuous
100
AcDbLine
 10
91.34216
 20
181.5
 30
0.0
 11
94.85784
 21
181.5
 31
0.0
  0
LINE
  5
181
330
A
100
AcDbEntity
  8
LAY-3
  6
Continuous
100
AcDbLine
 10
92.37370799999998
 20
181.25
 30
0.0
 11
93.82629200000002
 21
181.25
 31
0.0
  0
LINE
  5
3CF
330
A
100
AcDbEntity
  8
LAY-3
  6
Continuous
 62
     2
100
AcDbLine
 10
27.987
 20
205.0
 30
0.0
 11
343.0021669999999
 21
205.0
 31
0.0
  0
LINE
  5
3D0
330
A
100
AcDbEntity
  8
LAY-3
  6
Continuous
 62
     2
100
AcDbLine
 10
298.0
 20
165.622
 30
0.0
 11
298.0
 21
26.222
 31
0.0
  0
LINE
  5
3D1
330
A
100
AcDbEntity
  8
LAY-3
  6
Continuous
 62
     2
100
AcDbLine
 10
27.987
 20
26.222
 30
0.0
 11
27.987
 21
205.0
 31
0.0
  0
LINE
  5
3D2
330
A
100
AcDbEntity
  8
LAY-3
  6
Continuous
 62
     2
100
AcDbLine
 10
343.0021670000001
 20
26.222
 30
0.0
 11
27.987
 21
26.222
 31
0.0
  0
LINE
  5
3D3
330
A
100
AcDbEntity
  8
LAY-3
  6
Continuous
 62
     2
100
AcDbLine
 10
343.002167
 20
88.82199999999997
 30
0.0
 11
27.987
 21
88.822
 31
0.0
  0
LINE
  5
3D4
330
A
100
AcDbEntity
  8
LAY-3
  6
Continuous
 62
     2
100
AcDbLine
 10
343.002167
 20
95.922
 30
0.0
 11
27.987
 21
95.922
 31
0.0
  0
LINE
  5
3D5
330
A
100
AcDbEntity
  8
LAY-3
  6
Continuous
 62
     2
100
AcDbLine
 10
343.002167
 20
158.522
 30
0.0
 11
27.987
 21
158.522
 31
0.0
  0
LINE
  5
3D6
330
A
100
AcDbEntity
  8
LAY-3
  6
Continuous
 62
     2
100
AcDbLine
 10
343.002167
 20
165.622
 30
0.0
 11
27.987
 21
165.622
 31
0.0
  0
LINE
  5
3D7
330
A
100
AcDbEntity
  8
LAY-3
  6
Continuous
 62
     2
100
AcDbLine
 10
72.98916700000003
 20
165.622
 30
0.0
 11
72.98916700000003
 21
26.222
 31
0.0
  0
LINE
  5
3D8
330
A
100
AcDbEntity
  8
LAY-3
  6
Continuous
 62
     2
100
AcDbLine
 10
117.991333
 20
165.622
 30
0.0
 11
117.991333
 21
26.222
 31
0.0
  0
LINE
  5
3D9
330
A
100
AcDbEntity
  8
LAY-3
  6
Continuous
 62
     2
100
AcDbLine
 10
162.9935
 20
165.622
 30
0.0
 11
162.9935
 21
26.222
 31
0.0
  0
LINE
  5
3DA
330
A
100
AcDbEntity
  8
LAY-3
  6
Continuous
 62
     2
100
AcDbLine
 10
207.995667
 20
165.622
 30
0.0
 11
207.995667
 21
26.222
 31
0.0
  0
LINE
  5
3DB
330
A
100
AcDbEntity
  8
LAY-3
  6
Continuous
 62
     2
100
AcDbLine
 10
252.997833
 20
165.622
 30
0.0
 11
252.997833
 21
26.222
 31
0.0
  0
TEXT
  5
3DC
330
A
100
AcDbEntity
  8
LAY-3
  6
Continuous
100
AcDbText
 10
38.609
 20
160.042
 30
0.0
 40
3.5
  1
20Ａ\U+00D7120Ｌ
 41
0.8536585365853655
  7
EXCADSTD
 72
     5
 11
63.109
 21
160.042
 31
0.0
100
AcDbText
  0
TEXT
  5
3DD
330
A
100
AcDbEntity
  8
LAY-3
  6
Continuous
100
AcDbText
 10
83.60899999999999
 20
160.242
 30
0.0
 40
3.5
  1
25Ａ\U+00D7120Ｌ
 41
0.8536585365853662
  7
EXCADSTD
 72
     5
 11
108.109
 21
160.242
 31
0.0
100
AcDbText
  0
TEXT
  5
3DE
330
A
100
AcDbEntity
  8
LAY-3
  6
Continuous
100
AcDbText
 10
129.309
 20
160.042
 30
0.0
 40
3.5
  1
32Ａ\U+00D7175Ｌ
 41
0.8536585365853659
  7
EXCADSTD
 72
     5
 11
153.809
 21
160.042
 31
0.0
100
AcDbText
  0
TEXT
  5
3DF
330
A
100
AcDbEntity
  8
LAY-3
  6
Continuous
100
AcDbText
 10
173.909
 20
160.442
 30
0.0
 40
3.5
  1
40Ａ\U+00D7175Ｌ
 41
0.8536585365853659
  7
EXCADSTD
 72
     5
 11
198.409
 21
160.442
 31
0.0
100
AcDbText
  0
TEXT
  5
3E0
330
A
100
AcDbEntity
  8
LAY-3
  6
Continuous
100
AcDbText
 10
218.609
 20
160.242
 30
0.0
 40
3.5
  1
50Ａ\U+00D7175Ｌ
 41
0.8536585365853659
  7
EXCADSTD
 72
     5
 11
243.109
 21
160.242
 31
0.0
100
AcDbText
  0
TEXT
  5
3E1
330
A
100
AcDbEntity
  8
LAY-3
  6
Continuous
100
AcDbText
 10
262.209
 20
160.042
 30
0.0
 40
3.5
  1
65Ａ\U+00D7175Ｌ
 41
0.9581881533101048
  7
EXCADSTD
 72
     5
 11
289.709
 21
160.042
 31
0.0
100
AcDbText
  0
TEXT
  5
3E3
330
A
100
AcDbEntity
  8
LAY-3
  6
Continuous
100
AcDbText
 10
37.00683300000001
 20
90.442
 30
0.0
 40
3.5
  1
100Ａ\U+00D7225Ｌ
 41
0.8540372670807455
  7
EXCADSTD
 72
     5
 11
64.50683300000001
 21
90.442
 31
0.0
100
AcDbText
  0
TEXT
  5
3E4
330
A
100
AcDbEntity
  8
LAY-3
  6
Continuous
100
AcDbText
 10
80.50683300000001
 20
90.442
 30
0.0
 40
3.5
  1
125Ａ\U+00D7225Ｌ
 41
0.8540372670807451
  7
EXCADSTD
 72
     5
 11
108.006833
 21
90.442
 31
0.0
100
AcDbText
  0
TEXT
  5
3E5
330
A
100
AcDbEntity
  8
LAY-3
  6
Continuous
100
AcDbText
 10
127.406833
 20
90.74200000000001
 30
0.0
 40
3.5
  1
150Ａ\U+00D7225Ｌ
 41
0.8540372670807451
  7
EXCADSTD
 72
     5
 11
154.906833
 21
90.74200000000001
 31
0.0
100
AcDbText
  0
TEXT
  5
3E6
330
A
100
AcDbEntity
  8
LAY-3
  6
Continuous
100
AcDbText
 10
171.806833
 20
90.442
 30
0.0
 40
3.5
  1
200Ａ\U+00D7250Ｌ
 41
0.8540372670807453
  7
EXCADSTD
 72
     5
 11
199.306833
 21
90.442
 31
0.0
100
AcDbText
  0
LINE
  5
3E7
330
A
100
AcDbEntity
  8
LAY-3
  6
Continuous
100
AcDbLine
 10
84.1
 20
188.5
 30
0.0
 11
84.1
 21
182.75
 31
0.0
  0
LINE
  5
3E8
330
A
100
AcDbEntity
  8
LAY-3
  6
Continuous
100
AcDbLine
 10
85.84999999999999
 20
188.5
 30
0.0
 11
85.84999999999999
 21
182.75
 31
0.0
  0
CIRCLE
  5
3E9
330
A
100
AcDbEntity
  8
LAY-3
  6
Continuous
100
AcDbCircle
 10
93.1
 20
186.5
 30
0.0
 40
2.649999999999999
  0
CIRCLE
  5
3EA
330
A
100
AcDbEntity
  8
LAY-3
  6
Continuous
100
AcDbCircle
 10
93.1
 20
186.5
 30
0.0
 40
3.5
  0
CIRCLE
  5
3EB
330
A
100
AcDbEntity
  8
LAY-3
  6
Continuous
100
AcDbCircle
 10
93.1
 20
186.5
 30
0.0
 40
5.299999999999998
  0
LINE
  5
3EC
330
A
100
AcDbEntity
  8
LAY-3
  6
Continuous
100
AcDbLine
 10
80.6
 20
190.25
 30
0.0
 11
80.6
 21
188.5
 31
0.0
  0
LINE
  5
3ED
330
A
100
AcDbEntity
  8
LAY-3
  6
Continuous
100
AcDbLine
 10
84.1
 20
182.75
 30
0.0
 11
85.84999999999999
 21
182.75
 31
0.0
  0
ARC
  5
3EE
330
A
100
AcDbEntity
  8
LAY-3
  6
Continuous
100
AcDbCircle
 10
93.1
 20
186.5
 30
0.0
 40
5.814962999999998
100
AcDbArc
 50
139.842723
 51
159.882882
  0
ARC
  5
3EF
330
A
100
AcDbEntity
  8
LAY-3
  6
Continuous
100
AcDbCircle
 10
93.1
 20
186.5
 30
0.0
 40
5.814962999999998
100
AcDbArc
 50
20.117118
 51
40.157277
  0
LINE
  5
3F0
330
A
100
AcDbEntity
  8
LAY-3
  6
Continuous
100
AcDbLine
 10
103.6
 20
184.5
 30
0.0
 11
103.6
 21
182.75
 31
0.0
  0
LINE
  5
3F1
330
A
100
AcDbEntity
  8
LAY-3
  6
Continuous
100
AcDbLine
 10
103.6
 20
190.25
 30
0.0
 11
103.6
 21
188.5
 31
0.0
  0
ARC
  5
3F2
330
A
100
AcDbEntity
  8
LAY-3
  6
Continuous
100
AcDbCircle
 10
93.1
 20
186.5
 30
0.0
 40
5.814962999999998
100
AcDbArc
 50
319.842723
 51
348.135428
  0
LINE
  5
3F3
330
A
100
AcDbEntity
  8
LAY-3
  6
Continuous
100
AcDbLine
 10
103.6
 20
188.5
 30
0.0
 11
99.994004
 21
184.5
 31
0.0
  0
LINE
  5
3F4
330
A
100
AcDbEntity
  8
LAY-3
  6
Continuous
100
AcDbLine
 10
101.67152
 20
188.5
 30
0.0
 11
98.79073400000001
 21
185.304449
 31
0.0
  0
LINE
  5
3F5
330
A
100
AcDbEntity
  8
LAY-3
  6
Continuous
100
AcDbLine
 10
104.45
 20
190.25
 30
0.0
 11
104.45
 21
182.75
 31
0.0
  0
LINE
  5
3F6
330
A
100
AcDbEntity
  8
LAY-3
  6
Continuous
100
AcDbLine
 10
106.2
 20
187.25
 30
0.0
 11
111.15
 21
187.25
 31
0.0
  0
LINE
  5
3F7
330
A
100
AcDbEntity
  8
LAY-3
  6
Continuous
100
AcDbLine
 10
106.2
 20
185.75
 30
0.0
 11
111.15
 21
185.75
 31
0.0
  0
LINE
  5
3F8
330
A
100
AcDbEntity
  8
LAY-3
  6
Continuous
100
AcDbLine
 10
111.9
 20
190.25
 30
0.0
 11
111.9
 21
182.75
 31
0.0
  0
LINE
  5
3F9
330
A
100
AcDbEntity
  8
LAY-3
  6
Continuous
100
AcDbLine
 10
118.8
 20
190.25
 30
0.0
 11
118.8
 21
182.75
 31
0.0
  0
LINE
  5
3FA
330
A
100
AcDbEntity
  8
LAY-3
  6
Continuous
100
AcDbLine
 10
117.1
 20
182.75
 30
0.0
 11
113.6
 21
188.068436
 31
0.0
  0
LINE
  5
3FB
330
A
100
AcDbEntity
  8
LAY-3
  6
Continuous
100
AcDbLine
 10
113.6
 20
190.25
 30
0.0
 11
117.1
 21
184.931564
 31
0.0
  0
LINE
  5
3FC
330
A
100
AcDbEntity
  8
LAY-3
  6
Continuous
100
AcDbLine
 10
111.15
 20
190.25
 30
0.0
 11
111.15
 21
188.5
 31
0.0
  0
LINE
  5
3FD
330
A
100
AcDbEntity
  8
LAY-3
  6
Continuous
100
AcDbLine
 10
111.15
 20
187.25
 30
0.0
 11
111.15
 21
185.75
 31
0.0
  0
LINE
  5
3FE
330
A
100
AcDbEntity
  8
LAY-3
  6
Continuous
100
AcDbLine
 10
111.15
 20
184.5
 30
0.0
 11
111.15
 21
182.75
 31
0.0
  0
LINE
  5
3FF
330
A
100
AcDbEntity
  8
LAY-3
  6
Continuous
100
AcDbLine
 10
106.2
 20
188.5
 30
0.0
 11
111.15
 21
188.5
 31
0.0
  0
LINE
  5
400
330
A
100
AcDbEntity
  8
LAY-3
  6
Continuous
100
AcDbLine
 10
104.45
 20
190.25
 30
0.0
 11
111.15
 21
190.25
 31
0.0
  0
LINE
  5
401
330
A
100
AcDbEntity
  8
LAY-3
  6
Continuous
100
AcDbLine
 10
106.2
 20
185.75
 30
0.0
 11
106.2
 21
184.5
 31
0.0
  0
LINE
  5
402
330
A
100
AcDbEntity
  8
LAY-3
  6
Continuous
100
AcDbLine
 10
104.45
 20
182.75
 30
0.0
 11
111.15
 21
182.75
 31
0.0
  0
LINE
  5
403
330
A
100
AcDbEntity
  8
LAY-3
  6
Continuous
100
AcDbLine
 10
106.2
 20
184.5
 30
0.0
 11
111.15
 21
184.5
 31
0.0
  0
LINE
  5
404
330
A
100
AcDbEntity
  8
LAY-3
  6
Continuous
100
AcDbLine
 10
113.6
 20
188.068436
 30
0.0
 11
113.6
 21
182.75
 31
0.0
  0
LINE
  5
405
330
A
100
AcDbEntity
  8
LAY-3
  6
Continuous
100
AcDbLine
 10
111.9
 20
190.25
 30
0.0
 11
113.6
 21
190.25
 31
0.0
  0
LINE
  5
406
330
A
100
AcDbEntity
  8
LAY-3
  6
Continuous
100
AcDbLine
 10
117.1
 20
190.25
 30
0.0
 11
118.8
 21
190.25
 31
0.0
  0
LINE
  5
407
330
A
100
AcDbEntity
  8
LAY-3
  6
Continuous
100
AcDbLine
 10
111.9
 20
182.75
 30
0.0
 11
113.6
 21
182.75
 31
0.0
  0
LINE
  5
408
330
A
100
AcDbEntity
  8
LAY-3
  6
Continuous
100
AcDbLine
 10
117.1
 20
182.75
 30
0.0
 11
118.8
 21
182.75
 31
0.0
  0
LINE
  5
409
330
A
100
AcDbEntity
  8
LAY-3
  6
Continuous
100
AcDbLine
 10
117.1
 20
190.25
 30
0.0
 11
117.1
 21
184.931564
 31
0.0
  0
LINE
  5
40A
330
A
100
AcDbEntity
  8
LAY-3
  6
Continuous
100
AcDbLine
 10
80.6
 20
188.5
 30
0.0
 11
84.1
 21
188.5
 31
0.0
  0
LINE
  5
40B
330
A
100
AcDbEntity
  8
LAY-3
  6
Continuous
100
AcDbLine
 10
85.84999999999999
 20
188.5
 30
0.0
 11
87.639799
 21
188.5
 31
0.0
  0
LINE
  5
40C
330
A
100
AcDbEntity
  8
LAY-3
  6
Continuous
100
AcDbLine
 10
80.6
 20
190.25
 30
0.0
 11
88.65575699999999
 21
190.25
 31
0.0
  0
LINE
  5
40D
330
A
100
AcDbEntity
  8
LAY-3
  6
Continuous
100
AcDbLine
 10
97.544243
 20
190.25
 30
0.0
 11
103.6
 21
190.25
 31
0.0
  0
LINE
  5
40E
330
A
100
AcDbEntity
  8
LAY-3
  6
Continuous
100
AcDbLine
 10
98.56020100000002
 20
188.5
 30
0.0
 11
101.67152
 21
188.5
 31
0.0
  0
LINE
  5
40F
330
A
100
AcDbEntity
  8
LAY-3
  6
Continuous
100
AcDbLine
 10
97.544243
 20
182.75
 30
0.0
 11
103.6
 21
182.75
 31
0.0
  0
LINE
  5
410
330
A
100
AcDbEntity
  8
LAY-3
  6
Continuous
100
AcDbLine
 10
99.994004
 20
184.5
 30
0.0
 11
103.6
 21
184.5
 31
0.0
  0
LINE
  5
411
330
A
100
AcDbEntity
  8
LAY-3
  6
Continuous
100
AcDbLine
 10
106.2
 20
188.5
 30
0.0
 11
106.2
 21
187.25
 31
0.0
  0
TEXT
  5
414
330
A
100
AcDbEntity
  8
LAY-3
  6
Continuous
 62
     1
100
AcDbText
 10
-76.01415159992241
 20
-34.06600067582332
 30
0.0
 40
11.25
  1
スケールは１／１０となっています。必要に応じてサイズを１０倍して下さい。
 41
0.9927903163580243
  7
EXCADTTF1
 72
     5
 11
446.4858484000775
 21
-34.06600067582332
 31
0.0
100
AcDbText
  0
MTEXT
  5
426
330
A
100
AcDbEntity
  8
LAY-3
  6
Continuous
100
AcDbMText
 10
182.4058348461132
 20
185.3947260102895
 30
0.0
 40
10.0
 41
1.0
 71
     5
 72
     1
  1
TOUGHLEX
  7
EXCADSTD
 73
     1
 44
1.0
1001
ACAD
1000
MTEXTBEGIN
1070
    73
1070
     1
1070
    44
1040
1.0
1070
    74
1070
     0
1000
MTEXTEND
  0
TEXT
  5
3023
330
A
100
AcDbEntity
  8
LAY-3
  6
Continuous
100
AcDbText
 10
216.809
 20
90.442
 30
0.0
 40
3.5
  1
250Ａ\U+00D7250Ｌ
 41
0.8540372670807453
  7
EXCADSTD
 72
     5
 11
244.309
 21
90.442
 31
0.0
100
AcDbText
  0
LINE
  5
3024
330
A
100
AcDbEntity
  8
LAY-3
  6
Continuous
 62
     2
100
AcDbLine
 10
343.0021669999999
 20
205.0
 30
0.0
 11
343.0021670000001
 21
26.222
 31
0.0
  0
TEXT
  5
3025
330
A
100
AcDbEntity
  8
LAY-3
  6
Continuous
100
AcDbText
 10
305.822
 20
160.142
 30
0.0
 40
3.5
  1
80Ａ\U+00D7175Ｌ
 41
0.9581881533101029
  7
EXCADSTD
 72
     5
 11
333.3219999999999
 21
160.142
 31
0.0
100
AcDbText
  0
TEXT
  5
3026
330
A
100
AcDbEntity
  8
LAY-3
  6
Continuous
100
AcDbText
 10
261.8111660000001
 20
90.442
 30
0.0
 40
3.5
  1
300Ａ\U+00D7250Ｌ
 41
0.8540372670807435
  7
EXCADSTD
 72
     5
 11
289.311166
 21
90.442
 31
0.0
100
AcDbText
  0
LINE
  5
3029
330
A
100
AcDbEntity
  8
LAY-3
  6
Continuous
 62
     2
100
AcDbLine
 10
298.0
 20
95.922
 30
0.0
 11
343.002167
 21
88.82199999999997
 31
0.0
  0
LINE
  5
302A
330
A
100
AcDbEntity
  8
LAY-3
  6
Continuous
 62
     2
100
AcDbLine
 10
298.0
 20
88.82199999999997
 30
0.0
 11
343.0021670000001
 21
26.22200000000001
 31
0.0
  0
LINE
  5
302C
330
A
100
AcDbEntity
  8
LAY-3
  6
Continuous
 62
     2
100
AcDbLine
 10
343.002167
 20
88.82199999999997
 30
0.0
 11
298.0
 21
26.222
 31
0.0
  0
LINE
  5
302D
330
A
100
AcDbEntity
  8
LAY-3
  6
Continuous
 62
     2
100
AcDbLine
 10
298.0
 20
88.82199999999997
 30
0.0
 11
343.002167
 21
95.922
 31
0.0
  0
LINE
  5
3038
330
A
100
AcDbEntity
  8
LAY-1
 62
     3
100
AcDbLine
 10
49.93458925240759
 20
127.222
 30
0.0
 11
49.93458925240759
 21
124.9144993608436
 31
0.0
  0
LINE
  5
3039
330
A
100
AcDbEntity
  8
LAY-1
 62
     3
100
AcDbLine
 10
51.04157774759244
 20
127.222
 30
0.0
 11
51.04157774759244
 21
124.9144993608436
 31
0.0
  0
LINE
  5
303A
330
A
100
AcDbEntity
  8
LAY-1
 62
     1
100
AcDbLine
 10
43.98808350000002
 20
127.222
 30
0.0
 11
56.98808350000001
 21
127.222
 31
0.0
  0
LINE
  5
303B
330
A
100
AcDbEntity
  8
LAY-1
 62
     3
100
AcDbLine
 10
46.3725815825311
 20
129.2220038349385
 30
0.0
 11
46.9172461113377
 21
129.2220038349385
 31
0.0
  0
ARC
  5
303C
330
A
100
AcDbEntity
  8
LAY-1
 62
     3
100
AcDbCircle
 10
46.3725815825311
 20
129.4065019174693
 30
0.0
 40
0.1844980825308165
100
AcDbArc
 50
180.0
 51
270.0
  0
ARC
  5
303D
330
A
100
AcDbEntity
  8
LAY-1
 62
     3
100
AcDbCircle
 10
46.9172461113377
 20
130.4519910518106
 30
0.0
 40
1.229987216872109
100
AcDbArc
 50
270.0
 51
303.9539262743826
  0
LINE
  5
303E
330
A
100
AcDbEntity
  8
LAY-1
 62
     3
100
AcDbLine
 10
47.89462339735258
 20
129.627268599661
 30
0.0
 11
47.60422602783376
 21
129.431732678652
 31
0.0
  0
ARC
  5
303F
330
A
100
AcDbEntity
  8
LAY-1
 62
     3
100
AcDbCircle
 10
48.58160331384818
 20
128.6070102265023
 30
0.0
 40
1.229987216872109
100
AcDbArc
 50
56.0437594488377
 51
123.9539262743825
  0
LINE
  5
3040
330
A
100
AcDbEntity
  8
LAY-1
 62
     3
100
AcDbLine
 10
49.26862443980429
 20
129.6272408505081
 30
0.0
 11
49.64703800098334
 21
129.3724179656024
 31
0.0
  0
LINE
  5
3041
330
A
100
AcDbEntity
  8
LAY-1
 62
     3
100
AcDbLine
 10
49.93458925240759
 20
127.222
 30
0.0
 11
49.93458925240759
 21
129.5295006391564
 31
0.0
  0
LINE
  5
3042
330
A
100
AcDbEntity
  8
LAY-1
 62
     3
100
AcDbLine
 10
54.60358541746939
 20
129.2220038349385
 30
0.0
 11
54.05892088866233
 21
129.2220038349385
 31
0.0
  0
ARC
  5
3043
330
A
100
AcDbEntity
  8
LAY-1
 62
     3
100
AcDbCircle
 10
54.05892088866233
 20
130.4519910518106
 30
0.0
 40
1.229987216872109
100
AcDbArc
 50
236.0460737256175
 51
270.0
  0
LINE
  5
3044
330
A
100
AcDbEntity
  8
LAY-1
 62
     3
100
AcDbLine
 10
53.0815436026479
 20
129.627268599661
 30
0.0
 11
53.37194097216627
 21
129.431732678652
 31
0.0
  0
ARC
  5
3045
330
A
100
AcDbEntity
  8
LAY-1
 62
     3
100
AcDbCircle
 10
52.39456368615186
 20
128.6070102265023
 30
0.0
 40
1.229987216872109
100
AcDbArc
 50
56.04607372561738
 51
123.9562405511623
  0
LINE
  5
3046
330
A
100
AcDbEntity
  8
LAY-1
 62
     3
100
AcDbLine
 10
51.7075425601962
 20
129.6272408505081
 30
0.0
 11
51.32912899901667
 21
129.3724179656024
 31
0.0
  0
LINE
  5
3047
330
A
100
AcDbEntity
  8
LAY-1
 62
     3
100
AcDbLine
 10
51.04157774759244
 20
127.222
 30
0.0
 11
51.04157774759244
 21
129.5295006391564
 31
0.0
  0
ARC
  5
3048
330
A
100
AcDbEntity
  8
LAY-1
 62
     3
100
AcDbCircle
 10
49.75009116987678
 20
129.5254525592034
 30
0.0
 40
0.1844980825308165
100
AcDbArc
 50
236.0437594488377
 51
0.0
  0
ARC
  5
3049
330
A
100
AcDbEntity
  8
LAY-1
 62
     3
100
AcDbCircle
 10
49.99608861325135
 20
129.5295006391564
 30
0.0
 40
0.0614993608436055
100
AcDbArc
 50
90.0
 51
180.0
  0
ARC
  5
304A
330
A
100
AcDbEntity
  8
LAY-1
 62
     3
100
AcDbCircle
 10
50.98007838674914
 20
129.5295006391564
 30
0.0
 40
0.0614993608436055
100
AcDbArc
 50
0.0
 51
90.0
  0
ARC
  5
304B
330
A
100
AcDbEntity
  8
LAY-1
 62
     3
100
AcDbCircle
 10
51.22607583012324
 20
129.5254525592034
 30
0.0
 40
0.1844980825308165
100
AcDbArc
 50
180.0
 51
303.9562405511623
  0
LINE
  5
304C
330
A
100
AcDbEntity
  8
LAY-1
  6
Continuous
 62
     3
100
AcDbLine
 10
49.99608861325135
 20
129.5910000000001
 30
0.0
 11
50.98007838674914
 21
129.5910000000001
 31
0.0
  0
LINE
  5
304D
330
A
100
AcDbEntity
  8
LAY-1
 62
     3
100
AcDbLine
 10
44.48808350000001
 20
129.722
 30
0.0
 11
44.48808350000001
 21
124.722
 31
0.0
  0
LINE
  5
304E
330
A
100
AcDbEntity
  8
LAY-1
 62
     3
100
AcDbLine
 10
44.78808350000019
 20
132.2219958964799
 30
0.0
 11
44.78808350000019
 21
122.2220041035203
 31
0.0
  0
LINE
  5
304F
330
A
100
AcDbEntity
  8
LAY-1
 62
     3
100
AcDbLine
 10
46.18808350000029
 20
132.2219958964799
 30
0.0
 11
46.18808349999983
 21
122.2220041035203
 31
0.0
  0
LINE
  5
3050
330
A
100
AcDbEntity
  8
LAY-1
 62
     3
100
AcDbLine
 10
44.78808350000019
 20
130.0220000000002
 30
0.0
 11
44.48808350000001
 21
129.722
 31
0.0
  0
LINE
  5
3051
330
A
100
AcDbEntity
  8
LAY-1
 62
     3
100
AcDbLine
 10
44.78808350000019
 20
124.422
 30
0.0
 11
44.48808350000001
 21
124.722
 31
0.0
  0
ARC
  5
3052
330
A
100
AcDbEntity
  8
LAY-1
 62
     3
100
AcDbCircle
 10
54.60358541746939
 20
129.4065019174693
 30
0.0
 40
0.1844980825308165
100
AcDbArc
 50
270.0
 51
0.0
  0
LINE
  5
3053
330
A
100
AcDbEntity
  8
LAY-1
 62
     3
100
AcDbLine
 10
56.48808350000002
 20
129.722
 30
0.0
 11
56.48808350000002
 21
124.722
 31
0.0
  0
LINE
  5
3054
330
A
100
AcDbEntity
  8
LAY-1
 62
     3
100
AcDbLine
 10
56.18808350000029
 20
132.2219958964799
 30
0.0
 11
56.18808350000029
 21
122.2220041035203
 31
0.0
  0
LINE
  5
3055
330
A
100
AcDbEntity
  8
LAY-1
 62
     3
100
AcDbLine
 10
54.78808350000019
 20
132.2219958964799
 30
0.0
 11
54.78808350000019
 21
122.2220041035203
 31
0.0
  0
LINE
  5
3056
330
A
100
AcDbEntity
  8
LAY-1
 62
     3
100
AcDbLine
 10
56.18808350000029
 20
130.0220000000002
 30
0.0
 11
56.48808350000002
 21
129.722
 31
0.0
  0
LINE
  5
3057
330
A
100
AcDbEntity
  8
LAY-1
 62
     3
100
AcDbLine
 10
56.18808350000029
 20
132.2219958964799
 30
0.0
 11
54.78808350000019
 21
132.2219958964799
 31
0.0
  0
LINE
  5
3058
330
A
100
AcDbEntity
  8
LAY-1
 62
     3
100
AcDbLine
 10
56.18808350000029
 20
124.422
 30
0.0
 11
56.48808350000002
 21
124.722
 31
0.0
  0
LINE
  5
3059
330
A
100
AcDbEntity
  8
LAY-1
 62
     3
100
AcDbLine
 10
56.18808350000029
 20
122.2220041035203
 30
0.0
 11
54.78808350000019
 21
122.2220041035203
 31
0.0
  0
LINE
  5
305A
330
A
100
AcDbEntity
  8
LAY-1
 62
     3
100
AcDbLine
 10
44.78808350000019
 20
132.2219958964799
 30
0.0
 11
46.18808350000029
 21
132.2219958964799
 31
0.0
  0
LINE
  5
305B
330
A
100
AcDbEntity
  8
LAY-1
 62
     3
100
AcDbLine
 10
44.78808350000019
 20
122.2220041035203
 30
0.0
 11
46.18808349999983
 21
122.2220041035203
 31
0.0
  0
LINE
  5
305C
330
A
100
AcDbEntity
  8
LAY-1
 62
     3
100
AcDbLine
 10
46.3725815825311
 20
125.2219961650617
 30
0.0
 11
46.9172461113377
 21
125.2219961650617
 31
0.0
  0
ARC
  5
305D
330
A
100
AcDbEntity
  8
LAY-1
 62
     3
100
AcDbCircle
 10
46.3725815825311
 20
125.0374980825309
 30
0.0
 40
0.1844980825308165
100
AcDbArc
 50
90.0
 51
180.0
  0
ARC
  5
305E
330
A
100
AcDbEntity
  8
LAY-1
 62
     3
100
AcDbCircle
 10
46.9172461113377
 20
123.9920089481896
 30
0.0
 40
1.229987216872109
100
AcDbArc
 50
56.04607372561738
 51
90.0
  0
LINE
  5
305F
330
A
100
AcDbEntity
  8
LAY-1
 62
     3
100
AcDbLine
 10
47.89462339735258
 20
124.8167314003392
 30
0.0
 11
47.60422602783376
 21
125.0122673213482
 31
0.0
  0
ARC
  5
3060
330
A
100
AcDbEntity
  8
LAY-1
 62
     3
100
AcDbCircle
 10
48.58160331384818
 20
125.8369897734979
 30
0.0
 40
1.229987216872109
100
AcDbArc
 50
236.0460737256175
 51
303.9562405511623
  0
LINE
  5
3061
330
A
100
AcDbEntity
  8
LAY-1
 62
     3
100
AcDbLine
 10
49.26862443980429
 20
124.8167591494919
 30
0.0
 11
49.64703800098334
 21
125.0715820343978
 31
0.0
  0
LINE
  5
3062
330
A
100
AcDbEntity
  8
LAY-1
 62
     3
100
AcDbLine
 10
54.60358541746939
 20
125.2219961650617
 30
0.0
 11
54.05892088866233
 21
125.2219961650617
 31
0.0
  0
ARC
  5
3063
330
A
100
AcDbEntity
  8
LAY-1
 62
     3
100
AcDbCircle
 10
54.05892088866233
 20
123.9920089481896
 30
0.0
 40
1.229987216872109
100
AcDbArc
 50
90.0
 51
123.9539262743825
  0
LINE
  5
3064
330
A
100
AcDbEntity
  8
LAY-1
 62
     3
100
AcDbLine
 10
53.0815436026479
 20
124.8167314003392
 30
0.0
 11
53.37194097216627
 21
125.0122673213482
 31
0.0
  0
ARC
  5
3065
330
A
100
AcDbEntity
  8
LAY-1
 62
     3
100
AcDbCircle
 10
52.39456368615186
 20
125.8369897734979
 30
0.0
 40
1.229987216872109
100
AcDbArc
 50
236.0437594488377
 51
303.9539262743826
  0
LINE
  5
3066
330
A
100
AcDbEntity
  8
LAY-1
 62
     3
100
AcDbLine
 10
51.7075425601962
 20
124.8167591494919
 30
0.0
 11
51.32912899901667
 21
125.0715820343978
 31
0.0
  0
ARC
  5
3067
330
A
100
AcDbEntity
  8
LAY-1
 62
     3
100
AcDbCircle
 10
49.75009116987678
 20
124.9185474407968
 30
0.0
 40
0.1844980825308165
100
AcDbArc
 50
0.0
 51
123.9562405511623
  0
ARC
  5
3068
330
A
100
AcDbEntity
  8
LAY-1
 62
     3
100
AcDbCircle
 10
49.99608861325135
 20
124.9144993608436
 30
0.0
 40
0.0614993608436055
100
AcDbArc
 50
180.0
 51
270.0
  0
ARC
  5
3069
330
A
100
AcDbEntity
  8
LAY-1
 62
     3
100
AcDbCircle
 10
50.98007838674914
 20
124.9144993608436
 30
0.0
 40
0.0614993608436055
100
AcDbArc
 50
270.0
 51
0.0
  0
ARC
  5
306A
330
A
100
AcDbEntity
  8
LAY-1
 62
     3
100
AcDbCircle
 10
51.22607583012324
 20
124.9185474407968
 30
0.0
 40
0.1844980825308165
100
AcDbArc
 50
56.0437594488377
 51
180.0
  0
LINE
  5
306B
330
A
100
AcDbEntity
  8
LAY-1
  6
Continuous
 62
     3
100
AcDbLine
 10
49.99608861325135
 20
124.8530000000001
 30
0.0
 11
50.98007838674914
 21
124.8530000000001
 31
0.0
  0
ARC
  5
306C
330
A
100
AcDbEntity
  8
LAY-1
 62
     3
100
AcDbCircle
 10
54.60358541746939
 20
125.0374980825309
 30
0.0
 40
0.1844980825308165
100
AcDbArc
 50
0.0
 51
90.0
  0
LINE
  5
306D
330
A
100
AcDbEntity
  8
LAY-1
 62
     1
100
AcDbLine
 10
88.99025050000004
 20
127.222
 30
0.0
 11
101.9902505
 21
127.222
 31
0.0
  0
LINE
  5
306E
330
A
100
AcDbEntity
  8
LAY-1
 62
     3
100
AcDbLine
 10
89.49025050000004
 20
129.922
 30
0.0
 11
89.49025050000004
 21
124.5220000000002
 31
0.0
  0
LINE
  5
306F
330
A
100
AcDbEntity
  8
LAY-1
 62
     3
100
AcDbLine
 10
89.79025050000021
 20
133.472
 30
0.0
 11
89.79025050000021
 21
120.972
 31
0.0
  0
LINE
  5
3070
330
A
100
AcDbEntity
  8
LAY-1
 62
     3
100
AcDbLine
 10
91.19025049999985
 20
133.472
 30
0.0
 11
91.19025049999985
 21
120.972
 31
0.0
  0
LINE
  5
3071
330
A
100
AcDbEntity
  8
LAY-1
 62
     3
100
AcDbLine
 10
89.79025050000021
 20
124.222
 30
0.0
 11
89.49025050000004
 21
124.5220000000002
 31
0.0
  0
LINE
  5
3072
330
A
100
AcDbEntity
  8
LAY-1
 62
     3
100
AcDbLine
 10
101.4902505
 20
129.922
 30
0.0
 11
101.4902505
 21
124.5220000000002
 31
0.0
  0
LINE
  5
3073
330
A
100
AcDbEntity
  8
LAY-1
 62
     3
100
AcDbLine
 10
101.1902505000003
 20
133.472
 30
0.0
 11
101.1902505000003
 21
120.972
 31
0.0
  0
LINE
  5
3074
330
A
100
AcDbEntity
  8
LAY-1
 62
     3
100
AcDbLine
 10
99.79025050000021
 20
133.472
 30
0.0
 11
99.79025050000021
 21
120.972
 31
0.0
  0
LINE
  5
3075
330
A
100
AcDbEntity
  8
LAY-1
 62
     3
100
AcDbLine
 10
101.1902504999998
 20
124.222
 30
0.0
 11
101.4902505
 21
124.5220000000002
 31
0.0
  0
LINE
  5
3076
330
A
100
AcDbEntity
  8
LAY-1
 62
     3
100
AcDbLine
 10
101.1902505000003
 20
120.972
 30
0.0
 11
99.79025050000021
 21
120.972
 31
0.0
  0
LINE
  5
3077
330
A
100
AcDbEntity
  8
LAY-1
 62
     3
100
AcDbLine
 10
89.79025050000021
 20
120.972
 30
0.0
 11
91.19025049999985
 21
120.972
 31
0.0
  0
LINE
  5
3079
330
A
100
AcDbEntity
  8
LAY-1
 62
     3
100
AcDbLine
 10
89.79025050000021
 20
130.222
 30
0.0
 11
89.49025050000004
 21
129.922
 31
0.0
  0
LINE
  5
307A
330
A
100
AcDbEntity
  8
LAY-1
 62
     3
100
AcDbLine
 10
101.1902504999998
 20
130.222
 30
0.0
 11
101.4902505
 21
129.922
 31
0.0
  0
LINE
  5
307B
330
A
100
AcDbEntity
  8
LAY-1
 62
     3
100
AcDbLine
 10
101.1902505000003
 20
133.472
 30
0.0
 11
99.79025050000021
 21
133.472
 31
0.0
  0
LINE
  5
307C
330
A
100
AcDbEntity
  8
LAY-1
 62
     3
100
AcDbLine
 10
89.79025050000021
 20
133.472
 30
0.0
 11
91.19025049999985
 21
133.472
 31
0.0
  0
LINE
  5
307E
330
A
100
AcDbEntity
  8
LAY-1
 62
     1
100
AcDbLine
 10
131.2424165000003
 20
127.222
 30
0.0
 11
149.7424164999998
 21
127.222
 31
0.0
  0
LINE
  5
307F
330
A
100
AcDbEntity
  8
LAY-1
 62
     3
100
AcDbLine
 10
147.3424165000002
 20
133.972
 30
0.0
 11
148.9424165000001
 21
133.972
 31
0.0
  0
LINE
  5
3080
330
A
100
AcDbEntity
  8
LAY-1
 62
     3
100
AcDbLine
 10
149.2424164999998
 20
130.422
 30
0.0
 11
149.2424165000002
 21
124.0220000000002
 31
0.0
  0
LINE
  5
3081
330
A
100
AcDbEntity
  8
LAY-1
 62
     3
100
AcDbLine
 10
148.9424165000001
 20
133.972
 30
0.0
 11
148.9424165000001
 21
120.472
 31
0.0
  0
LINE
  5
3082
330
A
100
AcDbEntity
  8
LAY-1
 62
     3
100
AcDbLine
 10
147.3424165000002
 20
133.972
 30
0.0
 11
147.3424165000002
 21
120.472
 31
0.0
  0
LINE
  5
3083
330
A
100
AcDbEntity
  8
LAY-1
 62
     3
100
AcDbLine
 10
148.9424165000001
 20
130.722
 30
0.0
 11
149.2424164999998
 21
130.422
 31
0.0
  0
LINE
  5
3084
330
A
100
AcDbEntity
  8
LAY-1
 62
     3
100
AcDbLine
 10
147.3424165000002
 20
120.472
 30
0.0
 11
148.9424165000001
 21
120.472
 31
0.0
  0
LINE
  5
3085
330
A
100
AcDbEntity
  8
LAY-1
 62
     3
100
AcDbLine
 10
148.9424165000001
 20
123.722
 30
0.0
 11
149.2424164999998
 21
124.0220000000002
 31
0.0
  0
LINE
  5
3086
330
A
100
AcDbEntity
  8
LAY-1
 62
     3
100
AcDbLine
 10
133.6424164999999
 20
133.972
 30
0.0
 11
132.0424165
 21
133.972
 31
0.0
  0
LINE
  5
3087
330
A
100
AcDbEntity
  8
LAY-1
 62
     3
100
AcDbLine
 10
131.7424165000002
 20
130.422
 30
0.0
 11
131.7424165000002
 21
124.0220000000002
 31
0.0
  0
LINE
  5
3088
330
A
100
AcDbEntity
  8
LAY-1
 62
     3
100
AcDbLine
 10
132.0424165
 20
133.972
 30
0.0
 11
132.0424165
 21
120.472
 31
0.0
  0
LINE
  5
3089
330
A
100
AcDbEntity
  8
LAY-1
 62
     3
100
AcDbLine
 10
133.6424164999999
 20
133.972
 30
0.0
 11
133.6424164999999
 21
120.472
 31
0.0
  0
LINE
  5
308A
330
A
100
AcDbEntity
  8
LAY-1
 62
     3
100
AcDbLine
 10
132.0424165
 20
130.722
 30
0.0
 11
131.7424165000002
 21
130.422
 31
0.0
  0
LINE
  5
308B
330
A
100
AcDbEntity
  8
LAY-1
 62
     3
100
AcDbLine
 10
133.6424164999999
 20
120.472
 30
0.0
 11
132.0424165
 21
120.472
 31
0.0
  0
LINE
  5
308C
330
A
100
AcDbEntity
  8
LAY-1
 62
     3
100
AcDbLine
 10
132.0424165
 20
123.722
 30
0.0
 11
131.7424165000002
 21
124.0220000000002
 31
0.0
  0
LINE
  5
308E
330
A
100
AcDbEntity
  8
LAY-1
 62
     3
100
AcDbLine
 10
184.6874043889276
 20
127.222
 30
0.0
 11
184.6874043889276
 21
124.2735671605155
 31
0.0
  0
LINE
  5
308F
330
A
100
AcDbEntity
  8
LAY-1
 62
     3
100
AcDbLine
 10
186.301762611072
 20
127.222
 30
0.0
 11
186.301762611072
 21
124.2735671605155
 31
0.0
  0
LINE
  5
3090
330
A
100
AcDbEntity
  8
LAY-1
 62
     1
100
AcDbLine
 10
176.2445835
 20
127.222
 30
0.0
 11
194.7445835
 21
127.222
 31
0.0
  0
LINE
  5
3091
330
A
100
AcDbEntity
  8
LAY-1
 62
     3
100
AcDbLine
 10
192.3445834999999
 20
134.222
 30
0.0
 11
193.9445834999998
 21
134.222
 31
0.0
  0
LINE
  5
3092
330
A
100
AcDbEntity
  8
LAY-1
 62
     3
100
AcDbLine
 10
184.6874043889276
 20
127.222
 30
0.0
 11
184.6874043889276
 21
130.1645293895528
 31
0.0
  0
LINE
  5
3093
330
A
100
AcDbEntity
  8
LAY-1
 62
     3
100
AcDbLine
 10
186.301762611072
 20
127.222
 30
0.0
 11
186.301762611072
 21
130.1645293895528
 31
0.0
  0
LINE
  5
3094
330
A
100
AcDbEntity
  8
LAY-1
 62
     3
100
AcDbLine
 10
194.2445835
 20
130.8220000000001
 30
0.0
 11
194.2445835
 21
123.6220000000001
 31
0.0
  0
LINE
  5
3095
330
A
100
AcDbEntity
  8
LAY-1
 62
     3
100
AcDbLine
 10
193.9445834999998
 20
134.222
 30
0.0
 11
193.9445834999998
 21
120.222
 31
0.0
  0
LINE
  5
3096
330
A
100
AcDbEntity
  8
LAY-1
 62
     3
100
AcDbLine
 10
192.3445834999999
 20
134.222
 30
0.0
 11
192.3445834999999
 21
120.222
 31
0.0
  0
LINE
  5
3097
330
A
100
AcDbEntity
  8
LAY-1
 62
     3
100
AcDbLine
 10
193.9445834999998
 20
131.1220000000001
 30
0.0
 11
194.2445835
 21
130.8220000000001
 31
0.0
  0
LINE
  5
3098
330
A
100
AcDbEntity
  8
LAY-1
 62
     3
100
AcDbLine
 10
178.9136432036904
 20
129.722
 30
0.0
 11
180.2871123082006
 21
129.722
 31
0.0
  0
ARC
  5
3099
330
A
100
AcDbEntity
  8
LAY-1
 62
     3
100
AcDbCircle
 10
178.9136432036904
 20
129.9910597036908
 30
0.0
 40
0.2690597036907741
100
AcDbArc
 50
180.0
 51
270.0
  0
ARC
  5
309A
330
A
100
AcDbEntity
  8
LAY-1
 62
     3
100
AcDbCircle
 10
180.2871123082006
 20
131.5157313579387
 30
0.0
 40
1.793731357938494
100
AcDbArc
 50
270.0
 51
303.9539262743827
  0
LINE
  5
309B
330
A
100
AcDbEntity
  8
LAY-1
 62
     3
100
AcDbLine
 10
181.7124541836385
 20
130.3130111152204
 30
0.0
 11
181.2889580197572
 21
130.0278545637491
 31
0.0
  0
ARC
  5
309C
330
A
100
AcDbEntity
  8
LAY-1
 62
     3
100
AcDbCircle
 10
182.7142998951951
 20
128.8251343210309
 30
0.0
 40
1.793731357938494
100
AcDbArc
 50
56.04375944883769
 51
123.9539262743827
  0
LINE
  5
309D
330
A
100
AcDbEntity
  8
LAY-1
 62
     3
100
AcDbLine
 10
183.7162057038806
 20
130.3129706477059
 30
0.0
 11
184.2680588139339
 21
129.9413539405518
 31
0.0
  0
LINE
  5
309E
330
A
100
AcDbEntity
  8
LAY-1
 62
     3
100
AcDbLine
 10
192.0755237963091
 20
129.722
 30
0.0
 11
190.702054691799
 21
129.722
 31
0.0
  0
ARC
  5
309F
330
A
100
AcDbEntity
  8
LAY-1
 62
     3
100
AcDbCircle
 10
190.702054691799
 20
131.5157313579387
 30
0.0
 40
1.793731357938494
100
AcDbArc
 50
236.0460737256173
 51
270.0
  0
LINE
  5
30A0
330
A
100
AcDbEntity
  8
LAY-1
 62
     3
100
AcDbLine
 10
189.2767128163611
 20
130.3130111152204
 30
0.0
 11
189.7002089802424
 21
130.0278545637491
 31
0.0
  0
ARC
  5
30A1
330
A
100
AcDbEntity
  8
LAY-1
 62
     3
100
AcDbCircle
 10
188.2748671048045
 20
128.8251343210309
 30
0.0
 40
1.793731357938494
100
AcDbArc
 50
56.0460737256173
 51
123.9562405511623
  0
LINE
  5
30A2
330
A
100
AcDbEntity
  8
LAY-1
 62
     3
100
AcDbLine
 10
187.272961296119
 20
130.3129706477059
 30
0.0
 11
186.7211081860656
 21
129.9413539405518
 31
0.0
  0
ARC
  5
30A3
330
A
100
AcDbEntity
  8
LAY-1
 62
     3
100
AcDbCircle
 10
184.4183446852368
 20
130.1645293895528
 30
0.0
 40
0.2690597036907741
100
AcDbArc
 50
236.0437594488377
 51
0.0
  0
ARC
  5
30A4
330
A
100
AcDbEntity
  8
LAY-1
 62
     3
100
AcDbCircle
 10
184.7770909568246
 20
130.1704328394847
 30
0.0
 40
0.0896865678969247
100
AcDbArc
 50
90.0
 51
180.0
  0
ARC
  5
30A5
330
A
100
AcDbEntity
  8
LAY-1
 62
     3
100
AcDbCircle
 10
186.212076043175
 20
130.1704328394847
 30
0.0
 40
0.0896865678969247
100
AcDbArc
 50
0.0
 51
90.0
  0
ARC
  5
30A6
330
A
100
AcDbEntity
  8
LAY-1
 62
     3
100
AcDbCircle
 10
186.5708223147628
 20
130.1645293895528
 30
0.0
 40
0.2690597036907741
100
AcDbArc
 50
180.0
 51
303.9562405511623
  0
LINE
  5
30A7
330
A
100
AcDbEntity
  8
LAY-1
  6
Continuous
 62
     3
100
AcDbLine
 10
184.7770909568246
 20
130.2601194073816
 30
0.0
 11
186.212076043175
 21
130.2601194073816
 31
0.0
  0
ARC
  5
30A8
330
A
100
AcDbEntity
  8
LAY-1
 62
     3
100
AcDbCircle
 10
192.0755237963091
 20
129.9910597036908
 30
0.0
 40
0.269059703690774
100
AcDbArc
 50
270.0
 51
0.0
  0
LINE
  5
30A9
330
A
100
AcDbEntity
  8
LAY-1
 62
     3
100
AcDbLine
 10
192.3445834999999
 20
120.222
 30
0.0
 11
193.9445834999998
 21
120.222
 31
0.0
  0
LINE
  5
30AA
330
A
100
AcDbEntity
  8
LAY-1
 62
     3
100
AcDbLine
 10
178.6445834999996
 20
134.222
 30
0.0
 11
177.0445834999997
 21
134.222
 31
0.0
  0
LINE
  5
30AB
330
A
100
AcDbEntity
  8
LAY-1
 62
     3
100
AcDbLine
 10
176.7445835
 20
130.8220000000001
 30
0.0
 11
176.7445835
 21
123.6220000000001
 31
0.0
  0
LINE
  5
30AC
330
A
100
AcDbEntity
  8
LAY-1
 62
     3
100
AcDbLine
 10
177.0445834999997
 20
134.222
 30
0.0
 11
177.0445834999997
 21
120.222
 31
0.0
  0
LINE
  5
30AD
330
A
100
AcDbEntity
  8
LAY-1
 62
     3
100
AcDbLine
 10
178.6445834999996
 20
134.222
 30
0.0
 11
178.6445834999996
 21
120.222
 31
0.0
  0
LINE
  5
30AE
330
A
100
AcDbEntity
  8
LAY-1
 62
     3
100
AcDbLine
 10
177.0445834999997
 20
131.1220000000001
 30
0.0
 11
176.7445835
 21
130.8220000000001
 31
0.0
  0
LINE
  5
30AF
330
A
100
AcDbEntity
  8
LAY-1
 62
     3
100
AcDbLine
 10
178.6445834999996
 20
120.222
 30
0.0
 11
177.0445834999997
 21
120.222
 31
0.0
  0
LINE
  5
30B0
330
A
100
AcDbEntity
  8
LAY-1
 62
     3
100
AcDbLine
 10
193.9445834999998
 20
123.3220000000001
 30
0.0
 11
194.2445835
 21
123.6220000000001
 31
0.0
  0
LINE
  5
30B1
330
A
100
AcDbEntity
  8
LAY-1
 62
     3
100
AcDbLine
 10
177.0445834999997
 20
123.3220000000001
 30
0.0
 11
176.7445835
 21
123.6220000000001
 31
0.0
  0
LINE
  5
30B3
330
A
100
AcDbEntity
  8
LAY-1
 62
     3
100
AcDbLine
 10
229.6895713889276
 20
127.222
 30
0.0
 11
229.6895713889276
 21
123.6794706104472
 31
0.0
  0
LINE
  5
30B4
330
A
100
AcDbEntity
  8
LAY-1
 62
     3
100
AcDbLine
 10
231.303929611072
 20
127.222
 30
0.0
 11
231.303929611072
 21
123.6794706104472
 31
0.0
  0
LINE
  5
30B5
330
A
100
AcDbEntity
  8
LAY-1
 62
     1
100
AcDbLine
 10
221.2467505
 20
127.222
 30
0.0
 11
239.7467505
 21
127.222
 31
0.0
  0
LINE
  5
30B6
330
A
100
AcDbEntity
  8
LAY-1
 62
     3
100
AcDbLine
 10
237.3467504999999
 20
134.972
 30
0.0
 11
238.9467504999998
 21
134.972
 31
0.0
  0
LINE
  5
30B7
330
A
100
AcDbEntity
  8
LAY-1
 62
     3
100
AcDbLine
 10
229.6895713889276
 20
127.222
 30
0.0
 11
229.6895713889276
 21
130.764529389553
 31
0.0
  0
LINE
  5
30B8
330
A
100
AcDbEntity
  8
LAY-1
 62
     3
100
AcDbLine
 10
231.303929611072
 20
127.222
 30
0.0
 11
231.303929611072
 21
130.764529389553
 31
0.0
  0
LINE
  5
30B9
330
A
100
AcDbEntity
  8
LAY-1
 62
     3
100
AcDbLine
 10
239.2467505
 20
131.5720000000001
 30
0.0
 11
239.2467505
 21
122.8720000000001
 31
0.0
  0
LINE
  5
30BA
330
A
100
AcDbEntity
  8
LAY-1
 62
     3
100
AcDbLine
 10
238.9467504999998
 20
134.972
 30
0.0
 11
238.9467504999998
 21
119.472
 31
0.0
  0
LINE
  5
30BB
330
A
100
AcDbEntity
  8
LAY-1
 62
     3
100
AcDbLine
 10
237.3467504999999
 20
134.972
 30
0.0
 11
237.3467504999999
 21
119.472
 31
0.0
  0
LINE
  5
30BC
330
A
100
AcDbEntity
  8
LAY-1
 62
     3
100
AcDbLine
 10
238.9467504999998
 20
131.8720000000001
 30
0.0
 11
239.2467505
 21
131.5720000000001
 31
0.0
  0
LINE
  5
30BD
330
A
100
AcDbEntity
  8
LAY-1
 62
     3
100
AcDbLine
 10
223.9158102036909
 20
130.3220000000001
 30
0.0
 11
225.2892793082006
 21
130.3220000000001
 31
0.0
  0
ARC
  5
30BE
330
A
100
AcDbEntity
  8
LAY-1
 62
     3
100
AcDbCircle
 10
223.9158102036909
 20
130.5910597036909
 30
0.0
 40
0.2690597036907741
100
AcDbArc
 50
180.0
 51
270.0
  0
ARC
  5
30BF
330
A
100
AcDbEntity
  8
LAY-1
 62
     3
100
AcDbCircle
 10
225.2892793082006
 20
132.1157313579386
 30
0.0
 40
1.793731357938494
100
AcDbArc
 50
270.0
 51
303.9539262743827
  0
LINE
  5
30C0
330
A
100
AcDbEntity
  8
LAY-1
 62
     3
100
AcDbLine
 10
226.714621183639
 20
130.9130111152204
 30
0.0
 11
226.2911250197572
 21
130.627854563749
 31
0.0
  0
ARC
  5
30C1
330
A
100
AcDbEntity
  8
LAY-1
 62
     3
100
AcDbCircle
 10
227.7164668951951
 20
129.4251343210308
 30
0.0
 40
1.793731357938494
100
AcDbArc
 50
56.04375944883769
 51
123.9539262743827
  0
LINE
  5
30C2
330
A
100
AcDbEntity
  8
LAY-1
 62
     3
100
AcDbLine
 10
228.7183727038806
 20
130.9129706477061
 30
0.0
 11
229.2702258139339
 21
130.5413539405517
 31
0.0
  0
LINE
  5
30C3
330
A
100
AcDbEntity
  8
LAY-1
 62
     3
100
AcDbLine
 10
237.0776907963091
 20
130.3220000000001
 30
0.0
 11
235.704221691799
 21
130.3220000000001
 31
0.0
  0
ARC
  5
30C4
330
A
100
AcDbEntity
  8
LAY-1
 62
     3
100
AcDbCircle
 10
235.704221691799
 20
132.1157313579386
 30
0.0
 40
1.793731357938494
100
AcDbArc
 50
236.0460737256173
 51
270.0
  0
LINE
  5
30C5
330
A
100
AcDbEntity
  8
LAY-1
 62
     3
100
AcDbLine
 10
234.2788798163611
 20
130.9130111152204
 30
0.0
 11
234.7023759802425
 21
130.627854563749
 31
0.0
  0
ARC
  5
30C6
330
A
100
AcDbEntity
  8
LAY-1
 62
     3
100
AcDbCircle
 10
233.2770341048045
 20
129.4251343210308
 30
0.0
 40
1.793731357938494
100
AcDbArc
 50
56.0460737256173
 51
123.9562405511623
  0
LINE
  5
30C7
330
A
100
AcDbEntity
  8
LAY-1
 62
     3
100
AcDbLine
 10
232.275128296119
 20
130.9129706477061
 30
0.0
 11
231.7232751860657
 21
130.5413539405517
 31
0.0
  0
ARC
  5
30C8
330
A
100
AcDbEntity
  8
LAY-1
 62
     3
100
AcDbCircle
 10
229.4205116852368
 20
130.764529389553
 30
0.0
 40
0.2690597036907741
100
AcDbArc
 50
236.0437594488377
 51
0.0
  0
ARC
  5
30C9
330
A
100
AcDbEntity
  8
LAY-1
 62
     3
100
AcDbCircle
 10
229.7792579568246
 20
130.7704328394848
 30
0.0
 40
0.0896865678969247
100
AcDbArc
 50
90.0
 51
180.0
  0
ARC
  5
30CA
330
A
100
AcDbEntity
  8
LAY-1
 62
     3
100
AcDbCircle
 10
231.2142430431755
 20
130.7704328394848
 30
0.0
 40
0.0896865678969247
100
AcDbArc
 50
0.0
 51
90.0
  0
ARC
  5
30CB
330
A
100
AcDbEntity
  8
LAY-1
 62
     3
100
AcDbCircle
 10
231.5729893147632
 20
130.764529389553
 30
0.0
 40
0.2690597036907741
100
AcDbArc
 50
180.0
 51
303.9562405511623
  0
LINE
  5
30CC
330
A
100
AcDbEntity
  8
LAY-1
  6
Continuous
 62
     3
100
AcDbLine
 10
229.7792579568246
 20
130.8601194073817
 30
0.0
 11
231.2142430431755
 21
130.8601194073817
 31
0.0
  0
ARC
  5
30CD
330
A
100
AcDbEntity
  8
LAY-1
 62
     3
100
AcDbCircle
 10
237.0776907963091
 20
130.5910597036909
 30
0.0
 40
0.269059703690774
100
AcDbArc
 50
270.0
 51
0.0
  0
LINE
  5
30CE
330
A
100
AcDbEntity
  8
LAY-1
 62
     3
100
AcDbLine
 10
223.6467505000001
 20
134.972
 30
0.0
 11
222.0467504999998
 21
134.972
 31
0.0
  0
LINE
  5
30CF
330
A
100
AcDbEntity
  8
LAY-1
 62
     3
100
AcDbLine
 10
221.7467505
 20
131.5720000000001
 30
0.0
 11
221.7467505
 21
122.8720000000001
 31
0.0
  0
LINE
  5
30D0
330
A
100
AcDbEntity
  8
LAY-1
 62
     3
100
AcDbLine
 10
222.0467504999998
 20
134.972
 30
0.0
 11
222.0467504999998
 21
119.472
 31
0.0
  0
LINE
  5
30D1
330
A
100
AcDbEntity
  8
LAY-1
 62
     3
100
AcDbLine
 10
223.6467505000001
 20
134.972
 30
0.0
 11
223.6467504999997
 21
119.4720000000002
 31
0.0
  0
LINE
  5
30D2
330
A
100
AcDbEntity
  8
LAY-1
 62
     3
100
AcDbLine
 10
222.0467504999998
 20
131.8720000000001
 30
0.0
 11
221.7467505
 21
131.5720000000001
 31
0.0
  0
LINE
  5
30D3
330
A
100
AcDbEntity
  8
LAY-1
 62
     3
100
AcDbLine
 10
237.3467504999999
 20
119.472
 30
0.0
 11
238.9467504999998
 21
119.472
 31
0.0
  0
LINE
  5
30D4
330
A
100
AcDbEntity
  8
LAY-1
 62
     3
100
AcDbLine
 10
238.9467504999998
 20
122.5720000000001
 30
0.0
 11
239.2467505
 21
122.8720000000001
 31
0.0
  0
LINE
  5
30D5
330
A
100
AcDbEntity
  8
LAY-1
 62
     3
100
AcDbLine
 10
223.6467504999997
 20
119.4720000000002
 30
0.0
 11
222.0467504999998
 21
119.472
 31
0.0
  0
LINE
  5
30D6
330
A
100
AcDbEntity
  8
LAY-1
 62
     3
100
AcDbLine
 10
222.0467504999998
 20
122.5720000000001
 30
0.0
 11
221.7467505
 21
122.8720000000001
 31
0.0
  0
LINE
  5
30D8
330
A
100
AcDbEntity
  8
LAY-1
 62
     3
100
AcDbLine
 10
274.6917373889277
 20
127.222
 30
0.0
 11
274.6917373889277
 21
122.6836506197585
 31
0.0
  0
LINE
  5
30D9
330
A
100
AcDbEntity
  8
LAY-1
 62
     3
100
AcDbLine
 10
276.3060956110725
 20
127.222
 30
0.0
 11
276.306095611072
 21
122.6836506197587
 31
0.0
  0
LINE
  5
30DA
330
A
100
AcDbEntity
  8
LAY-1
 62
     1
100
AcDbLine
 10
266.2489165000001
 20
127.222
 30
0.0
 11
284.7489165000001
 21
127.222
 31
0.0
  0
LINE
  5
30DB
330
A
100
AcDbEntity
  8
LAY-1
 62
     3
100
AcDbLine
 10
282.1489165000002
 20
135.972
 30
0.0
 11
283.9489164999999
 21
135.972
 31
0.0
  0
LINE
  5
30DC
330
A
100
AcDbEntity
  8
LAY-1
 62
     3
100
AcDbLine
 10
274.6917373889277
 20
127.222
 30
0.0
 11
274.6917373889277
 21
131.7603493802417
 31
0.0
  0
LINE
  5
30DD
330
A
100
AcDbEntity
  8
LAY-1
 62
     3
100
AcDbLine
 10
276.3060956110725
 20
127.222
 30
0.0
 11
276.3060956110725
 21
131.7603493802415
 31
0.0
  0
LINE
  5
30DE
330
A
100
AcDbEntity
  8
LAY-1
 62
     3
100
AcDbLine
 10
284.2489165000001
 20
132.5220000000002
 30
0.0
 11
284.2489165000001
 21
121.922
 31
0.0
  0
LINE
  5
30DF
330
A
100
AcDbEntity
  8
LAY-1
 62
     3
100
AcDbLine
 10
283.9489164999999
 20
135.972
 30
0.0
 11
283.9489164999999
 21
118.472
 31
0.0
  0
LINE
  5
30E0
330
A
100
AcDbEntity
  8
LAY-1
 62
     3
100
AcDbLine
 10
282.1489165000002
 20
135.972
 30
0.0
 11
282.1489165000002
 21
118.472
 31
0.0
  0
LINE
  5
30E1
330
A
100
AcDbEntity
  8
LAY-1
 62
     3
100
AcDbLine
 10
283.9489164999999
 20
132.8220000000001
 30
0.0
 11
284.2489165000001
 21
132.5220000000002
 31
0.0
  0
LINE
  5
30E2
330
A
100
AcDbEntity
  8
LAY-1
 62
     3
100
AcDbLine
 10
271.5465913644024
 20
131.8352718346917
 30
0.0
 11
271.1040378731462
 21
131.5372832384041
 31
0.0
  0
ARC
  5
30E3
330
A
100
AcDbEntity
  8
LAY-1
 62
     3
100
AcDbCircle
 10
272.5935201329788
 20
130.2804405847635
 30
0.0
 40
1.874449269045725
100
AcDbArc
 50
56.04375944883769
 51
123.9539262743827
  0
LINE
  5
30E4
330
A
100
AcDbEntity
  8
LAY-1
 62
     3
100
AcDbLine
 10
273.6405117030553
 20
131.8352295461391
 30
0.0
 11
274.2171982030608
 21
131.4468900871627
 31
0.0
  0
LINE
  5
30E5
330
A
100
AcDbEntity
  8
LAY-1
 62
     3
100
AcDbLine
 10
281.8529508259402
 20
131.2008432182802
 30
0.0
 11
280.795825409566
 21
131.2008432182802
 31
0.0
  0
ARC
  5
30E6
330
A
100
AcDbEntity
  8
LAY-1
 62
     3
100
AcDbCircle
 10
280.8006631548736
 20
132.5912516828585
 30
0.0
 40
1.39041688070536
100
AcDbArc
 50
229.2902482100574
 51
269.800647595962
  0
LINE
  5
30E7
330
A
100
AcDbEntity
  8
LAY-1
 62
     3
100
AcDbLine
 10
279.4512416355973
 20
131.8352718346917
 30
0.0
 11
279.8937951268534
 21
131.5372832384041
 31
0.0
  0
ARC
  5
30E8
330
A
100
AcDbEntity
  8
LAY-1
 62
     3
100
AcDbCircle
 10
278.4043128670209
 20
130.2804405847635
 30
0.0
 40
1.874449269045725
100
AcDbArc
 50
56.0460737256173
 51
123.9562405511623
  0
LINE
  5
30E9
330
A
100
AcDbEntity
  8
LAY-1
 62
     3
100
AcDbLine
 10
277.3573212969444
 20
131.8352295461391
 30
0.0
 11
276.7806347969389
 21
131.4468900871627
 31
0.0
  0
ARC
  5
30EA
330
A
100
AcDbEntity
  8
LAY-1
 62
     3
100
AcDbCircle
 10
274.3742469385724
 20
131.680108431369
 30
0.0
 40
0.2811673903568589
100
AcDbArc
 50
236.0437594488377
 51
0.0
  0
ARC
  5
30EB
330
A
100
AcDbEntity
  8
LAY-1
 62
     3
100
AcDbCircle
 10
274.7492658570962
 20
131.6859659467632
 30
0.0
 40
0.0940341418096262
100
AcDbArc
 50
90.07864022181765
 51
183.5713446657458
  0
ARC
  5
30EC
330
A
100
AcDbEntity
  8
LAY-1
 62
     3
100
AcDbCircle
 10
276.2485671429034
 20
131.685965946763
 30
0.0
 40
0.0940341418096539
100
AcDbArc
 50
356.4286553342541
 51
89.92135977818234
  0
ARC
  5
30ED
330
A
100
AcDbEntity
  8
LAY-1
 62
     3
100
AcDbCircle
 10
276.6235860614273
 20
131.680108431369
 30
0.0
 40
0.2811673903568589
100
AcDbArc
 50
180.0
 51
303.9562405511623
  0
LINE
  5
30EE
330
A
100
AcDbEntity
  8
LAY-1
  6
Continuous
 62
     3
100
AcDbLine
 10
274.7491367923816
 20
131.78
 30
0.0
 11
276.2486962076181
 21
131.78
 31
0.0
  0
ARC
  5
30EF
330
A
100
AcDbEntity
  8
LAY-1
 62
     3
100
AcDbCircle
 10
281.8529508259402
 20
131.4968088923399
 30
0.0
 40
0.2959656740598515
100
AcDbArc
 50
270.0
 51
0.0
  0
LINE
  5
30F0
330
A
100
AcDbEntity
  8
LAY-1
 62
     3
100
AcDbLine
 10
268.8489165
 20
135.972
 30
0.0
 11
267.0489164999998
 21
135.972
 31
0.0
  0
LINE
  5
30F1
330
A
100
AcDbEntity
  8
LAY-1
 62
     3
100
AcDbLine
 10
266.7489165
 20
132.5220000000002
 30
0.0
 11
266.7489165
 21
121.9220000000003
 31
0.0
  0
LINE
  5
30F2
330
A
100
AcDbEntity
  8
LAY-1
 62
     3
100
AcDbLine
 10
267.0489164999998
 20
135.972
 30
0.0
 11
267.0489164999998
 21
118.472
 31
0.0
  0
LINE
  5
30F3
330
A
100
AcDbEntity
  8
LAY-1
 62
     3
100
AcDbLine
 10
268.8489165
 20
135.972
 30
0.0
 11
268.8489165
 21
118.472
 31
0.0
  0
LINE
  5
30F4
330
A
100
AcDbEntity
  8
LAY-1
 62
     3
100
AcDbLine
 10
139.6852373889279
 20
127.222
 30
0.0
 11
139.6852373889279
 21
129.9704328394848
 31
0.0
  0
LINE
  5
30F5
330
A
100
AcDbEntity
  8
LAY-1
 62
     3
100
AcDbLine
 10
141.2995956110722
 20
127.222
 30
0.0
 11
141.2995956110722
 21
129.9704328394848
 31
0.0
  0
LINE
  5
30F6
330
A
100
AcDbEntity
  8
LAY-1
 62
     3
100
AcDbLine
 10
133.9114762036907
 20
129.5220000000002
 30
0.0
 11
135.2849453082008
 21
129.5220000000002
 31
0.0
  0
ARC
  5
30F7
330
A
100
AcDbEntity
  8
LAY-1
 62
     3
100
AcDbCircle
 10
133.9114762036907
 20
129.791059703691
 30
0.0
 40
0.2690597036907741
100
AcDbArc
 50
180.0
 51
270.0
  0
ARC
  5
30F8
330
A
100
AcDbEntity
  8
LAY-1
 62
     3
100
AcDbCircle
 10
135.2849453082008
 20
131.3157313579386
 30
0.0
 40
1.793731357938494
100
AcDbArc
 50
270.0
 51
303.9539262743825
  0
LINE
  5
30F9
330
A
100
AcDbEntity
  8
LAY-1
 62
     3
100
AcDbLine
 10
136.7102871836387
 20
130.1130111152204
 30
0.0
 11
136.2867910197574
 21
129.8278545637491
 31
0.0
  0
ARC
  5
30FA
330
A
100
AcDbEntity
  8
LAY-1
 62
     3
100
AcDbCircle
 10
137.7121328951953
 20
128.6251343210308
 30
0.0
 40
1.793731357938494
100
AcDbArc
 50
56.04375944883769
 51
123.9539262743825
  0
LINE
  5
30FB
330
A
100
AcDbEntity
  8
LAY-1
 62
     3
100
AcDbLine
 10
138.7140387038808
 20
130.1129706477061
 30
0.0
 11
139.2658918139341
 21
129.7413539405518
 31
0.0
  0
LINE
  5
30FC
330
A
100
AcDbEntity
  8
LAY-1
 62
     3
100
AcDbLine
 10
147.0733567963094
 20
129.5220000000002
 30
0.0
 11
145.6998876917992
 21
129.5220000000002
 31
0.0
  0
ARC
  5
30FD
330
A
100
AcDbEntity
  8
LAY-1
 62
     3
100
AcDbCircle
 10
145.6998876917992
 20
131.3157313579386
 30
0.0
 40
1.793731357938494
100
AcDbArc
 50
236.0460737256173
 51
270.0
  0
LINE
  5
30FE
330
A
100
AcDbEntity
  8
LAY-1
 62
     3
100
AcDbLine
 10
144.2745458163613
 20
130.1130111152204
 30
0.0
 11
144.6980419802426
 21
129.8278545637491
 31
0.0
  0
ARC
  5
30FF
330
A
100
AcDbEntity
  8
LAY-1
 62
     3
100
AcDbCircle
 10
143.2727001048047
 20
128.6251343210308
 30
0.0
 40
1.793731357938494
100
AcDbArc
 50
56.0460737256173
 51
123.9562405511623
  0
LINE
  5
3100
330
A
100
AcDbEntity
  8
LAY-1
 62
     3
100
AcDbLine
 10
142.2707942961193
 20
130.1129706477061
 30
0.0
 11
141.7189411860659
 21
129.7413539405518
 31
0.0
  0
ARC
  5
3101
330
A
100
AcDbEntity
  8
LAY-1
 62
     3
100
AcDbCircle
 10
139.4161776852371
 20
129.964529389553
 30
0.0
 40
0.2690597036907741
100
AcDbArc
 50
236.0437594488377
 51
0.0
  0
ARC
  5
3102
330
A
100
AcDbEntity
  8
LAY-1
 62
     3
100
AcDbCircle
 10
139.7749239568248
 20
129.9704328394848
 30
0.0
 40
0.0896865678969247
100
AcDbArc
 50
90.0
 51
180.0
  0
ARC
  5
3103
330
A
100
AcDbEntity
  8
LAY-1
 62
     3
100
AcDbCircle
 10
141.2099090431753
 20
129.9704328394848
 30
0.0
 40
0.0896865678969247
100
AcDbArc
 50
0.0
 51
90.0
  0
ARC
  5
3104
330
A
100
AcDbEntity
  8
LAY-1
 62
     3
100
AcDbCircle
 10
141.568655314763
 20
129.964529389553
 30
0.0
 40
0.2690597036907741
100
AcDbArc
 50
180.0
 51
303.9562405511623
  0
LINE
  5
3105
330
A
100
AcDbEntity
  8
LAY-1
  6
Continuous
 62
     3
100
AcDbLine
 10
139.7749239568248
 20
130.0601194073818
 30
0.0
 11
141.2099090431753
 21
130.0601194073818
 31
0.0
  0
ARC
  5
3106
330
A
100
AcDbEntity
  8
LAY-1
 62
     3
100
AcDbCircle
 10
147.0733567963094
 20
129.791059703691
 30
0.0
 40
0.269059703690774
100
AcDbArc
 50
270.0
 51
0.0
  0
LINE
  5
3107
330
A
100
AcDbEntity
  8
LAY-1
 62
     3
100
AcDbLine
 10
139.6852373889279
 20
127.222
 30
0.0
 11
139.6852373889279
 21
124.4735671605156
 31
0.0
  0
LINE
  5
3108
330
A
100
AcDbEntity
  8
LAY-1
 62
     3
100
AcDbLine
 10
141.2995956110722
 20
127.222
 30
0.0
 11
141.2995956110722
 21
124.4735671605156
 31
0.0
  0
LINE
  5
3109
330
A
100
AcDbEntity
  8
LAY-1
 62
     3
100
AcDbLine
 10
282.1489165000002
 20
118.472
 30
0.0
 11
283.9489164999999
 21
118.472
 31
0.0
  0
LINE
  5
310A
330
A
100
AcDbEntity
  8
LAY-1
 62
     3
100
AcDbLine
 10
268.8489165
 20
118.472
 30
0.0
 11
267.0489164999998
 21
118.472
 31
0.0
  0
LINE
  5
310B
330
A
100
AcDbEntity
  8
LAY-1
 62
     3
100
AcDbLine
 10
267.0489164999998
 20
132.8220000000001
 30
0.0
 11
266.7489165
 21
132.5220000000002
 31
0.0
  0
LINE
  5
310C
330
A
100
AcDbEntity
  8
LAY-1
 62
     3
100
AcDbLine
 10
283.9489164999999
 20
121.6220000000001
 30
0.0
 11
284.2489165000001
 21
121.922
 31
0.0
  0
LINE
  5
310D
330
A
100
AcDbEntity
  8
LAY-1
 62
     3
100
AcDbLine
 10
267.0489164999998
 20
121.6220000000001
 30
0.0
 11
266.7489165
 21
121.9220000000003
 31
0.0
  0
LINE
  5
310E
330
A
100
AcDbEntity
  8
LAY-1
 62
     3
100
AcDbLine
 10
269.1448821740599
 20
131.2008432182802
 30
0.0
 11
270.2020075904342
 21
131.2008432182802
 31
0.0
  0
ARC
  5
310F
330
A
100
AcDbEntity
  8
LAY-1
 62
     3
100
AcDbCircle
 10
270.1971698451265
 20
132.5912516828585
 30
0.0
 40
1.39041688070536
100
AcDbArc
 50
270.1993524040381
 51
310.7097517899426
  0
LINE
  5
3110
330
A
100
AcDbEntity
  8
LAY-1
 62
     3
100
AcDbLine
 10
271.5465913644024
 20
131.8352718346917
 30
0.0
 11
271.1040378731462
 21
131.5372832384041
 31
0.0
  0
ARC
  5
3111
330
A
100
AcDbEntity
  8
LAY-1
 62
     3
100
AcDbCircle
 10
269.1448821740599
 20
131.4968088923399
 30
0.0
 40
0.2959656740598515
100
AcDbArc
 50
180.0
 51
270.0
  0
LINE
  5
3113
330
A
100
AcDbEntity
  8
LAY-1
 62
     3
100
AcDbLine
 10
319.6939043889276
 20
127.222
 30
0.0
 11
319.6939043889276
 21
122.3626506197586
 31
0.0
  0
LINE
  5
3114
330
A
100
AcDbEntity
  8
LAY-1
 62
     3
100
AcDbLine
 10
321.3082626110719
 20
127.222
 30
0.0
 11
321.3082626110719
 21
122.3626506197586
 31
0.0
  0
LINE
  5
3115
330
A
100
AcDbEntity
  8
LAY-1
 62
     1
100
AcDbLine
 10
311.2510835
 20
127.222
 30
0.0
 11
329.7510835
 21
127.222
 31
0.0
  0
LINE
  5
3116
330
A
100
AcDbEntity
  8
LAY-1
 62
     3
100
AcDbLine
 10
327.1510834999996
 20
136.472
 30
0.0
 11
328.9510834999998
 21
136.472
 31
0.0
  0
LINE
  5
3117
330
A
100
AcDbEntity
  8
LAY-1
 62
     3
100
AcDbLine
 10
319.6939043889276
 20
127.222
 30
0.0
 11
319.6939043889276
 21
132.0813493802416
 31
0.0
  0
LINE
  5
3118
330
A
100
AcDbEntity
  8
LAY-1
 62
     3
100
AcDbLine
 10
321.3082626110719
 20
127.222
 30
0.0
 11
321.3082626110719
 21
132.0813493802414
 31
0.0
  0
LINE
  5
3119
330
A
100
AcDbEntity
  8
LAY-1
 62
     3
100
AcDbLine
 10
329.2510835
 20
133.0220000000002
 30
0.0
 11
329.2510834999995
 21
121.422
 31
0.0
  0
LINE
  5
311A
330
A
100
AcDbEntity
  8
LAY-1
 62
     3
100
AcDbLine
 10
328.9510834999998
 20
136.472
 30
0.0
 11
328.9510834999998
 21
117.972
 31
0.0
  0
LINE
  5
311B
330
A
100
AcDbEntity
  8
LAY-1
 62
     3
100
AcDbLine
 10
327.1510834999996
 20
136.472
 30
0.0
 11
327.1510835000001
 21
117.972
 31
0.0
  0
LINE
  5
311C
330
A
100
AcDbEntity
  8
LAY-1
 62
     3
100
AcDbLine
 10
328.9510834999998
 20
133.3220000000001
 30
0.0
 11
329.2510835
 21
133.0220000000002
 31
0.0
  0
LINE
  5
311D
330
A
100
AcDbEntity
  8
LAY-1
 62
     3
100
AcDbLine
 10
316.5487583644023
 20
132.1562718346916
 30
0.0
 11
316.1062048731462
 21
131.8582832384041
 31
0.0
  0
ARC
  5
311E
330
A
100
AcDbEntity
  8
LAY-1
 62
     3
100
AcDbCircle
 10
317.5956871329788
 20
130.6014405847634
 30
0.0
 40
1.874449269045725
100
AcDbArc
 50
56.04375944883769
 51
123.9539262743823
  0
LINE
  5
311F
330
A
100
AcDbEntity
  8
LAY-1
 62
     3
100
AcDbLine
 10
318.6426787030552
 20
132.156229546139
 30
0.0
 11
319.2193652030607
 21
131.7678900871629
 31
0.0
  0
LINE
  5
3120
330
A
100
AcDbEntity
  8
LAY-1
 62
     3
100
AcDbLine
 10
326.8551178259401
 20
131.5218432182803
 30
0.0
 11
325.7979924095654
 21
131.5218432182803
 31
0.0
  0
ARC
  5
3121
330
A
100
AcDbEntity
  8
LAY-1
 62
     3
100
AcDbCircle
 10
325.8028301548736
 20
132.9122516828584
 30
0.0
 40
1.39041688070536
100
AcDbArc
 50
229.2902482100571
 51
269.800647595962
  0
LINE
  5
3122
330
A
100
AcDbEntity
  8
LAY-1
 62
     3
100
AcDbLine
 10
324.4534086355972
 20
132.1562718346916
 30
0.0
 11
324.8959621268534
 21
131.8582832384041
 31
0.0
  0
ARC
  5
3123
330
A
100
AcDbEntity
  8
LAY-1
 62
     3
100
AcDbCircle
 10
323.4064798670208
 20
130.6014405847634
 30
0.0
 40
1.874449269045725
100
AcDbArc
 50
56.04607372561764
 51
123.9562405511623
  0
LINE
  5
3124
330
A
100
AcDbEntity
  8
LAY-1
 62
     3
100
AcDbLine
 10
322.3594882969444
 20
132.156229546139
 30
0.0
 11
321.7828017969388
 21
131.7678900871629
 31
0.0
  0
ARC
  5
3125
330
A
100
AcDbEntity
  8
LAY-1
 62
     3
100
AcDbCircle
 10
319.3764139385723
 20
132.0011084313692
 30
0.0
 40
0.2811673903568589
100
AcDbArc
 50
236.0437594488377
 51
0.0
  0
ARC
  5
3126
330
A
100
AcDbEntity
  8
LAY-1
 62
     3
100
AcDbCircle
 10
319.7514328570962
 20
132.0069659467631
 30
0.0
 40
0.0940341418096262
100
AcDbArc
 50
90.07864022181765
 51
183.5713446657458
  0
ARC
  5
3127
330
A
100
AcDbEntity
  8
LAY-1
 62
     3
100
AcDbCircle
 10
321.2507341429033
 20
132.0069659467631
 30
0.0
 40
0.0940341418096539
100
AcDbArc
 50
356.4286553342541
 51
89.92135977818234
  0
ARC
  5
3128
330
A
100
AcDbEntity
  8
LAY-1
 62
     3
100
AcDbCircle
 10
321.6257530614273
 20
132.0011084313692
 30
0.0
 40
0.2811673903568589
100
AcDbArc
 50
180.0
 51
303.9562405511623
  0
LINE
  5
3129
330
A
100
AcDbEntity
  8
LAY-1
  6
Continuous
 62
     3
100
AcDbLine
 10
319.7513037923815
 20
132.1010000000001
 30
0.0
 11
321.250863207618
 21
132.1010000000001
 31
0.0
  0
ARC
  5
312A
330
A
100
AcDbEntity
  8
LAY-1
 62
     3
100
AcDbCircle
 10
326.8551178259401
 20
131.8178088923401
 30
0.0
 40
0.2959656740598515
100
AcDbArc
 50
270.0
 51
0.0
  0
LINE
  5
312B
330
A
100
AcDbEntity
  8
LAY-1
 62
     3
100
AcDbLine
 10
313.8510834999999
 20
136.472
 30
0.0
 11
312.0510834999997
 21
136.472
 31
0.0
  0
LINE
  5
312C
330
A
100
AcDbEntity
  8
LAY-1
 62
     3
100
AcDbLine
 10
311.7510835
 20
133.0219999999999
 30
0.0
 11
311.7510835
 21
121.4220000000002
 31
0.0
  0
LINE
  5
312D
330
A
100
AcDbEntity
  8
LAY-1
 62
     3
100
AcDbLine
 10
312.0510834999997
 20
136.472
 30
0.0
 11
312.0510834999997
 21
117.972
 31
0.0
  0
LINE
  5
312E
330
A
100
AcDbEntity
  8
LAY-1
 62
     3
100
AcDbLine
 10
313.8510834999999
 20
136.472
 30
0.0
 11
313.8510834999999
 21
117.972
 31
0.0
  0
LINE
  5
312F
330
A
100
AcDbEntity
  8
LAY-1
 62
     3
100
AcDbLine
 10
327.1510835000001
 20
117.972
 30
0.0
 11
328.9510834999998
 21
117.972
 31
0.0
  0
LINE
  5
3130
330
A
100
AcDbEntity
  8
LAY-1
 62
     3
100
AcDbLine
 10
313.8510834999999
 20
117.972
 30
0.0
 11
312.0510834999997
 21
117.972
 31
0.0
  0
LINE
  5
3131
330
A
100
AcDbEntity
  8
LAY-1
 62
     3
100
AcDbLine
 10
312.0510834999997
 20
133.3220000000001
 30
0.0
 11
311.7510835
 21
133.0219999999999
 31
0.0
  0
LINE
  5
3132
330
A
100
AcDbEntity
  8
LAY-1
 62
     3
100
AcDbLine
 10
328.9510834999998
 20
121.1220000000001
 30
0.0
 11
329.2510834999995
 21
121.422
 31
0.0
  0
LINE
  5
3133
330
A
100
AcDbEntity
  8
LAY-1
 62
     3
100
AcDbLine
 10
312.0510834999997
 20
121.1220000000001
 30
0.0
 11
311.7510835
 21
121.4220000000002
 31
0.0
  0
LINE
  5
3134
330
A
100
AcDbEntity
  8
LAY-1
 62
     3
100
AcDbLine
 10
314.1470491740594
 20
131.5218432182803
 30
0.0
 11
315.2041745904341
 21
131.5218432182803
 31
0.0
  0
ARC
  5
3135
330
A
100
AcDbEntity
  8
LAY-1
 62
     3
100
AcDbCircle
 10
315.199336845126
 20
132.9122516828584
 30
0.0
 40
1.39041688070536
100
AcDbArc
 50
270.1993524040381
 51
310.7097517899429
  0
LINE
  5
3136
330
A
100
AcDbEntity
  8
LAY-1
 62
     3
100
AcDbLine
 10
316.5487583644023
 20
132.1562718346916
 30
0.0
 11
316.1062048731462
 21
131.8582832384041
 31
0.0
  0
ARC
  5
3137
330
A
100
AcDbEntity
  8
LAY-1
 62
     3
100
AcDbCircle
 10
314.1470491740594
 20
131.8178088923401
 30
0.0
 40
0.2959656740598515
100
AcDbArc
 50
180.0
 51
270.0
  0
LINE
  5
3139
330
A
100
AcDbEntity
  8
LAY-1
 62
     3
100
AcDbLine
 10
49.47795649814374
 20
57.52199999999999
 30
0.0
 11
49.47795649814374
 21
51.22144848986915
 31
0.0
  0
LINE
  5
313A
330
A
100
AcDbEntity
  8
LAY-1
 62
     3
100
AcDbLine
 10
51.4982105018563
 20
57.52199999999999
 30
0.0
 11
51.4982105018563
 21
51.22144848986915
 31
0.0
  0
LINE
  5
313B
330
A
100
AcDbEntity
  8
LAY-1
 62
     1
100
AcDbLine
 10
38.73808350000003
 20
57.52199999999999
 30
0.0
 11
62.23808350000002
 21
57.52199999999999
 31
0.0
  0
LINE
  5
313C
330
A
100
AcDbEntity
  8
LAY-1
 62
     3
100
AcDbLine
 10
59.63765492857158
 20
68.02199999999999
 30
0.0
 11
61.43765492857131
 21
68.02199999999999
 31
0.0
  0
LINE
  5
313D
330
A
100
AcDbEntity
  8
LAY-1
 62
     3
100
AcDbLine
 10
49.47795649814374
 20
57.52199999999999
 30
0.0
 11
49.47795649814374
 21
63.82255151013106
 31
0.0
  0
LINE
  5
313E
330
A
100
AcDbEntity
  8
LAY-1
 62
     3
100
AcDbLine
 10
51.4982105018563
 20
57.52199999999999
 30
0.0
 11
51.4982105018563
 21
63.82255151013082
 31
0.0
  0
LINE
  5
313F
330
A
100
AcDbEntity
  8
LAY-1
 62
     3
100
AcDbLine
 10
61.73808350000001
 20
64.67157142857155
 30
0.0
 11
61.73808350000001
 21
50.37242857142865
 31
0.0
  0
LINE
  5
3140
330
A
100
AcDbEntity
  8
LAY-1
 62
     3
100
AcDbLine
 10
61.43765492857131
 20
68.02199999999999
 30
0.0
 11
61.43765492857131
 21
47.02199999999999
 31
0.0
  0
LINE
  5
3141
330
A
100
AcDbEntity
  8
LAY-1
 62
     3
100
AcDbLine
 10
59.63765492857158
 20
68.02199999999999
 30
0.0
 11
59.63765492857158
 21
47.02199999999999
 31
0.0
  0
LINE
  5
3142
330
A
100
AcDbEntity
  8
LAY-1
 62
     3
100
AcDbLine
 10
59.63765492857158
 20
47.02199999999999
 30
0.0
 11
61.43765492857131
 21
47.02199999999999
 31
0.0
  0
LINE
  5
3143
330
A
100
AcDbEntity
  8
LAY-1
 62
     3
100
AcDbLine
 10
61.43765492857131
 20
50.07200000000017
 30
0.0
 11
61.73808350000001
 21
50.37242857142865
 31
0.0
  0
LINE
  5
3144
330
A
100
AcDbEntity
  8
LAY-1
 62
     3
100
AcDbLine
 10
45.54203090173825
 20
63.91631161027141
 30
0.0
 11
44.98820681839482
 21
63.54340016691736
 31
0.0
  0
ARC
  5
3145
330
A
100
AcDbEntity
  8
LAY-1
 62
     3
100
AcDbCircle
 10
46.85218747498503
 20
61.9705513603613
 30
0.0
 40
2.345739370977232
100
AcDbArc
 50
56.04375944883791
 51
123.9539262743817
  0
LINE
  5
3146
330
A
100
AcDbEntity
  8
LAY-1
 62
     3
100
AcDbLine
 10
48.1624226398236
 20
63.9162586891685
 30
0.0
 11
48.8841046026879
 21
63.43027959479247
 31
0.0
  0
LINE
  5
3147
330
A
100
AcDbEntity
  8
LAY-1
 62
     3
100
AcDbLine
 10
59.26727502789082
 20
63.12236951316213
 30
0.0
 11
57.11678664968498
 21
63.12236951316213
 31
0.0
  0
ARC
  5
3148
330
A
100
AcDbEntity
  8
LAY-1
 62
     3
100
AcDbCircle
 10
57.12284074238471
 20
64.86236639169153
 30
0.0
 40
1.740007410711285
100
AcDbArc
 50
229.2902482100583
 51
269.800647595962
  0
LINE
  5
3149
330
A
100
AcDbEntity
  8
LAY-1
 62
     3
100
AcDbLine
 10
55.43413609826179
 20
63.91631161027141
 30
0.0
 11
55.98796018160522
 21
63.54340016691736
 31
0.0
  0
ARC
  5
314A
330
A
100
AcDbEntity
  8
LAY-1
 62
     3
100
AcDbCircle
 10
54.12397952501454
 20
61.9705513603613
 30
0.0
 40
2.345739370977232
100
AcDbArc
 50
56.04607372561696
 51
123.9562405511634
  0
LINE
  5
314B
330
A
100
AcDbEntity
  8
LAY-1
 62
     3
100
AcDbLine
 10
52.81374436017642
 20
63.9162586891685
 30
0.0
 11
52.09206239731213
 21
63.43027959479247
 31
0.0
  0
ARC
  5
314C
330
A
100
AcDbEntity
  8
LAY-1
 62
     3
100
AcDbCircle
 10
49.08063987741353
 20
63.72213569411343
 30
0.0
 40
0.3518609056465849
100
AcDbArc
 50
236.0437594488366
 51
0.0
  0
ARC
  5
314D
330
A
100
AcDbEntity
  8
LAY-1
 62
     3
100
AcDbCircle
 10
49.54994926688062
 20
63.72946595623517
 30
0.0
 40
0.1176770117503326
100
AcDbArc
 50
90.07864022181765
 51
183.5713446657457
  0
ARC
  5
314E
330
A
100
AcDbEntity
  8
LAY-1
 62
     3
100
AcDbCircle
 10
51.4262177331194
 20
63.72946595623517
 30
0.0
 40
0.1176770117503673
100
AcDbArc
 50
356.4286553342541
 51
89.92135977818234
  0
ARC
  5
314F
330
A
100
AcDbEntity
  8
LAY-1
 62
     3
100
AcDbCircle
 10
51.89552712258649
 20
63.72213569411343
 30
0.0
 40
0.3518609056465849
100
AcDbArc
 50
180.0
 51
303.9562405511621
  0
LINE
  5
3150
330
A
100
AcDbEntity
  8
LAY-1
  6
Continuous
 62
     3
100
AcDbLine
 10
49.5497877516092
 20
63.84714285714318
 30
0.0
 11
51.42637924839084
 21
63.84714285714318
 31
0.0
  0
ARC
  5
3151
330
A
100
AcDbEntity
  8
LAY-1
 62
     3
100
AcDbCircle
 10
59.26727502789082
 20
63.49274941384289
 30
0.0
 40
0.3703799006806157
100
AcDbArc
 50
270.0
 51
0.0
  0
LINE
  5
3152
330
A
100
AcDbEntity
  8
LAY-1
 62
     3
100
AcDbLine
 10
41.70889197210921
 20
63.12236951316213
 30
0.0
 11
43.85938035031459
 21
63.12236951316213
 31
0.0
  0
ARC
  5
3153
330
A
100
AcDbEntity
  8
LAY-1
 62
     3
100
AcDbCircle
 10
43.85332625761531
 20
64.86236639169153
 30
0.0
 40
1.740007410711285
100
AcDbArc
 50
270.1993524040381
 51
310.7097517899429
  0
LINE
  5
3154
330
A
100
AcDbEntity
  8
LAY-1
 62
     3
100
AcDbLine
 10
45.54203090173779
 20
63.91631161027141
 30
0.0
 11
44.98820681839482
 21
63.54340016691736
 31
0.0
  0
LINE
  5
3155
330
A
100
AcDbEntity
  8
LAY-1
 62
     3
100
AcDbLine
 10
61.43765492857131
 20
64.97200000000026
 30
0.0
 11
61.73808350000001
 21
64.67157142857155
 31
0.0
  0
LINE
  5
3157
330
A
100
AcDbEntity
  8
LAY-1
 62
     3
100
AcDbLine
 10
94.48012349814371
 20
57.52199999999999
 30
0.0
 11
94.48012349814371
 21
49.79701991844064
 31
0.0
  0
LINE
  5
3158
330
A
100
AcDbEntity
  8
LAY-1
 62
     3
100
AcDbLine
 10
96.5003775018563
 20
57.52199999999999
 30
0.0
 11
96.50037750185585
 21
49.79701991844064
 31
0.0
  0
LINE
  5
3159
330
A
100
AcDbEntity
  8
LAY-1
 62
     1
100
AcDbLine
 10
83.7402505
 20
57.52199999999999
 30
0.0
 11
107.2402505
 21
57.52199999999999
 31
0.0
  0
LINE
  5
315A
330
A
100
AcDbEntity
  8
LAY-1
 62
     3
100
AcDbLine
 10
104.4398219285713
 20
70.02199999999999
 30
0.0
 11
106.4398219285713
 21
70.02199999999999
 31
0.0
  0
LINE
  5
315B
330
A
100
AcDbEntity
  8
LAY-1
 62
     3
100
AcDbLine
 10
94.48012349814371
 20
57.52199999999999
 30
0.0
 11
94.48012349814371
 21
65.24698008155934
 31
0.0
  0
LINE
  5
315C
330
A
100
AcDbEntity
  8
LAY-1
 62
     3
100
AcDbLine
 10
96.5003775018563
 20
57.52199999999999
 30
0.0
 11
96.5003775018563
 21
65.24698008155934
 31
0.0
  0
LINE
  5
315D
330
A
100
AcDbEntity
  8
LAY-1
 62
     3
100
AcDbLine
 10
106.7402505
 20
66.22157142857151
 30
0.0
 11
106.7402505
 21
48.82242857142848
 31
0.0
  0
LINE
  5
315E
330
A
100
AcDbEntity
  8
LAY-1
 62
     3
100
AcDbLine
 10
106.4398219285713
 20
70.02199999999999
 30
0.0
 11
106.4398219285713
 21
45.02199999999999
 31
0.0
  0
LINE
  5
315F
330
A
100
AcDbEntity
  8
LAY-1
 62
     3
100
AcDbLine
 10
104.4398219285713
 20
70.02199999999999
 30
0.0
 11
104.4398219285713
 21
45.02200000000022
 31
0.0
  0
LINE
  5
3160
330
A
100
AcDbEntity
  8
LAY-1
 62
     3
100
AcDbLine
 10
90.54419790173824
 20
65.34074018169969
 30
0.0
 11
89.9903738183948
 21
64.96782873834565
 31
0.0
  0
ARC
  5
3161
330
A
100
AcDbEntity
  8
LAY-1
 62
     3
100
AcDbCircle
 10
91.85435447498504
 20
63.3949799317898
 30
0.0
 40
2.345739370977232
100
AcDbArc
 50
56.04375944883656
 51
123.9539262743817
  0
LINE
  5
3162
330
A
100
AcDbEntity
  8
LAY-1
 62
     3
100
AcDbLine
 10
93.16458963982359
 20
65.34068726059678
 30
0.0
 11
93.88627160268788
 21
64.85470816622097
 31
0.0
  0
LINE
  5
3163
330
A
100
AcDbEntity
  8
LAY-1
 62
     3
100
AcDbLine
 10
104.0694420278905
 20
64.54679808459065
 30
0.0
 11
102.1189536496849
 21
64.54679808459065
 31
0.0
  0
ARC
  5
3164
330
A
100
AcDbEntity
  8
LAY-1
 62
     3
100
AcDbCircle
 10
102.1250077423847
 20
66.28679496312003
 30
0.0
 40
1.740007410711285
100
AcDbArc
 50
229.2902482100583
 51
269.800647595962
  0
LINE
  5
3165
330
A
100
AcDbEntity
  8
LAY-1
 62
     3
100
AcDbLine
 10
100.4363030982622
 20
65.34074018169969
 30
0.0
 11
100.9901271816052
 21
64.96782873834565
 31
0.0
  0
ARC
  5
3166
330
A
100
AcDbEntity
  8
LAY-1
 62
     3
100
AcDbCircle
 10
99.12614652501453
 20
63.3949799317898
 30
0.0
 40
2.345739370977232
100
AcDbArc
 50
56.04607372561831
 51
123.9562405511634
  0
LINE
  5
3167
330
A
100
AcDbEntity
  8
LAY-1
 62
     3
100
AcDbLine
 10
97.81591136017595
 20
65.34068726059678
 30
0.0
 11
97.09422939731211
 21
64.85470816622097
 31
0.0
  0
ARC
  5
3168
330
A
100
AcDbEntity
  8
LAY-1
 62
     3
100
AcDbCircle
 10
94.08280687741351
 20
65.14656426554194
 30
0.0
 40
0.3518609056465849
100
AcDbArc
 50
236.0437594488366
 51
0.0
  0
ARC
  5
3169
330
A
100
AcDbEntity
  8
LAY-1
 62
     3
100
AcDbCircle
 10
94.55211626688059
 20
65.15389452766346
 30
0.0
 40
0.1176770117503326
100
AcDbArc
 50
90.07864022155708
 51
183.5713446657457
  0
ARC
  5
316A
330
A
100
AcDbEntity
  8
LAY-1
 62
     3
100
AcDbCircle
 10
96.42838473311941
 20
65.15389452766346
 30
0.0
 40
0.1176770117503673
100
AcDbArc
 50
356.4286553342543
 51
89.92135977818234
  0
ARC
  5
316B
330
A
100
AcDbEntity
  8
LAY-1
 62
     3
100
AcDbCircle
 10
96.89769412258648
 20
65.14656426554194
 30
0.0
 40
0.3518609056465849
100
AcDbArc
 50
180.0
 51
303.9562405511635
  0
LINE
  5
316C
330
A
100
AcDbEntity
  8
LAY-1
  6
Continuous
 62
     3
100
AcDbLine
 10
94.55195475160918
 20
65.27157142857146
 30
0.0
 11
96.42854624839085
 21
65.27157142857146
 31
0.0
  0
ARC
  5
316D
330
A
100
AcDbEntity
  8
LAY-1
 62
     3
100
AcDbCircle
 10
104.0694420278905
 20
64.91717798527139
 30
0.0
 40
0.3703799006806157
100
AcDbArc
 50
270.0
 51
0.0
  0
LINE
  5
316E
330
A
100
AcDbEntity
  8
LAY-1
 62
     3
100
AcDbLine
 10
86.91105897210901
 20
64.54679808459065
 30
0.0
 11
88.86154735031459
 21
64.54679808459065
 31
0.0
  0
ARC
  5
316F
330
A
100
AcDbEntity
  8
LAY-1
 62
     3
100
AcDbCircle
 10
88.85549325761529
 20
66.28679496312003
 30
0.0
 40
1.740007410711285
100
AcDbArc
 50
270.1993524040381
 51
310.7097517899417
  0
LINE
  5
3170
330
A
100
AcDbEntity
  8
LAY-1
 62
     3
100
AcDbLine
 10
90.54419790173779
 20
65.34074018169969
 30
0.0
 11
89.9903738183948
 21
64.96782873834565
 31
0.0
  0
LINE
  5
3171
330
A
100
AcDbEntity
  8
LAY-1
 62
     3
100
AcDbLine
 10
106.4398219285713
 20
66.52199999999999
 30
0.0
 11
106.7402505
 21
66.22157142857151
 31
0.0
  0
LINE
  5
3172
330
A
100
AcDbEntity
  8
LAY-1
 62
     3
100
AcDbLine
 10
104.4398219285713
 20
45.02200000000022
 30
0.0
 11
106.4398219285713
 21
45.02199999999999
 31
0.0
  0
LINE
  5
3173
330
A
100
AcDbEntity
  8
LAY-1
 62
     3
100
AcDbLine
 10
106.4398219285713
 20
48.52199999999999
 30
0.0
 11
106.7402505
 21
48.82242857142848
 31
0.0
  0
LINE
  5
3174
330
A
100
AcDbEntity
  8
LAY-1
 62
     3
100
AcDbLine
 10
86.54067907142872
 20
70.02199999999999
 30
0.0
 11
84.54067907142869
 21
70.02199999999999
 31
0.0
  0
LINE
  5
3175
330
A
100
AcDbEntity
  8
LAY-1
 62
     3
100
AcDbLine
 10
84.2402505
 20
66.22157142857151
 30
0.0
 11
84.2402505
 21
48.82242857142848
 31
0.0
  0
LINE
  5
3176
330
A
100
AcDbEntity
  8
LAY-1
 62
     3
100
AcDbLine
 10
84.54067907142869
 20
70.02199999999999
 30
0.0
 11
84.54067907142869
 21
45.02199999999999
 31
0.0
  0
LINE
  5
3177
330
A
100
AcDbEntity
  8
LAY-1
 62
     3
100
AcDbLine
 10
86.54067907142872
 20
70.02199999999999
 30
0.0
 11
86.54067907142872
 21
45.02200000000022
 31
0.0
  0
ARC
  5
3178
330
A
100
AcDbEntity
  8
LAY-1
 62
     3
100
AcDbCircle
 10
86.91105897210901
 20
64.91717798527139
 30
0.0
 40
0.3703799006806157
100
AcDbArc
 50
180.0
 51
270.0
  0
LINE
  5
3179
330
A
100
AcDbEntity
  8
LAY-1
 62
     3
100
AcDbLine
 10
84.54067907142869
 20
66.52199999999999
 30
0.0
 11
84.2402505
 21
66.22157142857151
 31
0.0
  0
LINE
  5
317A
330
A
100
AcDbEntity
  8
LAY-1
 62
     3
100
AcDbLine
 10
86.54067907142872
 20
45.02200000000022
 30
0.0
 11
84.54067907142869
 21
45.02199999999999
 31
0.0
  0
LINE
  5
317B
330
A
100
AcDbEntity
  8
LAY-1
 62
     3
100
AcDbLine
 10
84.54067907142869
 20
48.52199999999999
 30
0.0
 11
84.2402505
 21
48.82242857142848
 31
0.0
  0
LINE
  5
317D
330
A
100
AcDbEntity
  8
LAY-1
 62
     3
100
AcDbLine
 10
139.4445752124298
 20
57.52199999999999
 30
0.0
 11
139.4445752124298
 21
48.62201991844067
 31
0.0
  0
LINE
  5
317E
330
A
100
AcDbEntity
  8
LAY-1
 62
     3
100
AcDbLine
 10
141.4648292161419
 20
57.52199999999999
 30
0.0
 11
141.4648292161419
 21
48.62201991844067
 31
0.0
  0
LINE
  5
317F
330
A
100
AcDbEntity
  8
LAY-1
 62
     1
100
AcDbLine
 10
128.7424165000002
 20
57.52199999999999
 30
0.0
 11
152.2424164999998
 21
57.52199999999999
 31
0.0
  0
LINE
  5
3180
330
A
100
AcDbEntity
  8
LAY-1
 62
     3
100
AcDbLine
 10
149.1924165000001
 20
71.52199999999997
 30
0.0
 11
151.3924165000003
 21
71.52199999999997
 31
0.0
  0
LINE
  5
3181
330
A
100
AcDbEntity
  8
LAY-1
 62
     3
100
AcDbLine
 10
139.4445752124298
 20
57.52199999999999
 30
0.0
 11
139.4445752124298
 21
66.42198008155952
 31
0.0
  0
LINE
  5
3182
330
A
100
AcDbEntity
  8
LAY-1
 62
     3
100
AcDbLine
 10
141.4648292161419
 20
57.52199999999999
 30
0.0
 11
141.4648292161419
 21
66.42198008155928
 31
0.0
  0
LINE
  5
3183
330
A
100
AcDbEntity
  8
LAY-1
 62
     3
100
AcDbLine
 10
151.7424165000003
 20
67.6720000000003
 30
0.0
 11
151.7424164999998
 21
47.37199999999943
 31
0.0
  0
LINE
  5
3184
330
A
100
AcDbEntity
  8
LAY-1
 62
     3
100
AcDbLine
 10
151.3924165000003
 20
71.52199999999997
 30
0.0
 11
151.3924164999994
 21
43.52199999999998
 31
0.0
  0
LINE
  5
3185
330
A
100
AcDbEntity
  8
LAY-1
 62
     3
100
AcDbLine
 10
149.1924165000001
 20
71.52199999999997
 30
0.0
 11
149.1924164999996
 21
43.52199999999998
 31
0.0
  0
LINE
  5
3186
330
A
100
AcDbEntity
  8
LAY-1
 62
     3
100
AcDbLine
 10
135.5086496160239
 20
66.51574018169964
 30
0.0
 11
134.9548255326804
 21
66.1428287383456
 31
0.0
  0
ARC
  5
3187
330
A
100
AcDbEntity
  8
LAY-1
 62
     3
100
AcDbCircle
 10
136.8188061892711
 20
64.56997993178976
 30
0.0
 40
2.345739370977232
100
AcDbArc
 50
56.04375944883656
 51
123.9539262743817
  0
LINE
  5
3188
330
A
100
AcDbEntity
  8
LAY-1
 62
     3
100
AcDbLine
 10
138.1290413541097
 20
66.51568726059672
 30
0.0
 11
138.8507233169735
 21
66.02970816622093
 31
0.0
  0
LINE
  5
3189
330
A
100
AcDbEntity
  8
LAY-1
 62
     3
100
AcDbLine
 10
148.8220365993198
 20
65.7217980845906
 30
0.0
 11
147.083405363971
 21
65.7217980845906
 31
0.0
  0
ARC
  5
318A
330
A
100
AcDbEntity
  8
LAY-1
 62
     3
100
AcDbCircle
 10
147.0894594566703
 20
67.46179496312
 30
0.0
 40
1.740007410711285
100
AcDbArc
 50
229.2902482100583
 51
269.800647595962
  0
LINE
  5
318B
330
A
100
AcDbEntity
  8
LAY-1
 62
     3
100
AcDbLine
 10
145.4007548125478
 20
66.51574018169964
 30
0.0
 11
145.9545788958913
 21
66.1428287383456
 31
0.0
  0
ARC
  5
318C
330
A
100
AcDbEntity
  8
LAY-1
 62
     3
100
AcDbCircle
 10
144.0905982393006
 20
64.56997993178976
 30
0.0
 40
2.345739370977232
100
AcDbArc
 50
56.04607372561831
 51
123.9562405511634
  0
LINE
  5
318D
330
A
100
AcDbEntity
  8
LAY-1
 62
     3
100
AcDbLine
 10
142.780363074462
 20
66.51568726059672
 30
0.0
 11
142.0586811115976
 21
66.02970816622093
 31
0.0
  0
ARC
  5
318E
330
A
100
AcDbEntity
  8
LAY-1
 62
     3
100
AcDbCircle
 10
139.0472585916991
 20
66.32156426554188
 30
0.0
 40
0.3518609056465849
100
AcDbArc
 50
236.0437594488366
 51
0.0
  0
ARC
  5
318F
330
A
100
AcDbEntity
  8
LAY-1
 62
     3
100
AcDbCircle
 10
139.5165679811662
 20
66.32889452766363
 30
0.0
 40
0.1176770117503326
100
AcDbArc
 50
90.07864022155708
 51
183.5713446657457
  0
ARC
  5
3190
330
A
100
AcDbEntity
  8
LAY-1
 62
     3
100
AcDbCircle
 10
141.392836447405
 20
66.32889452766363
 30
0.0
 40
0.1176770117503673
100
AcDbArc
 50
356.4286553342543
 51
89.92135977818234
  0
ARC
  5
3191
330
A
100
AcDbEntity
  8
LAY-1
 62
     3
100
AcDbCircle
 10
141.8621458368721
 20
66.32156426554188
 30
0.0
 40
0.3518609056465849
100
AcDbArc
 50
180.0
 51
303.9562405511635
  0
LINE
  5
3192
330
A
100
AcDbEntity
  8
LAY-1
  6
Continuous
 62
     3
100
AcDbLine
 10
139.5164064658948
 20
66.44657142857164
 30
0.0
 11
141.3929979626769
 21
66.44657142857164
 31
0.0
  0
ARC
  5
3193
330
A
100
AcDbEntity
  8
LAY-1
 62
     3
100
AcDbCircle
 10
148.8220365993198
 20
66.09217798527135
 30
0.0
 40
0.3703799006806157
100
AcDbArc
 50
270.0
 51
0.0
  0
ARC
  5
3194
330
A
100
AcDbEntity
  8
LAY-1
 62
     3
100
AcDbCircle
 10
133.8199449719009
 20
67.46179496312
 30
0.0
 40
1.740007410711285
100
AcDbArc
 50
270.1993524040381
 51
310.7097517899417
  0
LINE
  5
3195
330
A
100
AcDbEntity
  8
LAY-1
 62
     3
100
AcDbLine
 10
135.5086496160239
 20
66.51574018169964
 30
0.0
 11
134.9548255326804
 21
66.1428287383456
 31
0.0
  0
LINE
  5
3196
330
A
100
AcDbEntity
  8
LAY-1
 62
     3
100
AcDbLine
 10
151.3924165000003
 20
68.02199999999999
 30
0.0
 11
151.7424164999998
 21
67.67200000000054
 31
0.0
  0
LINE
  5
3197
330
A
100
AcDbEntity
  8
LAY-1
 62
     3
100
AcDbLine
 10
149.1924164999996
 20
43.52199999999998
 30
0.0
 11
151.3924164999994
 21
43.52199999999998
 31
0.0
  0
LINE
  5
3198
330
A
100
AcDbEntity
  8
LAY-1
 62
     3
100
AcDbLine
 10
151.3924165000003
 20
47.02199999999999
 30
0.0
 11
151.7424164999998
 21
47.37199999999943
 31
0.0
  0
LINE
  5
3199
330
A
100
AcDbEntity
  8
LAY-1
 62
     3
100
AcDbLine
 10
131.7924165
 20
71.52199999999997
 30
0.0
 11
129.5924164999997
 21
71.52199999999997
 31
0.0
  0
LINE
  5
319A
330
A
100
AcDbEntity
  8
LAY-1
 62
     3
100
AcDbLine
 10
129.2424164999998
 20
67.6720000000003
 30
0.0
 11
129.2424165000003
 21
47.37199999999943
 31
0.0
  0
LINE
  5
319B
330
A
100
AcDbEntity
  8
LAY-1
 62
     3
100
AcDbLine
 10
129.5924164999997
 20
71.52199999999997
 30
0.0
 11
129.5924165000002
 21
43.52199999999998
 31
0.0
  0
LINE
  5
319C
330
A
100
AcDbEntity
  8
LAY-1
 62
     3
100
AcDbLine
 10
131.7924165
 20
71.52199999999997
 30
0.0
 11
131.7924165000004
 21
43.52199999999998
 31
0.0
  0
ARC
  5
319D
330
A
100
AcDbEntity
  8
LAY-1
 62
     3
100
AcDbCircle
 10
132.1627964006807
 20
66.09217798527135
 30
0.0
 40
0.3703799006806157
100
AcDbArc
 50
180.0
 51
270.0
  0
LINE
  5
319E
330
A
100
AcDbEntity
  8
LAY-1
 62
     3
100
AcDbLine
 10
129.5924164999997
 20
68.02199999999999
 30
0.0
 11
129.2424164999998
 21
67.67200000000054
 31
0.0
  0
LINE
  5
319F
330
A
100
AcDbEntity
  8
LAY-1
 62
     3
100
AcDbLine
 10
131.7924165000004
 20
43.52199999999998
 30
0.0
 11
129.5924165000002
 21
43.52199999999998
 31
0.0
  0
LINE
  5
31A0
330
A
100
AcDbEntity
  8
LAY-1
 62
     3
100
AcDbLine
 10
129.5924164999997
 20
47.02199999999999
 30
0.0
 11
129.2424165000003
 21
47.37199999999943
 31
0.0
  0
LINE
  5
31A1
330
A
100
AcDbEntity
  8
LAY-1
  6
Continuous
 62
     3
100
AcDbLine
 10
132.1627964006807
 20
65.7217980845906
 30
0.0
 11
133.8259990646002
 21
65.7217980845906
 31
0.0
  0
LINE
  5
31A3
330
A
100
AcDbEntity
  8
LAY-1
 62
     3
100
AcDbLine
 10
184.4844564981433
 20
57.52199999999999
 30
0.0
 11
184.4844564981437
 21
46.26357324064071
 31
0.0
  0
LINE
  5
31A4
330
A
100
AcDbEntity
  8
LAY-1
 62
     3
100
AcDbLine
 10
186.5047105018558
 20
57.52199999999999
 30
0.0
 11
186.5047105018558
 21
46.26357324064071
 31
0.0
  0
LINE
  5
31A5
330
A
100
AcDbEntity
  8
LAY-1
 62
     1
100
AcDbLine
 10
172.4945835
 20
57.52199999999999
 30
0.0
 11
198.4945835
 21
57.52199999999999
 31
0.0
  0
LINE
  5
31A6
330
A
100
AcDbEntity
  8
LAY-1
  6
Continuous
 62
     3
100
AcDbLine
 10
195.3945834999997
 20
74.0220000000002
 30
0.0
 11
197.5945834999995
 21
74.02199999999997
 31
0.0
  0
LINE
  5
31A7
330
A
100
AcDbEntity
  8
LAY-1
 62
     3
100
AcDbLine
 10
184.4844564981433
 20
57.52199999999999
 30
0.0
 11
184.4844564981437
 21
68.78042675935972
 31
0.0
  0
LINE
  5
31A8
330
A
100
AcDbEntity
  8
LAY-1
 62
     3
100
AcDbLine
 10
186.5047105018558
 20
57.52199999999999
 30
0.0
 11
186.5047105018558
 21
68.7804267593595
 31
0.0
  0
LINE
  5
31A9
330
A
100
AcDbEntity
  8
LAY-1
 62
     3
100
AcDbLine
 10
180.3012282718247
 20
68.85562719078468
 30
0.0
 11
179.7197129843141
 21
68.46407017526309
 31
0.0
  0
ARC
  5
31AA
330
A
100
AcDbEntity
  8
LAY-1
 62
     3
100
AcDbCircle
 10
181.6768926737341
 20
66.81257892837931
 30
0.0
 40
2.463026339526094
100
AcDbArc
 50
56.04375944883656
 51
123.9539262743817
  0
LINE
  5
31AB
330
A
100
AcDbEntity
  8
LAY-1
 62
     3
100
AcDbLine
 10
183.0526395968147
 20
68.85557162362676
 30
0.0
 11
183.8104056578219
 21
68.34529357453203
 31
0.0
  0
LINE
  5
31AC
330
A
100
AcDbEntity
  8
LAY-1
 62
     3
100
AcDbLine
 10
195.005684604285
 20
68.02198798882028
 30
0.0
 11
192.454721807169
 21
68.02198798882028
 31
0.0
  0
ARC
  5
31AD
330
A
100
AcDbEntity
  8
LAY-1
 62
     3
100
AcDbCircle
 10
192.4610786045038
 20
69.84898471127603
 30
0.0
 40
1.82700778124685
100
AcDbArc
 50
229.2902482100583
 51
269.800647595962
  0
LINE
  5
31AE
330
A
100
AcDbEntity
  8
LAY-1
 62
     3
100
AcDbLine
 10
190.6879387281748
 20
68.85562719078468
 30
0.0
 11
191.2694540156855
 21
68.46407017526309
 31
0.0
  0
ARC
  5
31AF
330
A
100
AcDbEntity
  8
LAY-1
 62
     3
100
AcDbCircle
 10
189.3122743262649
 20
66.81257892837931
 30
0.0
 40
2.463026339526094
100
AcDbArc
 50
56.04607372561831
 51
123.9562405511634
  0
LINE
  5
31B0
330
A
100
AcDbEntity
  8
LAY-1
 62
     3
100
AcDbLine
 10
187.9365274031849
 20
68.85557162362676
 30
0.0
 11
187.1787613421772
 21
68.34529357453203
 31
0.0
  0
ARC
  5
31B1
330
A
100
AcDbEntity
  8
LAY-1
 62
     3
100
AcDbCircle
 10
184.0167676962839
 20
68.65174247881903
 30
0.0
 40
0.3694539509289142
100
AcDbArc
 50
236.0437594488366
 51
0.0
  0
ARC
  5
31B2
330
A
100
AcDbEntity
  8
LAY-1
 62
     3
100
AcDbCircle
 10
184.5095425552246
 20
68.65943925404673
 30
0.0
 40
0.1235608623378492
100
AcDbArc
 50
90.07864022155708
 51
183.5713446657457
  0
ARC
  5
31B3
330
A
100
AcDbEntity
  8
LAY-1
 62
     3
100
AcDbCircle
 10
186.4796244447749
 20
68.65943925404673
 30
0.0
 40
0.1235608623378857
100
AcDbArc
 50
356.4286553342543
 51
89.92135977818234
  0
ARC
  5
31B4
330
A
100
AcDbEntity
  8
LAY-1
 62
     3
100
AcDbCircle
 10
186.9723993037151
 20
68.65174247881903
 30
0.0
 40
0.3694539509289142
100
AcDbArc
 50
180.0
 51
303.9562405511635
  0
LINE
  5
31B5
330
A
100
AcDbEntity
  8
LAY-1
  6
Continuous
 62
     3
100
AcDbLine
 10
184.5093729641891
 20
68.78300000000018
 30
0.0
 11
186.4797940358105
 21
68.78300000000018
 31
0.0
  0
ARC
  5
31B6
330
A
100
AcDbEntity
  8
LAY-1
 62
     3
100
AcDbCircle
 10
195.005684604285
 20
68.41088688453493
 30
0.0
 40
0.3888988957146466
100
AcDbArc
 50
270.0
 51
0.0
  0
ARC
  5
31B7
330
A
100
AcDbEntity
  8
LAY-1
 62
     3
100
AcDbCircle
 10
178.5280883954958
 20
69.84898471127603
 30
0.0
 40
1.82700778124685
100
AcDbArc
 50
270.1993524040381
 51
310.7097517899417
  0
LINE
  5
31B8
330
A
100
AcDbEntity
  8
LAY-1
 62
     3
100
AcDbLine
 10
180.3012282718247
 20
68.85562719078468
 30
0.0
 11
179.7197129843141
 21
68.46407017526309
 31
0.0
  0
LINE
  5
31B9
330
A
100
AcDbEntity
  8
LAY-1
 62
     3
100
AcDbLine
 10
197.5945834999995
 20
70.52199999999998
 30
0.0
 11
197.9945835
 21
70.12200000000013
 31
0.0
  0
LINE
  5
31BA
330
A
100
AcDbEntity
  8
LAY-1
  6
Continuous
 62
     3
100
AcDbLine
 10
197.9945835
 20
70.12200000000013
 30
0.0
 11
197.9945834999996
 21
44.92200000000007
 31
0.0
  0
LINE
  5
31BB
330
A
100
AcDbEntity
  8
LAY-1
  6
Continuous
 62
     3
100
AcDbLine
 10
172.9945835
 20
70.12200000000035
 30
0.0
 11
172.9945834999996
 21
44.92200000000031
 31
0.0
  0
LINE
  5
31BC
330
A
100
AcDbEntity
  8
LAY-1
  6
Continuous
 62
     3
100
AcDbLine
 10
197.5945834999995
 20
74.02199999999997
 30
0.0
 11
197.5945834999999
 21
41.02199999999998
 31
0.0
  0
LINE
  5
31BD
330
A
100
AcDbEntity
  8
LAY-1
  6
Continuous
 62
     3
100
AcDbLine
 10
195.3945834999997
 20
74.0220000000002
 30
0.0
 11
195.3945834999997
 21
41.02199999999998
 31
0.0
  0
LINE
  5
31BE
330
A
100
AcDbEntity
  8
LAY-1
  6
Continuous
 62
     3
100
AcDbLine
 10
195.3945834999997
 20
41.02199999999998
 30
0.0
 11
197.5945834999995
 21
41.02199999999998
 31
0.0
  0
LINE
  5
31BF
330
A
100
AcDbEntity
  8
LAY-1
 62
     3
100
AcDbLine
 10
197.5945834999995
 20
44.52199999999999
 30
0.0
 11
197.9945835
 21
44.92200000000007
 31
0.0
  0
LINE
  5
31C0
330
A
100
AcDbEntity
  8
LAY-1
  6
Continuous
 62
     3
100
AcDbLine
 10
175.5945834999999
 20
74.0220000000002
 30
0.0
 11
173.3945834999996
 21
74.02199999999997
 31
0.0
  0
LINE
  5
31C1
330
A
100
AcDbEntity
  8
LAY-1
 62
     3
100
AcDbLine
 10
175.9834823957146
 20
68.02198798882028
 30
0.0
 11
178.5344451928305
 21
68.02198798882028
 31
0.0
  0
ARC
  5
31C2
330
A
100
AcDbEntity
  8
LAY-1
 62
     3
100
AcDbCircle
 10
175.9834823957146
 20
68.41088688453493
 30
0.0
 40
0.3888988957146467
100
AcDbArc
 50
180.0
 51
270.0
  0
LINE
  5
31C3
330
A
100
AcDbEntity
  8
LAY-1
 62
     3
100
AcDbLine
 10
173.3945834999996
 20
70.52199999999998
 30
0.0
 11
172.9945835
 21
70.12200000000013
 31
0.0
  0
LINE
  5
31C4
330
A
100
AcDbEntity
  8
LAY-1
  6
Continuous
 62
     3
100
AcDbLine
 10
172.9945835
 20
70.12200000000013
 30
0.0
 11
172.9945835
 21
44.92200000000007
 31
0.0
  0
LINE
  5
31C5
330
A
100
AcDbEntity
  8
LAY-1
  6
Continuous
 62
     3
100
AcDbLine
 10
173.3945834999996
 20
74.02199999999997
 30
0.0
 11
173.3945834999996
 21
41.02199999999998
 31
0.0
  0
LINE
  5
31C6
330
A
100
AcDbEntity
  8
LAY-1
  6
Continuous
 62
     3
100
AcDbLine
 10
175.5945834999999
 20
74.0220000000002
 30
0.0
 11
175.5945834999999
 21
41.02199999999998
 31
0.0
  0
LINE
  5
31C7
330
A
100
AcDbEntity
  8
LAY-1
  6
Continuous
 62
     3
100
AcDbLine
 10
175.5945834999999
 20
41.02199999999998
 30
0.0
 11
173.3945834999996
 21
41.02199999999998
 31
0.0
  0
LINE
  5
31C8
330
A
100
AcDbEntity
  8
LAY-1
 62
     3
100
AcDbLine
 10
173.3945834999996
 20
44.52199999999999
 30
0.0
 11
172.9945835
 21
44.92200000000007
 31
0.0
  0
LINE
  5
31CA
330
A
100
AcDbEntity
  8
LAY-1
 62
     1
100
AcDbLine
 10
217.4967505
 20
57.52199999999999
 30
0.0
 11
243.4967505
 21
57.52199999999999
 31
0.0
  0
LINE
  5
31CB
330
A
100
AcDbEntity
  8
LAY-1
  6
Continuous
 62
     3
100
AcDbLine
 10
240.1467505000001
 20
77.52199999999998
 30
0.0
 11
242.5467505000002
 21
77.52199999999998
 31
0.0
  0
LINE
  5
31CC
330
A
100
AcDbEntity
  8
LAY-1
 62
     3
100
AcDbLine
 10
229.3856107979578
 20
42.88783056470452
 30
0.0
 11
229.3856107979582
 21
72.15616943529568
 31
0.0
  0
LINE
  5
31CD
330
A
100
AcDbEntity
  8
LAY-1
 62
     3
100
AcDbLine
 10
231.6078902020409
 20
42.88783056470452
 30
0.0
 11
231.6078902020418
 21
72.15616943529568
 31
0.0
  0
LINE
  5
31CE
330
A
100
AcDbEntity
  8
LAY-1
 62
     3
100
AcDbLine
 10
224.7840597490072
 20
72.2388899098633
 30
0.0
 11
224.1443929327457
 21
71.80817719278962
 31
0.0
  0
ARC
  5
31CF
330
A
100
AcDbEntity
  8
LAY-1
 62
     3
100
AcDbCircle
 10
226.2972905911079
 20
69.99153682121738
 30
0.0
 40
2.709328973478704
100
AcDbArc
 50
56.04375944883656
 51
123.9539262743817
  0
LINE
  5
31D0
330
A
100
AcDbEntity
  8
LAY-1
 62
     3
100
AcDbLine
 10
227.8106122064965
 20
72.23882878598948
 30
0.0
 11
228.6441548736044
 21
71.67752293198538
 31
0.0
  0
LINE
  5
31D1
330
A
100
AcDbEntity
  8
LAY-1
 62
     3
100
AcDbLine
 10
239.7189617147138
 20
71.32188678770245
 30
0.0
 11
238.1529026378863
 21
71.32188678770245
 31
0.0
  0
ARC
  5
31D2
330
A
100
AcDbEntity
  8
LAY-1
 62
     3
100
AcDbCircle
 10
238.1598951149545
 20
73.3315831824039
 30
0.0
 40
2.009708559371535
100
AcDbArc
 50
229.2902482100583
 51
269.800647595962
  0
LINE
  5
31D3
330
A
100
AcDbEntity
  8
LAY-1
 62
     3
100
AcDbLine
 10
236.2094412509924
 20
72.2388899098633
 30
0.0
 11
236.8491080672539
 21
71.80817719278962
 31
0.0
  0
ARC
  5
31D4
330
A
100
AcDbEntity
  8
LAY-1
 62
     3
100
AcDbCircle
 10
234.6962104088917
 20
69.99153682121738
 30
0.0
 40
2.709328973478704
100
AcDbArc
 50
56.04607372561831
 51
123.9562405511634
  0
LINE
  5
31D5
330
A
100
AcDbEntity
  8
LAY-1
 62
     3
100
AcDbLine
 10
233.1828887935035
 20
72.23882878598948
 30
0.0
 11
232.3493461263952
 21
71.67752293198538
 31
0.0
  0
ARC
  5
31D6
330
A
100
AcDbEntity
  8
LAY-1
 62
     3
100
AcDbCircle
 10
228.8711531159125
 20
72.01461672670126
 30
0.0
 40
0.4063993460218058
100
AcDbArc
 50
236.0437594488366
 51
0.0
  0
ARC
  5
31D7
330
A
100
AcDbEntity
  8
LAY-1
 62
     3
100
AcDbCircle
 10
229.4132054607472
 20
72.02308317945159
 30
0.0
 40
0.1359169485716342
100
AcDbArc
 50
90.07864022155708
 51
183.5713446657457
  0
ARC
  5
31D8
330
A
100
AcDbEntity
  8
LAY-1
 62
     3
100
AcDbCircle
 10
231.5802955392529
 20
72.02308317945159
 30
0.0
 40
0.1359169485716743
100
AcDbArc
 50
356.4286553342543
 51
89.92135977818234
  0
ARC
  5
31D9
330
A
100
AcDbEntity
  8
LAY-1
 62
     3
100
AcDbCircle
 10
232.1223478840871
 20
72.01461672670126
 30
0.0
 40
0.4063993460218058
100
AcDbArc
 50
180.0
 51
303.9562405511635
  0
LINE
  5
31DA
330
A
100
AcDbEntity
  8
LAY-1
  6
Continuous
 62
     3
100
AcDbLine
 10
229.4130189106082
 20
72.15900000000039
 30
0.0
 11
231.5804820893914
 21
72.15900000000039
 31
0.0
  0
ARC
  5
31DB
330
A
100
AcDbEntity
  8
LAY-1
 62
     3
100
AcDbCircle
 10
239.7189617147138
 20
71.74967557298856
 30
0.0
 40
0.4277887852861113
100
AcDbArc
 50
270.0
 51
0.0
  0
ARC
  5
31DC
330
A
100
AcDbEntity
  8
LAY-1
 62
     3
100
AcDbCircle
 10
222.8336058850455
 20
73.3315831824039
 30
0.0
 40
2.009708559371535
100
AcDbArc
 50
270.1993524040381
 51
310.7097517899417
  0
LINE
  5
31DD
330
A
100
AcDbEntity
  8
LAY-1
 62
     3
100
AcDbLine
 10
224.7840597490072
 20
72.2388899098633
 30
0.0
 11
224.1443929327457
 21
71.80817719278962
 31
0.0
  0
LINE
  5
31DE
330
A
100
AcDbEntity
  8
LAY-1
 62
     3
100
AcDbLine
 10
242.5467505000002
 20
73.62200000000012
 30
0.0
 11
242.9967505
 21
73.17200000000031
 31
0.0
  0
LINE
  5
31DF
330
A
100
AcDbEntity
  8
LAY-1
  6
Continuous
 62
     3
100
AcDbLine
 10
242.9967505
 20
73.17200000000031
 30
0.0
 11
242.9967505
 21
41.8719999999999
 31
0.0
  0
LINE
  5
31E0
330
A
100
AcDbEntity
  8
LAY-1
  6
Continuous
 62
     3
100
AcDbLine
 10
217.9967505
 20
73.17200000000031
 30
0.0
 11
217.9967505
 21
41.8719999999999
 31
0.0
  0
LINE
  5
31E1
330
A
100
AcDbEntity
  8
LAY-1
  6
Continuous
 62
     3
100
AcDbLine
 10
242.5467505000002
 20
77.52199999999998
 30
0.0
 11
242.5467504999998
 21
37.52199999999999
 31
0.0
  0
LINE
  5
31E2
330
A
100
AcDbEntity
  8
LAY-1
  6
Continuous
 62
     3
100
AcDbLine
 10
240.1467505000001
 20
77.52199999999998
 30
0.0
 11
240.1467505000001
 21
37.52199999999999
 31
0.0
  0
LINE
  5
31E3
330
A
100
AcDbEntity
  8
LAY-1
  6
Continuous
 62
     3
100
AcDbLine
 10
240.1467505000001
 20
37.52199999999999
 30
0.0
 11
242.5467505000002
 21
37.52199999999999
 31
0.0
  0
LINE
  5
31E4
330
A
100
AcDbEntity
  8
LAY-1
 62
     3
100
AcDbLine
 10
242.5467505000002
 20
41.42200000000007
 30
0.0
 11
242.9967505
 21
41.8719999999999
 31
0.0
  0
LINE
  5
31E5
330
A
100
AcDbEntity
  8
LAY-1
  6
Continuous
 62
     3
100
AcDbLine
 10
220.8467504999999
 20
77.52199999999998
 30
0.0
 11
218.4467504999998
 21
77.52199999999998
 31
0.0
  0
LINE
  5
31E6
330
A
100
AcDbEntity
  8
LAY-1
 62
     3
100
AcDbLine
 10
218.4467504999998
 20
73.62200000000012
 30
0.0
 11
217.9967505
 21
73.17200000000031
 31
0.0
  0
LINE
  5
31E7
330
A
100
AcDbEntity
  8
LAY-1
  6
Continuous
 62
     3
100
AcDbLine
 10
218.4467504999998
 20
77.52199999999998
 30
0.0
 11
218.4467505000003
 21
37.52199999999999
 31
0.0
  0
LINE
  5
31E8
330
A
100
AcDbEntity
  8
LAY-1
  6
Continuous
 62
     3
100
AcDbLine
 10
220.8467504999999
 20
77.52199999999998
 30
0.0
 11
220.8467504999999
 21
37.52199999999999
 31
0.0
  0
LINE
  5
31E9
330
A
100
AcDbEntity
  8
LAY-1
  6
Continuous
 62
     3
100
AcDbLine
 10
220.8467504999999
 20
37.52199999999999
 30
0.0
 11
218.4467504999998
 21
37.52199999999999
 31
0.0
  0
LINE
  5
31EA
330
A
100
AcDbEntity
  8
LAY-1
 62
     3
100
AcDbLine
 10
218.4467504999998
 20
41.42200000000007
 30
0.0
 11
217.9967505
 21
41.8719999999999
 31
0.0
  0
LINE
  5
31EB
330
A
100
AcDbEntity
  8
LAY-1
  6
Continuous
 62
     3
100
AcDbLine
 10
221.2745392852858
 20
71.32188678770245
 30
0.0
 11
222.8405983621133
 21
71.32188678770245
 31
0.0
  0
ARC
  5
31EC
330
A
100
AcDbEntity
  8
LAY-1
 62
     3
100
AcDbCircle
 10
221.2745392852858
 20
71.74967557298856
 30
0.0
 40
0.4277887852861114
100
AcDbArc
 50
180.0
 51
270.0
  0
LINE
  5
31EE
330
A
100
AcDbEntity
  8
LAY-1
 62
     1
100
AcDbLine
 10
262.4989164999998
 20
57.52199999999999
 30
0.0
 11
288.4989165000003
 21
57.52199999999999
 31
0.0
  0
LINE
  5
31EF
330
A
100
AcDbEntity
  8
LAY-1
  6
Continuous
 62
     3
100
AcDbLine
 10
285.1489164999999
 20
79.77199999999998
 30
0.0
 11
287.5489165
 21
79.77199999999998
 31
0.0
  0
LINE
  5
31F0
330
A
100
AcDbEntity
  8
LAY-1
 62
     3
100
AcDbLine
 10
274.3877767979581
 20
40.70083056470463
 30
0.0
 11
274.3877767979585
 21
74.3431694352958
 31
0.0
  0
LINE
  5
31F1
330
A
100
AcDbEntity
  8
LAY-1
 62
     3
100
AcDbLine
 10
276.6100562020412
 20
40.7008305647044
 30
0.0
 11
276.6100562020416
 21
74.34316943529558
 31
0.0
  0
LINE
  5
31F2
330
A
100
AcDbEntity
  8
LAY-1
 62
     3
100
AcDbLine
 10
269.7862257490075
 20
74.42588990986343
 30
0.0
 11
269.146558932746
 21
73.99517719278954
 31
0.0
  0
ARC
  5
31F3
330
A
100
AcDbEntity
  8
LAY-1
 62
     3
100
AcDbCircle
 10
271.2994565911078
 20
72.17853682121726
 30
0.0
 40
2.709328973478704
100
AcDbArc
 50
56.04375944883656
 51
123.9539262743817
  0
LINE
  5
31F4
330
A
100
AcDbEntity
  8
LAY-1
 62
     3
100
AcDbLine
 10
272.8127782064963
 20
74.42582878598961
 30
0.0
 11
273.6463208736042
 21
73.86452293198551
 31
0.0
  0
LINE
  5
31F5
330
A
100
AcDbEntity
  8
LAY-1
 62
     3
100
AcDbLine
 10
284.721127714714
 20
73.50888678770234
 30
0.0
 11
283.1550686378861
 21
73.50888678770234
 31
0.0
  0
ARC
  5
31F6
330
A
100
AcDbEntity
  8
LAY-1
 62
     3
100
AcDbCircle
 10
283.1620611149543
 20
75.51858318240379
 30
0.0
 40
2.009708559371535
100
AcDbArc
 50
229.2902482100583
 51
269.800647595962
  0
LINE
  5
31F7
330
A
100
AcDbEntity
  8
LAY-1
 62
     3
100
AcDbLine
 10
281.2116072509926
 20
74.42588990986343
 30
0.0
 11
281.8512740672542
 21
73.99517719278954
 31
0.0
  0
ARC
  5
31F8
330
A
100
AcDbEntity
  8
LAY-1
 62
     3
100
AcDbCircle
 10
279.6983764088919
 20
72.17853682121726
 30
0.0
 40
2.709328973478704
100
AcDbArc
 50
56.04607372561831
 51
123.9562405511634
  0
LINE
  5
31F9
330
A
100
AcDbEntity
  8
LAY-1
 62
     3
100
AcDbLine
 10
278.1850547935038
 20
74.42582878598961
 30
0.0
 11
277.3515121263955
 21
73.86452293198551
 31
0.0
  0
ARC
  5
31FA
330
A
100
AcDbEntity
  8
LAY-1
 62
     3
100
AcDbCircle
 10
273.8733191159127
 20
74.20161672670116
 30
0.0
 40
0.4063993460218058
100
AcDbArc
 50
236.0437594488366
 51
0.0
  0
ARC
  5
31FB
330
A
100
AcDbEntity
  8
LAY-1
 62
     3
100
AcDbCircle
 10
274.415371460747
 20
74.21008317945172
 30
0.0
 40
0.1359169485716342
100
AcDbArc
 50
90.07864022155708
 51
183.5713446657457
  0
ARC
  5
31FC
330
A
100
AcDbEntity
  8
LAY-1
 62
     3
100
AcDbCircle
 10
276.5824615392527
 20
74.21008317945148
 30
0.0
 40
0.1359169485716743
100
AcDbArc
 50
356.4286553342543
 51
89.92135977818234
  0
ARC
  5
31FD
330
A
100
AcDbEntity
  8
LAY-1
 62
     3
100
AcDbCircle
 10
277.1245138840874
 20
74.20161672670116
 30
0.0
 40
0.4063993460218058
100
AcDbArc
 50
180.0
 51
303.9562405511635
  0
LINE
  5
31FE
330
A
100
AcDbEntity
  8
LAY-1
  6
Continuous
 62
     3
100
AcDbLine
 10
274.4151849106085
 20
74.34600000000028
 30
0.0
 11
276.5826480893917
 21
74.34600000000028
 31
0.0
  0
ARC
  5
31FF
330
A
100
AcDbEntity
  8
LAY-1
 62
     3
100
AcDbCircle
 10
284.721127714714
 20
73.93667557298845
 30
0.0
 40
0.4277887852861113
100
AcDbArc
 50
270.0
 51
0.0
  0
ARC
  5
3200
330
A
100
AcDbEntity
  8
LAY-1
 62
     3
100
AcDbCircle
 10
267.8357718850458
 20
75.51858318240379
 30
0.0
 40
2.009708559371535
100
AcDbArc
 50
270.1993524040381
 51
310.7097517899417
  0
LINE
  5
3201
330
A
100
AcDbEntity
  8
LAY-1
 62
     3
100
AcDbLine
 10
269.7862257490075
 20
74.42588990986343
 30
0.0
 11
269.146558932746
 21
73.99517719278954
 31
0.0
  0
LINE
  5
3202
330
A
100
AcDbEntity
  8
LAY-1
 62
     3
100
AcDbLine
 10
287.5489165
 20
75.82200000000018
 30
0.0
 11
287.9989165000003
 21
75.37200000000034
 31
0.0
  0
LINE
  5
3203
330
A
100
AcDbEntity
  8
LAY-1
  6
Continuous
 62
     3
100
AcDbLine
 10
287.9989165000003
 20
75.37200000000034
 30
0.0
 11
287.9989164999998
 21
39.67199999999964
 31
0.0
  0
LINE
  5
3204
330
A
100
AcDbEntity
  8
LAY-1
  6
Continuous
 62
     3
100
AcDbLine
 10
262.9989165000003
 20
75.37200000000034
 30
0.0
 11
262.9989164999998
 21
39.67199999999986
 31
0.0
  0
LINE
  5
3205
330
A
100
AcDbEntity
  8
LAY-1
  6
Continuous
 62
     3
100
AcDbLine
 10
287.5489165
 20
79.77199999999998
 30
0.0
 11
287.5489165
 21
35.27199999999999
 31
0.0
  0
LINE
  5
3206
330
A
100
AcDbEntity
  8
LAY-1
  6
Continuous
 62
     3
100
AcDbLine
 10
285.1489164999999
 20
79.77199999999998
 30
0.0
 11
285.1489165000004
 21
35.27199999999999
 31
0.0
  0
LINE
  5
3207
330
A
100
AcDbEntity
  8
LAY-1
  6
Continuous
 62
     3
100
AcDbLine
 10
265.8489165000002
 20
79.77199999999998
 30
0.0
 11
263.4489164999997
 21
79.77199999999998
 31
0.0
  0
LINE
  5
3208
330
A
100
AcDbEntity
  8
LAY-1
 62
     3
100
AcDbLine
 10
263.4489164999997
 20
75.82200000000018
 30
0.0
 11
262.9989164999998
 21
75.37200000000034
 31
0.0
  0
LINE
  5
3209
330
A
100
AcDbEntity
  8
LAY-1
  6
Continuous
 62
     3
100
AcDbLine
 10
263.4489164999997
 20
79.77199999999998
 30
0.0
 11
263.4489165000001
 21
35.27199999999999
 31
0.0
  0
LINE
  5
320A
330
A
100
AcDbEntity
  8
LAY-1
  6
Continuous
 62
     3
100
AcDbLine
 10
265.8489165000002
 20
79.77199999999998
 30
0.0
 11
265.8489165000002
 21
35.27199999999999
 31
0.0
  0
LINE
  5
320B
330
A
100
AcDbEntity
  8
LAY-1
  6
Continuous
 62
     3
100
AcDbLine
 10
266.2767052852861
 20
73.50888678770234
 30
0.0
 11
267.8427643621136
 21
73.50888678770234
 31
0.0
  0
ARC
  5
320C
330
A
100
AcDbEntity
  8
LAY-1
 62
     3
100
AcDbCircle
 10
266.2767052852861
 20
73.93667557298845
 30
0.0
 40
0.4277887852861114
100
AcDbArc
 50
180.0
 51
270.0
  0
LINE
  5
320D
330
A
100
AcDbEntity
  8
LAY-1
  6
Continuous
 62
     3
100
AcDbLine
 10
285.1489165000004
 20
35.27199999999999
 30
0.0
 11
287.5489165
 21
35.27199999999999
 31
0.0
  0
LINE
  5
320E
330
A
100
AcDbEntity
  8
LAY-1
 62
     3
100
AcDbLine
 10
287.5489165
 20
39.22200000000004
 30
0.0
 11
287.9989164999998
 21
39.67199999999964
 31
0.0
  0
LINE
  5
320F
330
A
100
AcDbEntity
  8
LAY-1
  6
Continuous
 62
     3
100
AcDbLine
 10
265.8489165000002
 20
35.27199999999999
 30
0.0
 11
263.4489165000001
 21
35.27199999999999
 31
0.0
  0
LINE
  5
3210
330
A
100
AcDbEntity
  8
LAY-1
 62
     3
100
AcDbLine
 10
263.4489164999997
 20
39.22200000000004
 30
0.0
 11
262.9989164999998
 21
39.67199999999986
 31
0.0
  0
LINE
  5
3212
330
A
100
AcDbEntity
  8
LAY-1
 62
     3
100
AcDbLine
 10
41.33851207142845
 20
68.02199999999999
 30
0.0
 11
39.53851207142827
 21
68.02199999999999
 31
0.0
  0
LINE
  5
3213
330
A
100
AcDbEntity
  8
LAY-1
 62
     3
100
AcDbLine
 10
39.23808350000001
 20
64.67157142857155
 30
0.0
 11
39.23808350000001
 21
50.37242857142865
 31
0.0
  0
LINE
  5
3214
330
A
100
AcDbEntity
  8
LAY-1
 62
     3
100
AcDbLine
 10
39.53851207142827
 20
68.02199999999999
 30
0.0
 11
39.53851207142827
 21
47.02199999999999
 31
0.0
  0
LINE
  5
3215
330
A
100
AcDbEntity
  8
LAY-1
 62
     3
100
AcDbLine
 10
41.33851207142845
 20
68.02199999999999
 30
0.0
 11
41.33851207142845
 21
47.02199999999999
 31
0.0
  0
LINE
  5
3216
330
A
100
AcDbEntity
  8
LAY-1
 62
     3
100
AcDbLine
 10
41.33851207142845
 20
47.02199999999999
 30
0.0
 11
39.53851207142827
 21
47.02199999999999
 31
0.0
  0
LINE
  5
3217
330
A
100
AcDbEntity
  8
LAY-1
 62
     3
100
AcDbLine
 10
39.53851207142873
 20
50.07200000000017
 30
0.0
 11
39.23808350000001
 21
50.37242857142865
 31
0.0
  0
ARC
  5
3218
330
A
100
AcDbEntity
  8
LAY-1
 62
     3
100
AcDbCircle
 10
41.70889197210921
 20
63.49274941384289
 30
0.0
 40
0.3703799006806157
100
AcDbArc
 50
180.0
 51
270.0
  0
LINE
  5
3219
330
A
100
AcDbEntity
  8
LAY-1
 62
     3
100
AcDbLine
 10
39.53851207142873
 20
64.97200000000026
 30
0.0
 11
39.23808350000001
 21
64.67157142857155
 31
0.0
  0
LINE
  5
321A
330
A
100
AcDbEntity
  8
LAY-1
 62
     3
100
AcDbLine
 10
94.9367562524076
 20
127.222
 30
0.0
 11
94.9367562524076
 21
124.8144993608437
 31
0.0
  0
LINE
  5
321B
330
A
100
AcDbEntity
  8
LAY-1
 62
     3
100
AcDbLine
 10
96.04374474759246
 20
127.222
 30
0.0
 11
96.04374474759246
 21
124.8144993608437
 31
0.0
  0
LINE
  5
321C
330
A
100
AcDbEntity
  8
LAY-1
 62
     3
100
AcDbLine
 10
91.37474858253112
 20
129.3220038349384
 30
0.0
 11
91.91941311133772
 21
129.3220038349384
 31
0.0
  0
ARC
  5
321D
330
A
100
AcDbEntity
  8
LAY-1
 62
     3
100
AcDbCircle
 10
91.37474858253112
 20
129.5065019174692
 30
0.0
 40
0.1844980825308165
100
AcDbArc
 50
180.0
 51
270.0
  0
ARC
  5
321E
330
A
100
AcDbEntity
  8
LAY-1
 62
     3
100
AcDbCircle
 10
91.91941311133772
 20
130.5519910518105
 30
0.0
 40
1.229987216872109
100
AcDbArc
 50
270.0
 51
303.9539262743826
  0
LINE
  5
321F
330
A
100
AcDbEntity
  8
LAY-1
 62
     3
100
AcDbLine
 10
92.89679039735259
 20
129.7272685996609
 30
0.0
 11
92.60639302783379
 21
129.5317326786521
 31
0.0
  0
ARC
  5
3220
330
A
100
AcDbEntity
  8
LAY-1
 62
     3
100
AcDbCircle
 10
93.5837703138482
 20
128.7070102265025
 30
0.0
 40
1.229987216872109
100
AcDbArc
 50
56.04375944883769
 51
123.9539262743825
  0
LINE
  5
3221
330
A
100
AcDbEntity
  8
LAY-1
 62
     3
100
AcDbLine
 10
94.27079143980432
 20
129.7272408505082
 30
0.0
 11
94.64920500098335
 21
129.4724179656025
 31
0.0
  0
LINE
  5
3222
330
A
100
AcDbEntity
  8
LAY-1
 62
     3
100
AcDbLine
 10
94.9367562524076
 20
127.222
 30
0.0
 11
94.9367562524076
 21
129.6295006391565
 31
0.0
  0
LINE
  5
3223
330
A
100
AcDbEntity
  8
LAY-1
 62
     3
100
AcDbLine
 10
99.60575241746941
 20
129.3220038349384
 30
0.0
 11
99.06108788866234
 21
129.3220038349384
 31
0.0
  0
ARC
  5
3224
330
A
100
AcDbEntity
  8
LAY-1
 62
     3
100
AcDbCircle
 10
99.06108788866234
 20
130.5519910518105
 30
0.0
 40
1.229987216872109
100
AcDbArc
 50
236.0460737256175
 51
270.0
  0
LINE
  5
3225
330
A
100
AcDbEntity
  8
LAY-1
 62
     3
100
AcDbLine
 10
98.08371060264791
 20
129.7272685996609
 30
0.0
 11
98.37410797216628
 21
129.5317326786521
 31
0.0
  0
ARC
  5
3226
330
A
100
AcDbEntity
  8
LAY-1
 62
     3
100
AcDbCircle
 10
97.39673068615188
 20
128.7070102265025
 30
0.0
 40
1.229987216872109
100
AcDbArc
 50
56.04607372561738
 51
123.9562405511623
  0
LINE
  5
3227
330
A
100
AcDbEntity
  8
LAY-1
 62
     3
100
AcDbLine
 10
96.70970956019623
 20
129.7272408505082
 30
0.0
 11
96.33129599901671
 21
129.4724179656025
 31
0.0
  0
LINE
  5
3228
330
A
100
AcDbEntity
  8
LAY-1
 62
     3
100
AcDbLine
 10
96.04374474759246
 20
127.222
 30
0.0
 11
96.04374474759246
 21
129.6295006391565
 31
0.0
  0
ARC
  5
3229
330
A
100
AcDbEntity
  8
LAY-1
 62
     3
100
AcDbCircle
 10
94.75225816987681
 20
129.6254525592033
 30
0.0
 40
0.1844980825308165
100
AcDbArc
 50
236.0437594488377
 51
0.0
  0
ARC
  5
322A
330
A
100
AcDbEntity
  8
LAY-1
 62
     3
100
AcDbCircle
 10
94.99825561325137
 20
129.6295006391565
 30
0.0
 40
0.0614993608436055
100
AcDbArc
 50
90.0
 51
180.0
  0
ARC
  5
322B
330
A
100
AcDbEntity
  8
LAY-1
 62
     3
100
AcDbCircle
 10
95.98224538674916
 20
129.6295006391565
 30
0.0
 40
0.0614993608436055
100
AcDbArc
 50
0.0
 51
90.0
  0
ARC
  5
322C
330
A
100
AcDbEntity
  8
LAY-1
 62
     3
100
AcDbCircle
 10
96.22824283012327
 20
129.6254525592033
 30
0.0
 40
0.1844980825308165
100
AcDbArc
 50
180.0
 51
303.9562405511623
  0
LINE
  5
322D
330
A
100
AcDbEntity
  8
LAY-1
  6
Continuous
 62
     3
100
AcDbLine
 10
94.99825561325137
 20
129.691
 30
0.0
 11
95.98224538674916
 21
129.691
 31
0.0
  0
ARC
  5
322E
330
A
100
AcDbEntity
  8
LAY-1
 62
     3
100
AcDbCircle
 10
99.60575241746941
 20
129.5065019174692
 30
0.0
 40
0.1844980825308165
100
AcDbArc
 50
270.0
 51
0.0
  0
LINE
  5
322F
330
A
100
AcDbEntity
  8
LAY-1
 62
     3
100
AcDbLine
 10
91.37474858253112
 20
125.1219961650618
 30
0.0
 11
91.91941311133772
 21
125.1219961650618
 31
0.0
  0
ARC
  5
3230
330
A
100
AcDbEntity
  8
LAY-1
 62
     3
100
AcDbCircle
 10
91.37474858253112
 20
124.937498082531
 30
0.0
 40
0.1844980825308165
100
AcDbArc
 50
90.0
 51
180.0
  0
ARC
  5
3231
330
A
100
AcDbEntity
  8
LAY-1
 62
     3
100
AcDbCircle
 10
91.91941311133772
 20
123.8920089481897
 30
0.0
 40
1.229987216872109
100
AcDbArc
 50
56.04607372561738
 51
90.0
  0
LINE
  5
3232
330
A
100
AcDbEntity
  8
LAY-1
 62
     3
100
AcDbLine
 10
92.89679039735259
 20
124.7167314003393
 30
0.0
 11
92.60639302783379
 21
124.9122673213481
 31
0.0
  0
ARC
  5
3233
330
A
100
AcDbEntity
  8
LAY-1
 62
     3
100
AcDbCircle
 10
93.5837703138482
 20
125.7369897734977
 30
0.0
 40
1.229987216872109
100
AcDbArc
 50
236.0460737256175
 51
303.9562405511623
  0
LINE
  5
3234
330
A
100
AcDbEntity
  8
LAY-1
 62
     3
100
AcDbLine
 10
94.27079143980432
 20
124.716759149492
 30
0.0
 11
94.64920500098335
 21
124.9715820343977
 31
0.0
  0
LINE
  5
3235
330
A
100
AcDbEntity
  8
LAY-1
 62
     3
100
AcDbLine
 10
99.60575241746941
 20
125.1219961650618
 30
0.0
 11
99.06108788866234
 21
125.1219961650618
 31
0.0
  0
ARC
  5
3236
330
A
100
AcDbEntity
  8
LAY-1
 62
     3
100
AcDbCircle
 10
99.06108788866234
 20
123.8920089481897
 30
0.0
 40
1.229987216872109
100
AcDbArc
 50
90.0
 51
123.9539262743825
  0
LINE
  5
3237
330
A
100
AcDbEntity
  8
LAY-1
 62
     3
100
AcDbLine
 10
98.08371060264791
 20
124.7167314003393
 30
0.0
 11
98.37410797216628
 21
124.9122673213481
 31
0.0
  0
ARC
  5
3238
330
A
100
AcDbEntity
  8
LAY-1
 62
     3
100
AcDbCircle
 10
97.39673068615188
 20
125.7369897734977
 30
0.0
 40
1.229987216872109
100
AcDbArc
 50
236.0437594488377
 51
303.9539262743826
  0
LINE
  5
3239
330
A
100
AcDbEntity
  8
LAY-1
 62
     3
100
AcDbLine
 10
96.70970956019623
 20
124.716759149492
 30
0.0
 11
96.33129599901671
 21
124.9715820343977
 31
0.0
  0
ARC
  5
323A
330
A
100
AcDbEntity
  8
LAY-1
 62
     3
100
AcDbCircle
 10
94.75225816987681
 20
124.8185474407969
 30
0.0
 40
0.1844980825308165
100
AcDbArc
 50
0.0
 51
123.9562405511623
  0
ARC
  5
323B
330
A
100
AcDbEntity
  8
LAY-1
 62
     3
100
AcDbCircle
 10
94.99825561325137
 20
124.8144993608437
 30
0.0
 40
0.0614993608436055
100
AcDbArc
 50
180.0
 51
270.0
  0
ARC
  5
323C
330
A
100
AcDbEntity
  8
LAY-1
 62
     3
100
AcDbCircle
 10
95.98224538674916
 20
124.8144993608437
 30
0.0
 40
0.0614993608436055
100
AcDbArc
 50
270.0
 51
0.0
  0
ARC
  5
323D
330
A
100
AcDbEntity
  8
LAY-1
 62
     3
100
AcDbCircle
 10
96.22824283012327
 20
124.8185474407969
 30
0.0
 40
0.1844980825308165
100
AcDbArc
 50
56.04375944883769
 51
180.0
  0
LINE
  5
323E
330
A
100
AcDbEntity
  8
LAY-1
  6
Continuous
 62
     3
100
AcDbLine
 10
94.99825561325137
 20
124.7530000000002
 30
0.0
 11
95.98224538674916
 21
124.7530000000002
 31
0.0
  0
ARC
  5
323F
330
A
100
AcDbEntity
  8
LAY-1
 62
     3
100
AcDbCircle
 10
99.60575241746941
 20
124.937498082531
 30
0.0
 40
0.1844980825308165
100
AcDbArc
 50
0.0
 51
90.0
  0
LINE
  5
3240
330
A
100
AcDbEntity
  8
LAY-1
 62
     3
100
AcDbLine
 10
133.9114762036907
 20
124.922
 30
0.0
 11
135.2849453082008
 21
124.922
 31
0.0
  0
ARC
  5
3241
330
A
100
AcDbEntity
  8
LAY-1
 62
     3
100
AcDbCircle
 10
133.9114762036907
 20
124.6529402963095
 30
0.0
 40
0.2690597036907741
100
AcDbArc
 50
90.0
 51
180.0
  0
ARC
  5
3242
330
A
100
AcDbEntity
  8
LAY-1
 62
     3
100
AcDbCircle
 10
135.2849453082008
 20
123.1282686420616
 30
0.0
 40
1.793731357938494
100
AcDbArc
 50
56.0460737256173
 51
90.0
  0
LINE
  5
3243
330
A
100
AcDbEntity
  8
LAY-1
 62
     3
100
AcDbLine
 10
136.7102871836387
 20
124.3309888847798
 30
0.0
 11
136.2867910197574
 21
124.6161454362511
 31
0.0
  0
ARC
  5
3244
330
A
100
AcDbEntity
  8
LAY-1
 62
     3
100
AcDbCircle
 10
137.7121328951953
 20
125.8188656789694
 30
0.0
 40
1.793731357938494
100
AcDbArc
 50
236.0460737256173
 51
303.9562405511623
  0
LINE
  5
3245
330
A
100
AcDbEntity
  8
LAY-1
 62
     3
100
AcDbLine
 10
138.7140387038808
 20
124.3310293522943
 30
0.0
 11
139.2658918139341
 21
124.7026460594484
 31
0.0
  0
LINE
  5
3246
330
A
100
AcDbEntity
  8
LAY-1
 62
     3
100
AcDbLine
 10
147.0733567963094
 20
124.922
 30
0.0
 11
145.6998876917992
 21
124.922
 31
0.0
  0
ARC
  5
3247
330
A
100
AcDbEntity
  8
LAY-1
 62
     3
100
AcDbCircle
 10
145.6998876917992
 20
123.1282686420616
 30
0.0
 40
1.793731357938494
100
AcDbArc
 50
90.0
 51
123.9539262743825
  0
LINE
  5
3248
330
A
100
AcDbEntity
  8
LAY-1
 62
     3
100
AcDbLine
 10
144.2745458163613
 20
124.3309888847798
 30
0.0
 11
144.6980419802426
 21
124.6161454362511
 31
0.0
  0
ARC
  5
3249
330
A
100
AcDbEntity
  8
LAY-1
 62
     3
100
AcDbCircle
 10
143.2727001048047
 20
125.8188656789694
 30
0.0
 40
1.793731357938494
100
AcDbArc
 50
236.0437594488377
 51
303.9539262743825
  0
LINE
  5
324A
330
A
100
AcDbEntity
  8
LAY-1
 62
     3
100
AcDbLine
 10
142.2707942961193
 20
124.3310293522943
 30
0.0
 11
141.7189411860659
 21
124.7026460594484
 31
0.0
  0
ARC
  5
324B
330
A
100
AcDbEntity
  8
LAY-1
 62
     3
100
AcDbCircle
 10
139.4161776852371
 20
124.4794706104471
 30
0.0
 40
0.2690597036907741
100
AcDbArc
 50
0.0
 51
123.9562405511623
  0
ARC
  5
324C
330
A
100
AcDbEntity
  8
LAY-1
 62
     3
100
AcDbCircle
 10
139.7749239568248
 20
124.4735671605156
 30
0.0
 40
0.0896865678969247
100
AcDbArc
 50
180.0
 51
270.0
  0
ARC
  5
324D
330
A
100
AcDbEntity
  8
LAY-1
 62
     3
100
AcDbCircle
 10
141.2099090431753
 20
124.4735671605156
 30
0.0
 40
0.0896865678969247
100
AcDbArc
 50
270.0
 51
0.0
  0
ARC
  5
324E
330
A
100
AcDbEntity
  8
LAY-1
 62
     3
100
AcDbCircle
 10
141.568655314763
 20
124.4794706104471
 30
0.0
 40
0.2690597036907741
100
AcDbArc
 50
56.04375944883769
 51
180.0
  0
LINE
  5
324F
330
A
100
AcDbEntity
  8
LAY-1
  6
Continuous
 62
     3
100
AcDbLine
 10
139.7749239568248
 20
124.3838805926187
 30
0.0
 11
141.2099090431753
 21
124.3838805926187
 31
0.0
  0
ARC
  5
3250
330
A
100
AcDbEntity
  8
LAY-1
 62
     3
100
AcDbCircle
 10
147.0733567963094
 20
124.6529402963095
 30
0.0
 40
0.269059703690774
100
AcDbArc
 50
0.0
 51
90.0
  0
LINE
  5
3251
330
A
100
AcDbEntity
  8
LAY-1
 62
     3
100
AcDbLine
 10
178.9136432036904
 20
124.722
 30
0.0
 11
180.2871123082006
 21
124.722
 31
0.0
  0
ARC
  5
3252
330
A
100
AcDbEntity
  8
LAY-1
 62
     3
100
AcDbCircle
 10
178.9136432036904
 20
124.4529402963094
 30
0.0
 40
0.2690597036907741
100
AcDbArc
 50
90.0
 51
180.0
  0
ARC
  5
3253
330
A
100
AcDbEntity
  8
LAY-1
 62
     3
100
AcDbCircle
 10
180.2871123082006
 20
122.9282686420615
 30
0.0
 40
1.793731357938494
100
AcDbArc
 50
56.0460737256173
 51
90.0
  0
LINE
  5
3254
330
A
100
AcDbEntity
  8
LAY-1
 62
     3
100
AcDbLine
 10
181.7124541836385
 20
124.1309888847798
 30
0.0
 11
181.2889580197572
 21
124.4161454362511
 31
0.0
  0
ARC
  5
3255
330
A
100
AcDbEntity
  8
LAY-1
 62
     3
100
AcDbCircle
 10
182.7142998951951
 20
125.6188656789693
 30
0.0
 40
1.793731357938494
100
AcDbArc
 50
236.0460737256173
 51
303.9562405511623
  0
LINE
  5
3256
330
A
100
AcDbEntity
  8
LAY-1
 62
     3
100
AcDbLine
 10
183.7162057038806
 20
124.1310293522943
 30
0.0
 11
184.2680588139339
 21
124.5026460594484
 31
0.0
  0
LINE
  5
3257
330
A
100
AcDbEntity
  8
LAY-1
 62
     3
100
AcDbLine
 10
192.0755237963091
 20
124.722
 30
0.0
 11
190.702054691799
 21
124.722
 31
0.0
  0
ARC
  5
3258
330
A
100
AcDbEntity
  8
LAY-1
 62
     3
100
AcDbCircle
 10
190.702054691799
 20
122.9282686420615
 30
0.0
 40
1.793731357938494
100
AcDbArc
 50
90.0
 51
123.9539262743827
  0
LINE
  5
3259
330
A
100
AcDbEntity
  8
LAY-1
 62
     3
100
AcDbLine
 10
189.2767128163611
 20
124.1309888847798
 30
0.0
 11
189.7002089802424
 21
124.4161454362511
 31
0.0
  0
ARC
  5
325A
330
A
100
AcDbEntity
  8
LAY-1
 62
     3
100
AcDbCircle
 10
188.2748671048045
 20
125.6188656789693
 30
0.0
 40
1.793731357938494
100
AcDbArc
 50
236.0437594488377
 51
303.9539262743827
  0
LINE
  5
325B
330
A
100
AcDbEntity
  8
LAY-1
 62
     3
100
AcDbLine
 10
187.272961296119
 20
124.1310293522943
 30
0.0
 11
186.7211081860656
 21
124.5026460594484
 31
0.0
  0
ARC
  5
325C
330
A
100
AcDbEntity
  8
LAY-1
 62
     3
100
AcDbCircle
 10
184.4183446852368
 20
124.2794706104471
 30
0.0
 40
0.2690597036907741
100
AcDbArc
 50
0.0
 51
123.9562405511623
  0
ARC
  5
325D
330
A
100
AcDbEntity
  8
LAY-1
 62
     3
100
AcDbCircle
 10
184.7770909568246
 20
124.2735671605155
 30
0.0
 40
0.0896865678969247
100
AcDbArc
 50
180.0
 51
270.0
  0
ARC
  5
325E
330
A
100
AcDbEntity
  8
LAY-1
 62
     3
100
AcDbCircle
 10
186.212076043175
 20
124.2735671605155
 30
0.0
 40
0.0896865678969247
100
AcDbArc
 50
270.0
 51
0.0
  0
ARC
  5
325F
330
A
100
AcDbEntity
  8
LAY-1
 62
     3
100
AcDbCircle
 10
186.5708223147628
 20
124.2794706104471
 30
0.0
 40
0.2690597036907741
100
AcDbArc
 50
56.04375944883769
 51
180.0
  0
LINE
  5
3260
330
A
100
AcDbEntity
  8
LAY-1
  6
Continuous
 62
     3
100
AcDbLine
 10
184.7770909568246
 20
124.1838805926186
 30
0.0
 11
186.212076043175
 21
124.1838805926186
 31
0.0
  0
ARC
  5
3261
330
A
100
AcDbEntity
  8
LAY-1
 62
     3
100
AcDbCircle
 10
192.0755237963091
 20
124.4529402963094
 30
0.0
 40
0.269059703690774
100
AcDbArc
 50
0.0
 51
90.0
  0
LINE
  5
3262
330
A
100
AcDbEntity
  8
LAY-1
 62
     3
100
AcDbLine
 10
223.9158102036909
 20
124.1220000000001
 30
0.0
 11
225.2892793082006
 21
124.1220000000001
 31
0.0
  0
ARC
  5
3263
330
A
100
AcDbEntity
  8
LAY-1
 62
     3
100
AcDbCircle
 10
223.9158102036909
 20
123.8529402963093
 30
0.0
 40
0.2690597036907741
100
AcDbArc
 50
90.0
 51
180.0
  0
ARC
  5
3264
330
A
100
AcDbEntity
  8
LAY-1
 62
     3
100
AcDbCircle
 10
225.2892793082006
 20
122.3282686420616
 30
0.0
 40
1.793731357938494
100
AcDbArc
 50
56.0460737256173
 51
90.0
  0
LINE
  5
3265
330
A
100
AcDbEntity
  8
LAY-1
 62
     3
100
AcDbLine
 10
226.714621183639
 20
123.5309888847798
 30
0.0
 11
226.2911250197572
 21
123.816145436251
 31
0.0
  0
ARC
  5
3266
330
A
100
AcDbEntity
  8
LAY-1
 62
     3
100
AcDbCircle
 10
227.7164668951951
 20
125.0188656789694
 30
0.0
 40
1.793731357938494
100
AcDbArc
 50
236.0460737256173
 51
303.9562405511623
  0
LINE
  5
3267
330
A
100
AcDbEntity
  8
LAY-1
 62
     3
100
AcDbLine
 10
228.7183727038806
 20
123.5310293522941
 30
0.0
 11
229.2702258139339
 21
123.9026460594484
 31
0.0
  0
LINE
  5
3268
330
A
100
AcDbEntity
  8
LAY-1
 62
     3
100
AcDbLine
 10
237.0776907963091
 20
124.1220000000001
 30
0.0
 11
235.704221691799
 21
124.1220000000001
 31
0.0
  0
ARC
  5
3269
330
A
100
AcDbEntity
  8
LAY-1
 62
     3
100
AcDbCircle
 10
235.704221691799
 20
122.3282686420616
 30
0.0
 40
1.793731357938494
100
AcDbArc
 50
90.0
 51
123.9539262743827
  0
LINE
  5
326A
330
A
100
AcDbEntity
  8
LAY-1
 62
     3
100
AcDbLine
 10
234.2788798163611
 20
123.5309888847798
 30
0.0
 11
234.7023759802425
 21
123.816145436251
 31
0.0
  0
ARC
  5
326B
330
A
100
AcDbEntity
  8
LAY-1
 62
     3
100
AcDbCircle
 10
233.2770341048045
 20
125.0188656789694
 30
0.0
 40
1.793731357938494
100
AcDbArc
 50
236.0437594488377
 51
303.9539262743827
  0
LINE
  5
326C
330
A
100
AcDbEntity
  8
LAY-1
 62
     3
100
AcDbLine
 10
232.275128296119
 20
123.5310293522941
 30
0.0
 11
231.7232751860657
 21
123.9026460594484
 31
0.0
  0
ARC
  5
326D
330
A
100
AcDbEntity
  8
LAY-1
 62
     3
100
AcDbCircle
 10
229.4205116852368
 20
123.6794706104472
 30
0.0
 40
0.2690597036907741
100
AcDbArc
 50
0.0
 51
123.9562405511623
  0
ARC
  5
326E
330
A
100
AcDbEntity
  8
LAY-1
 62
     3
100
AcDbCircle
 10
229.7792579568246
 20
123.6735671605154
 30
0.0
 40
0.0896865678969247
100
AcDbArc
 50
180.0
 51
270.0
  0
ARC
  5
326F
330
A
100
AcDbEntity
  8
LAY-1
 62
     3
100
AcDbCircle
 10
231.2142430431755
 20
123.6735671605154
 30
0.0
 40
0.0896865678969247
100
AcDbArc
 50
270.0
 51
0.0
  0
ARC
  5
3270
330
A
100
AcDbEntity
  8
LAY-1
 62
     3
100
AcDbCircle
 10
231.5729893147632
 20
123.6794706104472
 30
0.0
 40
0.2690597036907741
100
AcDbArc
 50
56.04375944883769
 51
180.0
  0
LINE
  5
3271
330
A
100
AcDbEntity
  8
LAY-1
  6
Continuous
 62
     3
100
AcDbLine
 10
229.7792579568246
 20
123.5838805926185
 30
0.0
 11
231.2142430431755
 21
123.5838805926185
 31
0.0
  0
ARC
  5
3272
330
A
100
AcDbEntity
  8
LAY-1
 62
     3
100
AcDbCircle
 10
237.0776907963091
 20
123.8529402963093
 30
0.0
 40
0.269059703690774
100
AcDbArc
 50
0.0
 51
90.0
  0
LINE
  5
3273
330
A
100
AcDbEntity
  8
LAY-1
 62
     3
100
AcDbLine
 10
316.5487583644023
 20
122.2877281653086
 30
0.0
 11
316.1062048731462
 21
122.5857167615961
 31
0.0
  0
ARC
  5
3274
330
A
100
AcDbEntity
  8
LAY-1
 62
     3
100
AcDbCircle
 10
317.5956871329788
 20
123.8425594152366
 30
0.0
 40
1.874449269045725
100
AcDbArc
 50
236.0460737256176
 51
303.9562405511623
  0
LINE
  5
3275
330
A
100
AcDbEntity
  8
LAY-1
 62
     3
100
AcDbLine
 10
318.6426787030552
 20
122.2877704538612
 30
0.0
 11
319.2193652030607
 21
122.6761099128373
 31
0.0
  0
LINE
  5
3276
330
A
100
AcDbEntity
  8
LAY-1
 62
     3
100
AcDbLine
 10
326.8551178259401
 20
122.9221567817201
 30
0.0
 11
325.7979924095654
 21
122.9221567817201
 31
0.0
  0
ARC
  5
3277
330
A
100
AcDbEntity
  8
LAY-1
 62
     3
100
AcDbCircle
 10
325.8028301548736
 20
121.5317483171418
 30
0.0
 40
1.39041688070536
100
AcDbArc
 50
90.19935240403805
 51
130.7097517899429
  0
LINE
  5
3278
330
A
100
AcDbEntity
  8
LAY-1
 62
     3
100
AcDbLine
 10
324.4534086355972
 20
122.2877281653086
 30
0.0
 11
324.8959621268534
 21
122.5857167615961
 31
0.0
  0
ARC
  5
3279
330
A
100
AcDbEntity
  8
LAY-1
 62
     3
100
AcDbCircle
 10
323.4064798670208
 20
123.8425594152366
 30
0.0
 40
1.874449269045725
100
AcDbArc
 50
236.0437594488377
 51
303.9539262743824
  0
LINE
  5
327A
330
A
100
AcDbEntity
  8
LAY-1
 62
     3
100
AcDbLine
 10
322.3594882969444
 20
122.2877704538612
 30
0.0
 11
321.7828017969388
 21
122.6761099128373
 31
0.0
  0
ARC
  5
327B
330
A
100
AcDbEntity
  8
LAY-1
 62
     3
100
AcDbCircle
 10
319.3764139385723
 20
122.442891568631
 30
0.0
 40
0.2811673903568589
100
AcDbArc
 50
0.0
 51
123.9562405511623
  0
ARC
  5
327C
330
A
100
AcDbEntity
  8
LAY-1
 62
     3
100
AcDbCircle
 10
319.7514328570962
 20
122.4370340532371
 30
0.0
 40
0.0940341418096262
100
AcDbArc
 50
176.4286553342541
 51
269.9213597781824
  0
ARC
  5
327D
330
A
100
AcDbEntity
  8
LAY-1
 62
     3
100
AcDbCircle
 10
321.2507341429033
 20
122.4370340532371
 30
0.0
 40
0.0940341418096539
100
AcDbArc
 50
270.0786402218176
 51
3.571344665745778
  0
ARC
  5
327E
330
A
100
AcDbEntity
  8
LAY-1
 62
     3
100
AcDbCircle
 10
321.6257530614273
 20
122.442891568631
 30
0.0
 40
0.2811673903568589
100
AcDbArc
 50
56.04375944883769
 51
180.0
  0
LINE
  5
327F
330
A
100
AcDbEntity
  8
LAY-1
  6
Continuous
 62
     3
100
AcDbLine
 10
319.7513037923815
 20
122.3430000000001
 30
0.0
 11
321.250863207618
 21
122.3430000000001
 31
0.0
  0
ARC
  5
3280
330
A
100
AcDbEntity
  8
LAY-1
 62
     3
100
AcDbCircle
 10
326.8551178259401
 20
122.6261911076601
 30
0.0
 40
0.2959656740598515
100
AcDbArc
 50
0.0
 51
90.0
  0
LINE
  5
3281
330
A
100
AcDbEntity
  8
LAY-1
 62
     3
100
AcDbLine
 10
314.1470491740594
 20
122.9221567817201
 30
0.0
 11
315.2041745904341
 21
122.9221567817201
 31
0.0
  0
ARC
  5
3282
330
A
100
AcDbEntity
  8
LAY-1
 62
     3
100
AcDbCircle
 10
315.199336845126
 20
121.5317483171418
 30
0.0
 40
1.39041688070536
100
AcDbArc
 50
49.29024821005704
 51
89.80064759596194
  0
LINE
  5
3283
330
A
100
AcDbEntity
  8
LAY-1
 62
     3
100
AcDbLine
 10
316.5487583644023
 20
122.2877281653086
 30
0.0
 11
316.1062048731462
 21
122.5857167615961
 31
0.0
  0
ARC
  5
3284
330
A
100
AcDbEntity
  8
LAY-1
 62
     3
100
AcDbCircle
 10
314.1470491740594
 20
122.6261911076601
 30
0.0
 40
0.2959656740598515
100
AcDbArc
 50
90.0
 51
180.0
  0
LINE
  5
3285
330
A
100
AcDbEntity
  8
LAY-1
 62
     3
100
AcDbLine
 10
271.5465913644024
 20
122.6087281653086
 30
0.0
 11
271.1040378731462
 21
122.9067167615961
 31
0.0
  0
ARC
  5
3286
330
A
100
AcDbEntity
  8
LAY-1
 62
     3
100
AcDbCircle
 10
272.5935201329788
 20
124.1635594152367
 30
0.0
 40
1.874449269045725
100
AcDbArc
 50
236.0460737256173
 51
303.9562405511623
  0
LINE
  5
3287
330
A
100
AcDbEntity
  8
LAY-1
 62
     3
100
AcDbLine
 10
273.6405117030553
 20
122.6087704538611
 30
0.0
 11
274.2171982030608
 21
122.9971099128372
 31
0.0
  0
LINE
  5
3288
330
A
100
AcDbEntity
  8
LAY-1
 62
     3
100
AcDbLine
 10
281.8529508259402
 20
123.24315678172
 30
0.0
 11
280.795825409566
 21
123.24315678172
 31
0.0
  0
ARC
  5
3289
330
A
100
AcDbEntity
  8
LAY-1
 62
     3
100
AcDbCircle
 10
280.8006631548736
 20
121.8527483171417
 30
0.0
 40
1.39041688070536
100
AcDbArc
 50
90.19935240403805
 51
130.7097517899426
  0
LINE
  5
328A
330
A
100
AcDbEntity
  8
LAY-1
 62
     3
100
AcDbLine
 10
279.4512416355973
 20
122.6087281653086
 30
0.0
 11
279.8937951268534
 21
122.9067167615961
 31
0.0
  0
ARC
  5
328B
330
A
100
AcDbEntity
  8
LAY-1
 62
     3
100
AcDbCircle
 10
278.4043128670209
 20
124.1635594152367
 30
0.0
 40
1.874449269045725
100
AcDbArc
 50
236.0437594488377
 51
303.9539262743827
  0
LINE
  5
328C
330
A
100
AcDbEntity
  8
LAY-1
 62
     3
100
AcDbLine
 10
277.3573212969444
 20
122.6087704538611
 30
0.0
 11
276.7806347969389
 21
122.9971099128372
 31
0.0
  0
ARC
  5
328D
330
A
100
AcDbEntity
  8
LAY-1
 62
     3
100
AcDbCircle
 10
274.3742469385724
 20
122.7638915686312
 30
0.0
 40
0.2811673903568589
100
AcDbArc
 50
0.0
 51
123.9562405511623
  0
ARC
  5
328E
330
A
100
AcDbEntity
  8
LAY-1
 62
     3
100
AcDbCircle
 10
274.7492658570962
 20
122.758034053237
 30
0.0
 40
0.0940341418096262
100
AcDbArc
 50
176.4286553342541
 51
269.9213597781824
  0
ARC
  5
328F
330
A
100
AcDbEntity
  8
LAY-1
 62
     3
100
AcDbCircle
 10
276.2485671429034
 20
122.758034053237
 30
0.0
 40
0.0940341418096539
100
AcDbArc
 50
270.0786402218176
 51
3.571344665745803
  0
ARC
  5
3290
330
A
100
AcDbEntity
  8
LAY-1
 62
     3
100
AcDbCircle
 10
276.6235860614273
 20
122.7638915686312
 30
0.0
 40
0.2811673903568589
100
AcDbArc
 50
56.04375944883769
 51
180.0
  0
LINE
  5
3291
330
A
100
AcDbEntity
  8
LAY-1
  6
Continuous
 62
     3
100
AcDbLine
 10
274.7491367923816
 20
122.6640000000002
 30
0.0
 11
276.2486962076181
 21
122.6640000000002
 31
0.0
  0
ARC
  5
3292
330
A
100
AcDbEntity
  8
LAY-1
 62
     3
100
AcDbCircle
 10
281.8529508259402
 20
122.9471911076601
 30
0.0
 40
0.2959656740598515
100
AcDbArc
 50
0.0
 51
90.0
  0
LINE
  5
3293
330
A
100
AcDbEntity
  8
LAY-1
 62
     3
100
AcDbLine
 10
269.1448821740599
 20
123.24315678172
 30
0.0
 11
270.2020075904342
 21
123.24315678172
 31
0.0
  0
ARC
  5
3294
330
A
100
AcDbEntity
  8
LAY-1
 62
     3
100
AcDbCircle
 10
270.1971698451265
 20
121.8527483171417
 30
0.0
 40
1.39041688070536
100
AcDbArc
 50
49.29024821005736
 51
89.80064759596194
  0
LINE
  5
3295
330
A
100
AcDbEntity
  8
LAY-1
 62
     3
100
AcDbLine
 10
271.5465913644024
 20
122.6087281653086
 30
0.0
 11
271.1040378731462
 21
122.9067167615961
 31
0.0
  0
ARC
  5
3296
330
A
100
AcDbEntity
  8
LAY-1
 62
     3
100
AcDbCircle
 10
269.1448821740599
 20
122.9471911076601
 30
0.0
 40
0.2959656740598515
100
AcDbArc
 50
90.0
 51
180.0
  0
LINE
  5
3297
330
A
100
AcDbEntity
  8
LAY-1
 62
     3
100
AcDbLine
 10
45.54203090173825
 20
51.12768838972879
 30
0.0
 11
44.98820681839482
 21
51.50059983308285
 31
0.0
  0
ARC
  5
3298
330
A
100
AcDbEntity
  8
LAY-1
 62
     3
100
AcDbCircle
 10
46.85218747498503
 20
53.07344863963891
 30
0.0
 40
2.345739370977232
100
AcDbArc
 50
236.0460737256183
 51
303.9562405511621
  0
LINE
  5
3299
330
A
100
AcDbEntity
  8
LAY-1
 62
     3
100
AcDbLine
 10
48.1624226398236
 20
51.1277413108317
 30
0.0
 11
48.8841046026879
 21
51.61372040520774
 31
0.0
  0
LINE
  5
329A
330
A
100
AcDbEntity
  8
LAY-1
 62
     3
100
AcDbLine
 10
59.26727502789082
 20
51.92163048683807
 30
0.0
 11
57.11678664968498
 21
51.92163048683807
 31
0.0
  0
ARC
  5
329B
330
A
100
AcDbEntity
  8
LAY-1
 62
     3
100
AcDbCircle
 10
57.12284074238471
 20
50.18163360830868
 30
0.0
 40
1.740007410711285
100
AcDbArc
 50
90.19935240403805
 51
130.7097517899417
  0
LINE
  5
329C
330
A
100
AcDbEntity
  8
LAY-1
 62
     3
100
AcDbLine
 10
55.43413609826179
 20
51.12768838972879
 30
0.0
 11
55.98796018160522
 21
51.50059983308285
 31
0.0
  0
ARC
  5
329D
330
A
100
AcDbEntity
  8
LAY-1
 62
     3
100
AcDbCircle
 10
54.12397952501454
 20
53.07344863963891
 30
0.0
 40
2.345739370977232
100
AcDbArc
 50
236.0437594488366
 51
303.953926274383
  0
LINE
  5
329E
330
A
100
AcDbEntity
  8
LAY-1
 62
     3
100
AcDbLine
 10
52.81374436017642
 20
51.1277413108317
 30
0.0
 11
52.09206239731213
 21
51.61372040520774
 31
0.0
  0
ARC
  5
329F
330
A
100
AcDbEntity
  8
LAY-1
 62
     3
100
AcDbCircle
 10
49.08063987741353
 20
51.32186430588678
 30
0.0
 40
0.3518609056465849
100
AcDbArc
 50
0.0
 51
123.9562405511634
  0
ARC
  5
32A0
330
A
100
AcDbEntity
  8
LAY-1
 62
     3
100
AcDbCircle
 10
49.54994926688062
 20
51.31453404376504
 30
0.0
 40
0.1176770117503326
100
AcDbArc
 50
176.4286553342541
 51
269.9213597781824
  0
ARC
  5
32A1
330
A
100
AcDbEntity
  8
LAY-1
 62
     3
100
AcDbCircle
 10
51.4262177331194
 20
51.31453404376504
 30
0.0
 40
0.1176770117503673
100
AcDbArc
 50
270.0786402218176
 51
3.571344665745828
  0
ARC
  5
32A2
330
A
100
AcDbEntity
  8
LAY-1
 62
     3
100
AcDbCircle
 10
51.89552712258649
 20
51.32186430588678
 30
0.0
 40
0.3518609056465849
100
AcDbArc
 50
56.04375944883791
 51
180.0
  0
LINE
  5
32A3
330
A
100
AcDbEntity
  8
LAY-1
  6
Continuous
 62
     3
100
AcDbLine
 10
49.5497877516092
 20
51.19685714285703
 30
0.0
 11
51.42637924839084
 21
51.19685714285703
 31
0.0
  0
ARC
  5
32A4
330
A
100
AcDbEntity
  8
LAY-1
 62
     3
100
AcDbCircle
 10
59.26727502789082
 20
51.55125058615732
 30
0.0
 40
0.3703799006806157
100
AcDbArc
 50
0.0
 51
90.0
  0
LINE
  5
32A5
330
A
100
AcDbEntity
  8
LAY-1
 62
     3
100
AcDbLine
 10
41.70889197210921
 20
51.92163048683807
 30
0.0
 11
43.85938035031459
 21
51.92163048683807
 31
0.0
  0
ARC
  5
32A6
330
A
100
AcDbEntity
  8
LAY-1
 62
     3
100
AcDbCircle
 10
43.85332625761531
 20
50.18163360830868
 30
0.0
 40
1.740007410711285
100
AcDbArc
 50
49.29024821005704
 51
89.80064759596194
  0
LINE
  5
32A7
330
A
100
AcDbEntity
  8
LAY-1
 62
     3
100
AcDbLine
 10
45.54203090173779
 20
51.12768838972879
 30
0.0
 11
44.98820681839482
 21
51.50059983308285
 31
0.0
  0
ARC
  5
32A8
330
A
100
AcDbEntity
  8
LAY-1
 62
     3
100
AcDbCircle
 10
41.70889197210921
 20
51.55125058615732
 30
0.0
 40
0.3703799006806157
100
AcDbArc
 50
90.0
 51
180.0
  0
LINE
  5
32A9
330
A
100
AcDbEntity
  8
LAY-1
 62
     3
100
AcDbLine
 10
90.54419790173824
 20
49.70325981830052
 30
0.0
 11
89.9903738183948
 21
50.07617126165456
 31
0.0
  0
ARC
  5
32AA
330
A
100
AcDbEntity
  8
LAY-1
 62
     3
100
AcDbCircle
 10
91.85435447498504
 20
51.64902006821041
 30
0.0
 40
2.345739370977232
100
AcDbArc
 50
236.0460737256183
 51
303.9562405511635
  0
LINE
  5
32AB
330
A
100
AcDbEntity
  8
LAY-1
 62
     3
100
AcDbLine
 10
93.16458963982359
 20
49.70331273940343
 30
0.0
 11
93.88627160268788
 21
50.18929183377924
 31
0.0
  0
LINE
  5
32AC
330
A
100
AcDbEntity
  8
LAY-1
 62
     3
100
AcDbLine
 10
104.0694420278905
 20
50.49720191540956
 30
0.0
 11
102.1189536496849
 21
50.49720191540956
 31
0.0
  0
ARC
  5
32AD
330
A
100
AcDbEntity
  8
LAY-1
 62
     3
100
AcDbCircle
 10
102.1250077423847
 20
48.75720503688018
 30
0.0
 40
1.740007410711285
100
AcDbArc
 50
90.19935240403805
 51
130.7097517899417
  0
LINE
  5
32AE
330
A
100
AcDbEntity
  8
LAY-1
 62
     3
100
AcDbLine
 10
100.4363030982622
 20
49.70325981830052
 30
0.0
 11
100.9901271816052
 21
50.07617126165456
 31
0.0
  0
ARC
  5
32AF
330
A
100
AcDbEntity
  8
LAY-1
 62
     3
100
AcDbCircle
 10
99.12614652501453
 20
51.64902006821041
 30
0.0
 40
2.345739370977232
100
AcDbArc
 50
236.0437594488366
 51
303.9539262743817
  0
LINE
  5
32B0
330
A
100
AcDbEntity
  8
LAY-1
 62
     3
100
AcDbLine
 10
97.81591136017595
 20
49.70331273940343
 30
0.0
 11
97.09422939731211
 21
50.18929183377924
 31
0.0
  0
ARC
  5
32B1
330
A
100
AcDbEntity
  8
LAY-1
 62
     3
100
AcDbCircle
 10
94.08280687741351
 20
49.89743573445828
 30
0.0
 40
0.3518609056465849
100
AcDbArc
 50
0.0
 51
123.9562405511634
  0
ARC
  5
32B2
330
A
100
AcDbEntity
  8
LAY-1
 62
     3
100
AcDbCircle
 10
94.55211626688059
 20
49.89010547233653
 30
0.0
 40
0.1176770117503326
100
AcDbArc
 50
176.4286553342541
 51
269.9213597784429
  0
ARC
  5
32B3
330
A
100
AcDbEntity
  8
LAY-1
 62
     3
100
AcDbCircle
 10
96.42838473311941
 20
49.89010547233675
 30
0.0
 40
0.1176770117503673
100
AcDbArc
 50
270.0786402218176
 51
3.571344665745728
  0
ARC
  5
32B4
330
A
100
AcDbEntity
  8
LAY-1
 62
     3
100
AcDbCircle
 10
96.89769412258648
 20
49.89743573445828
 30
0.0
 40
0.3518609056465849
100
AcDbArc
 50
56.04375944883656
 51
180.0
  0
LINE
  5
32B5
330
A
100
AcDbEntity
  8
LAY-1
  6
Continuous
 62
     3
100
AcDbLine
 10
94.55195475160918
 20
49.77242857142875
 30
0.0
 11
96.42854624839085
 21
49.77242857142875
 31
0.0
  0
ARC
  5
32B6
330
A
100
AcDbEntity
  8
LAY-1
 62
     3
100
AcDbCircle
 10
104.0694420278905
 20
50.12682201472904
 30
0.0
 40
0.3703799006806157
100
AcDbArc
 50
0.0
 51
90.0
  0
LINE
  5
32B7
330
A
100
AcDbEntity
  8
LAY-1
 62
     3
100
AcDbLine
 10
86.91105897210901
 20
50.49720191540956
 30
0.0
 11
88.86154735031459
 21
50.49720191540956
 31
0.0
  0
ARC
  5
32B8
330
A
100
AcDbEntity
  8
LAY-1
 62
     3
100
AcDbCircle
 10
88.85549325761529
 20
48.75720503688018
 30
0.0
 40
1.740007410711285
100
AcDbArc
 50
49.29024821005826
 51
89.80064759596194
  0
LINE
  5
32B9
330
A
100
AcDbEntity
  8
LAY-1
 62
     3
100
AcDbLine
 10
90.54419790173779
 20
49.70325981830052
 30
0.0
 11
89.9903738183948
 21
50.07617126165456
 31
0.0
  0
ARC
  5
32BA
330
A
100
AcDbEntity
  8
LAY-1
 62
     3
100
AcDbCircle
 10
86.91105897210901
 20
50.12682201472904
 30
0.0
 40
0.3703799006806157
100
AcDbArc
 50
90.0
 51
180.0
  0
LINE
  5
32BB
330
A
100
AcDbEntity
  8
LAY-1
 62
     3
100
AcDbLine
 10
135.5086496160239
 20
48.52825981830034
 30
0.0
 11
134.9548255326804
 21
48.90117126165439
 31
0.0
  0
ARC
  5
32BC
330
A
100
AcDbEntity
  8
LAY-1
 62
     3
100
AcDbCircle
 10
136.8188061892711
 20
50.47402006821045
 30
0.0
 40
2.345739370977232
100
AcDbArc
 50
236.0460737256183
 51
303.9562405511635
  0
LINE
  5
32BD
330
A
100
AcDbEntity
  8
LAY-1
 62
     3
100
AcDbLine
 10
138.1290413541097
 20
48.52831273940324
 30
0.0
 11
138.8507233169735
 21
49.01429183377928
 31
0.0
  0
LINE
  5
32BE
330
A
100
AcDbEntity
  8
LAY-1
 62
     3
100
AcDbLine
 10
148.8220365993198
 20
49.3222019154096
 30
0.0
 11
147.083405363971
 21
49.3222019154096
 31
0.0
  0
ARC
  5
32BF
330
A
100
AcDbEntity
  8
LAY-1
 62
     3
100
AcDbCircle
 10
147.0894594566703
 20
47.58220503688021
 30
0.0
 40
1.740007410711285
100
AcDbArc
 50
90.19935240403805
 51
130.7097517899417
  0
LINE
  5
32C0
330
A
100
AcDbEntity
  8
LAY-1
 62
     3
100
AcDbLine
 10
145.4007548125478
 20
48.52825981830034
 30
0.0
 11
145.9545788958913
 21
48.90117126165439
 31
0.0
  0
ARC
  5
32C1
330
A
100
AcDbEntity
  8
LAY-1
 62
     3
100
AcDbCircle
 10
144.0905982393006
 20
50.47402006821045
 30
0.0
 40
2.345739370977232
100
AcDbArc
 50
236.0437594488366
 51
303.9539262743817
  0
LINE
  5
32C2
330
A
100
AcDbEntity
  8
LAY-1
 62
     3
100
AcDbLine
 10
142.780363074462
 20
48.52831273940324
 30
0.0
 11
142.0586811115976
 21
49.01429183377928
 31
0.0
  0
ARC
  5
32C3
330
A
100
AcDbEntity
  8
LAY-1
 62
     3
100
AcDbCircle
 10
139.0472585916991
 20
48.72243573445832
 30
0.0
 40
0.3518609056465849
100
AcDbArc
 50
0.0
 51
123.9562405511634
  0
ARC
  5
32C4
330
A
100
AcDbEntity
  8
LAY-1
 62
     3
100
AcDbCircle
 10
139.5165679811662
 20
48.71510547233658
 30
0.0
 40
0.1176770117503326
100
AcDbArc
 50
176.4286553342541
 51
269.9213597784429
  0
ARC
  5
32C5
330
A
100
AcDbEntity
  8
LAY-1
 62
     3
100
AcDbCircle
 10
141.392836447405
 20
48.71510547233679
 30
0.0
 40
0.1176770117503673
100
AcDbArc
 50
270.0786402218176
 51
3.571344665745728
  0
ARC
  5
32C6
330
A
100
AcDbEntity
  8
LAY-1
 62
     3
100
AcDbCircle
 10
141.8621458368721
 20
48.72243573445832
 30
0.0
 40
0.3518609056465849
100
AcDbArc
 50
56.04375944883656
 51
180.0
  0
LINE
  5
32C7
330
A
100
AcDbEntity
  8
LAY-1
  6
Continuous
 62
     3
100
AcDbLine
 10
139.5164064658948
 20
48.5974285714288
 30
0.0
 11
141.3929979626769
 21
48.5974285714288
 31
0.0
  0
ARC
  5
32C8
330
A
100
AcDbEntity
  8
LAY-1
 62
     3
100
AcDbCircle
 10
148.8220365993198
 20
48.95182201472886
 30
0.0
 40
0.3703799006806157
100
AcDbArc
 50
0.0
 51
90.0
  0
ARC
  5
32C9
330
A
100
AcDbEntity
  8
LAY-1
 62
     3
100
AcDbCircle
 10
133.8199449719009
 20
47.58220503688021
 30
0.0
 40
1.740007410711285
100
AcDbArc
 50
49.29024821005826
 51
89.80064759596194
  0
LINE
  5
32CA
330
A
100
AcDbEntity
  8
LAY-1
 62
     3
100
AcDbLine
 10
135.5086496160239
 20
48.52825981830034
 30
0.0
 11
134.9548255326804
 21
48.90117126165439
 31
0.0
  0
ARC
  5
32CB
330
A
100
AcDbEntity
  8
LAY-1
 62
     3
100
AcDbCircle
 10
132.1627964006807
 20
48.95182201472886
 30
0.0
 40
0.3703799006806157
100
AcDbArc
 50
90.0
 51
180.0
  0
LINE
  5
32CC
330
A
100
AcDbEntity
  8
LAY-1
  6
Continuous
 62
     3
100
AcDbLine
 10
132.1627964006807
 20
49.3222019154096
 30
0.0
 11
133.8259990646002
 21
49.3222019154096
 31
0.0
  0
LINE
  5
32CD
330
A
100
AcDbEntity
  8
LAY-1
 62
     3
100
AcDbLine
 10
180.3012282718247
 20
46.18837280921531
 30
0.0
 11
179.7197129843141
 21
46.57992982473712
 31
0.0
  0
ARC
  5
32CE
330
A
100
AcDbEntity
  8
LAY-1
 62
     3
100
AcDbCircle
 10
181.6768926737341
 20
48.2314210716209
 30
0.0
 40
2.463026339526094
100
AcDbArc
 50
236.0460737256183
 51
303.9562405511635
  0
LINE
  5
32CF
330
A
100
AcDbEntity
  8
LAY-1
 62
     3
100
AcDbLine
 10
183.0526395968147
 20
46.18842837637345
 30
0.0
 11
183.8104056578219
 21
46.69870642546817
 31
0.0
  0
LINE
  5
32D0
330
A
100
AcDbEntity
  8
LAY-1
 62
     3
100
AcDbLine
 10
195.005684604285
 20
47.02201201117993
 30
0.0
 11
192.454721807169
 21
47.02201201117993
 31
0.0
  0
ARC
  5
32D1
330
A
100
AcDbEntity
  8
LAY-1
 62
     3
100
AcDbCircle
 10
192.4610786045038
 20
45.19501528872416
 30
0.0
 40
1.82700778124685
100
AcDbArc
 50
90.19935240403805
 51
130.7097517899417
  0
LINE
  5
32D2
330
A
100
AcDbEntity
  8
LAY-1
 62
     3
100
AcDbLine
 10
190.6879387281748
 20
46.18837280921531
 30
0.0
 11
191.2694540156855
 21
46.57992982473712
 31
0.0
  0
ARC
  5
32D3
330
A
100
AcDbEntity
  8
LAY-1
 62
     3
100
AcDbCircle
 10
189.3122743262649
 20
48.2314210716209
 30
0.0
 40
2.463026339526094
100
AcDbArc
 50
236.0437594488366
 51
303.9539262743817
  0
LINE
  5
32D4
330
A
100
AcDbEntity
  8
LAY-1
 62
     3
100
AcDbLine
 10
187.9365274031849
 20
46.18842837637345
 30
0.0
 11
187.1787613421772
 21
46.69870642546817
 31
0.0
  0
ARC
  5
32D5
330
A
100
AcDbEntity
  8
LAY-1
 62
     3
100
AcDbCircle
 10
184.0167676962839
 20
46.39225752118118
 30
0.0
 40
0.3694539509289142
100
AcDbArc
 50
0.0
 51
123.9562405511634
  0
ARC
  5
32D6
330
A
100
AcDbEntity
  8
LAY-1
 62
     3
100
AcDbCircle
 10
184.5095425552246
 20
46.38456074595347
 30
0.0
 40
0.1235608623378492
100
AcDbArc
 50
176.4286553342541
 51
269.9213597784429
  0
ARC
  5
32D7
330
A
100
AcDbEntity
  8
LAY-1
 62
     3
100
AcDbCircle
 10
186.4796244447749
 20
46.38456074595347
 30
0.0
 40
0.1235608623378857
100
AcDbArc
 50
270.0786402218176
 51
3.571344665745728
  0
ARC
  5
32D8
330
A
100
AcDbEntity
  8
LAY-1
 62
     3
100
AcDbCircle
 10
186.9723993037151
 20
46.39225752118118
 30
0.0
 40
0.3694539509289142
100
AcDbArc
 50
56.04375944883656
 51
180.0
  0
LINE
  5
32D9
330
A
100
AcDbEntity
  8
LAY-1
  6
Continuous
 62
     3
100
AcDbLine
 10
184.5093729641891
 20
46.26100000000001
 30
0.0
 11
186.4797940358105
 21
46.26100000000001
 31
0.0
  0
ARC
  5
32DA
330
A
100
AcDbEntity
  8
LAY-1
 62
     3
100
AcDbCircle
 10
195.005684604285
 20
46.63311311546528
 30
0.0
 40
0.3888988957146466
100
AcDbArc
 50
0.0
 51
90.0
  0
ARC
  5
32DB
330
A
100
AcDbEntity
  8
LAY-1
 62
     3
100
AcDbCircle
 10
178.5280883954958
 20
45.19501528872416
 30
0.0
 40
1.82700778124685
100
AcDbArc
 50
49.29024821005826
 51
89.80064759596194
  0
LINE
  5
32DC
330
A
100
AcDbEntity
  8
LAY-1
 62
     3
100
AcDbLine
 10
180.3012282718247
 20
46.18837280921531
 30
0.0
 11
179.7197129843141
 21
46.57992982473712
 31
0.0
  0
LINE
  5
32DD
330
A
100
AcDbEntity
  8
LAY-1
 62
     3
100
AcDbLine
 10
175.9834823957146
 20
47.02201201117993
 30
0.0
 11
178.5344451928305
 21
47.02201201117993
 31
0.0
  0
ARC
  5
32DE
330
A
100
AcDbEntity
  8
LAY-1
 62
     3
100
AcDbCircle
 10
175.9834823957146
 20
46.63311311546528
 30
0.0
 40
0.3888988957146467
100
AcDbArc
 50
90.0
 51
180.0
  0
LINE
  5
32DF
330
A
100
AcDbEntity
  8
LAY-1
 62
     3
100
AcDbLine
 10
224.7840597490072
 20
42.80511009013667
 30
0.0
 11
224.1443929327457
 21
43.23582280721081
 31
0.0
  0
ARC
  5
32E0
330
A
100
AcDbEntity
  8
LAY-1
 62
     3
100
AcDbCircle
 10
226.2972905911079
 20
45.05246317878282
 30
0.0
 40
2.709328973478704
100
AcDbArc
 50
236.0460737256183
 51
303.9562405511635
  0
LINE
  5
32E1
330
A
100
AcDbEntity
  8
LAY-1
 62
     3
100
AcDbLine
 10
227.8106122064965
 20
42.80517121401071
 30
0.0
 11
228.6441548736044
 21
43.36647706801483
 31
0.0
  0
LINE
  5
32E2
330
A
100
AcDbEntity
  8
LAY-1
 62
     3
100
AcDbLine
 10
239.7189617147138
 20
43.72211321229776
 30
0.0
 11
238.1529026378863
 21
43.72211321229776
 31
0.0
  0
ARC
  5
32E3
330
A
100
AcDbEntity
  8
LAY-1
 62
     3
100
AcDbCircle
 10
238.1598951149545
 20
41.71241681759653
 30
0.0
 40
2.009708559371535
100
AcDbArc
 50
90.19935240403805
 51
130.7097517899417
  0
LINE
  5
32E4
330
A
100
AcDbEntity
  8
LAY-1
 62
     3
100
AcDbLine
 10
236.2094412509924
 20
42.80511009013667
 30
0.0
 11
236.8491080672539
 21
43.23582280721081
 31
0.0
  0
ARC
  5
32E5
330
A
100
AcDbEntity
  8
LAY-1
 62
     3
100
AcDbCircle
 10
234.6962104088917
 20
45.05246317878282
 30
0.0
 40
2.709328973478704
100
AcDbArc
 50
236.0437594488366
 51
303.9539262743817
  0
LINE
  5
32E6
330
A
100
AcDbEntity
  8
LAY-1
 62
     3
100
AcDbLine
 10
233.1828887935035
 20
42.80517121401071
 30
0.0
 11
232.3493461263952
 21
43.36647706801483
 31
0.0
  0
ARC
  5
32E7
330
A
100
AcDbEntity
  8
LAY-1
 62
     3
100
AcDbCircle
 10
228.8711531159125
 20
43.02938327329917
 30
0.0
 40
0.4063993460218058
100
AcDbArc
 50
0.0
 51
123.9562405511634
  0
ARC
  5
32E8
330
A
100
AcDbEntity
  8
LAY-1
 62
     3
100
AcDbCircle
 10
229.4132054607472
 20
43.02091682054862
 30
0.0
 40
0.1359169485716342
100
AcDbArc
 50
176.4286553342541
 51
269.9213597784429
  0
ARC
  5
32E9
330
A
100
AcDbEntity
  8
LAY-1
 62
     3
100
AcDbCircle
 10
231.5802955392529
 20
43.02091682054862
 30
0.0
 40
0.1359169485716743
100
AcDbArc
 50
270.0786402218176
 51
3.571344665745728
  0
ARC
  5
32EA
330
A
100
AcDbEntity
  8
LAY-1
 62
     3
100
AcDbCircle
 10
232.1223478840871
 20
43.02938327329917
 30
0.0
 40
0.4063993460218058
100
AcDbArc
 50
56.04375944883656
 51
180.0
  0
LINE
  5
32EB
330
A
100
AcDbEntity
  8
LAY-1
  6
Continuous
 62
     3
100
AcDbLine
 10
229.4130189106082
 20
42.88499999999982
 30
0.0
 11
231.5804820893914
 21
42.88499999999982
 31
0.0
  0
ARC
  5
32EC
330
A
100
AcDbEntity
  8
LAY-1
 62
     3
100
AcDbCircle
 10
239.7189617147138
 20
43.29432442701164
 30
0.0
 40
0.4277887852861113
100
AcDbArc
 50
0.0
 51
90.0
  0
ARC
  5
32ED
330
A
100
AcDbEntity
  8
LAY-1
 62
     3
100
AcDbCircle
 10
222.8336058850455
 20
41.71241681759653
 30
0.0
 40
2.009708559371535
100
AcDbArc
 50
49.29024821005826
 51
89.80064759596194
  0
LINE
  5
32EE
330
A
100
AcDbEntity
  8
LAY-1
 62
     3
100
AcDbLine
 10
224.7840597490072
 20
42.80511009013667
 30
0.0
 11
224.1443929327457
 21
43.23582280721081
 31
0.0
  0
LINE
  5
32EF
330
A
100
AcDbEntity
  8
LAY-1
  6
Continuous
 62
     3
100
AcDbLine
 10
221.2745392852858
 20
43.72211321229776
 30
0.0
 11
222.8405983621133
 21
43.72211321229776
 31
0.0
  0
ARC
  5
32F0
330
A
100
AcDbEntity
  8
LAY-1
 62
     3
100
AcDbCircle
 10
221.2745392852858
 20
43.29432442701164
 30
0.0
 40
0.4277887852861114
100
AcDbArc
 50
90.0
 51
180.0
  0
LINE
  5
32F1
330
A
100
AcDbEntity
  8
LAY-1
 62
     3
100
AcDbLine
 10
269.7862257490075
 20
40.61811009013678
 30
0.0
 11
269.146558932746
 21
41.04882280721067
 31
0.0
  0
ARC
  5
32F2
330
A
100
AcDbEntity
  8
LAY-1
 62
     3
100
AcDbCircle
 10
271.2994565911078
 20
42.8654631787827
 30
0.0
 40
2.709328973478704
100
AcDbArc
 50
236.0460737256183
 51
303.9562405511635
  0
LINE
  5
32F3
330
A
100
AcDbEntity
  8
LAY-1
 62
     3
100
AcDbLine
 10
272.8127782064963
 20
40.6181712140106
 30
0.0
 11
273.6463208736042
 21
41.17947706801493
 31
0.0
  0
LINE
  5
32F4
330
A
100
AcDbEntity
  8
LAY-1
 62
     3
100
AcDbLine
 10
284.721127714714
 20
41.53511321229784
 30
0.0
 11
283.1550686378861
 21
41.53511321229784
 31
0.0
  0
ARC
  5
32F5
330
A
100
AcDbEntity
  8
LAY-1
 62
     3
100
AcDbCircle
 10
283.1620611149543
 20
39.52541681759641
 30
0.0
 40
2.009708559371535
100
AcDbArc
 50
90.19935240403805
 51
130.7097517899417
  0
LINE
  5
32F6
330
A
100
AcDbEntity
  8
LAY-1
 62
     3
100
AcDbLine
 10
281.2116072509926
 20
40.61811009013678
 30
0.0
 11
281.8512740672542
 21
41.04882280721067
 31
0.0
  0
ARC
  5
32F7
330
A
100
AcDbEntity
  8
LAY-1
 62
     3
100
AcDbCircle
 10
279.6983764088919
 20
42.8654631787827
 30
0.0
 40
2.709328973478704
100
AcDbArc
 50
236.0437594488366
 51
303.9539262743817
  0
LINE
  5
32F8
330
A
100
AcDbEntity
  8
LAY-1
 62
     3
100
AcDbLine
 10
278.1850547935038
 20
40.6181712140106
 30
0.0
 11
277.3515121263955
 21
41.17947706801493
 31
0.0
  0
ARC
  5
32F9
330
A
100
AcDbEntity
  8
LAY-1
 62
     3
100
AcDbCircle
 10
273.8733191159127
 20
40.84238327329905
 30
0.0
 40
0.4063993460218058
100
AcDbArc
 50
0.0
 51
123.9562405511634
  0
ARC
  5
32FA
330
A
100
AcDbEntity
  8
LAY-1
 62
     3
100
AcDbCircle
 10
274.415371460747
 20
40.83391682054848
 30
0.0
 40
0.1359169485716342
100
AcDbArc
 50
176.4286553342541
 51
269.9213597784429
  0
ARC
  5
32FB
330
A
100
AcDbEntity
  8
LAY-1
 62
     3
100
AcDbCircle
 10
276.5824615392527
 20
40.83391682054848
 30
0.0
 40
0.1359169485716743
100
AcDbArc
 50
270.0786402218176
 51
3.571344665745728
  0
ARC
  5
32FC
330
A
100
AcDbEntity
  8
LAY-1
 62
     3
100
AcDbCircle
 10
277.1245138840874
 20
40.84238327329905
 30
0.0
 40
0.4063993460218058
100
AcDbArc
 50
56.04375944883656
 51
180.0
  0
LINE
  5
32FD
330
A
100
AcDbEntity
  8
LAY-1
  6
Continuous
 62
     3
100
AcDbLine
 10
274.4151849106085
 20
40.69799999999992
 30
0.0
 11
276.5826480893917
 21
40.69799999999992
 31
0.0
  0
ARC
  5
32FE
330
A
100
AcDbEntity
  8
LAY-1
 62
     3
100
AcDbCircle
 10
284.721127714714
 20
41.10732442701173
 30
0.0
 40
0.4277887852861113
100
AcDbArc
 50
0.0
 51
90.0
  0
ARC
  5
32FF
330
A
100
AcDbEntity
  8
LAY-1
 62
     3
100
AcDbCircle
 10
267.8357718850458
 20
39.52541681759641
 30
0.0
 40
2.009708559371535
100
AcDbArc
 50
49.29024821005826
 51
89.80064759596194
  0
LINE
  5
3300
330
A
100
AcDbEntity
  8
LAY-1
 62
     3
100
AcDbLine
 10
269.7862257490075
 20
40.61811009013678
 30
0.0
 11
269.146558932746
 21
41.04882280721067
 31
0.0
  0
LINE
  5
3301
330
A
100
AcDbEntity
  8
LAY-1
  6
Continuous
 62
     3
100
AcDbLine
 10
266.2767052852861
 20
41.53511321229784
 30
0.0
 11
267.8427643621136
 21
41.53511321229784
 31
0.0
  0
ARC
  5
3302
330
A
100
AcDbEntity
  8
LAY-1
 62
     3
100
AcDbCircle
 10
266.2767052852861
 20
41.10732442701173
 30
0.0
 40
0.4277887852861114
100
AcDbArc
 50
90.0
 51
180.0
  0
ENDSEC
  0
SECTION
  2
OBJECTS
  0
DICTIONARY
  5
19
330
0
100
AcDbDictionary
281
     1
  3
ACAD_CIP_PREVIOUS_PRODUCT_INFO
350
335E
  3
ACAD_COLOR
350
41D
  3
ACAD_GROUP
350
1A
  3
ACAD_LAYOUT
350
420
  3
ACAD_MATERIAL
350
41C
  3
ACAD_MLEADERSTYLE
350
335B
  3
ACAD_MLINESTYLE
350
1B
  3
ACAD_PLOTSETTINGS
350
421
  3
ACAD_PLOTSTYLENAME
350
41A
  3
ACAD_SCALELIST
350
3349
  3
ACAD_TABLESTYLE
350
41E
  3
ACAD_VISUALSTYLE
350
3330
  3
ACDB_RECOMPOSE_DATA
350
3367
  3
AcDbVariableDictionary
350
B87
  3
DWGPROPS
350
3368
  0
DICTIONARY
  5
4AD
330
2
100
AcDbDictionary
280
     1
281
     1
  3
ACAD_LAYERSTATES
360
4AE
  0
DICTIONARY
  5
D48
330
A
100
AcDbDictionary
280
     1
281
     1
  3
ACAD_SORTENTS
360
D49
  0
XRECORD
  5
335E
102
{ACAD_REACTORS
330
19
102
}
330
19
100
AcDbXrecord
280
     1
300
ACDLT
300
2012
300
ACDLT_F_S
  0
DICTIONARY
  5
41D
102
{ACAD_REACTORS
330
19
102
}
330
19
100
AcDbDictionary
281
     1
  0
DICTIONARY
  5
1A
102
{ACAD_REACTORS
330
19
102
}
330
19
100
AcDbDictionary
281
     1
  0
DICTIONARY
  5
420
102
{ACAD_REACTORS
330
19
102
}
330
19
100
AcDbDictionary
281
     1
  3
Model
350
422
  3
レイアウト1
350
423
  0
DICTIONARY
  5
41C
102
{ACAD_REACTORS
330
19
102
}
330
19
100
AcDbDictionary
281
     1
  3
ByBlock
350
3328
  3
ByLayer
350
3320
  3
Global
350
4AA
  0
DICTIONARY
  5
335B
102
{ACAD_REACTORS
330
19
102
}
330
19
100
AcDbDictionary
281
     1
  3
Standard
350
335C
  0
DICTIONARY
  5
1B
102
{ACAD_REACTORS
330
19
102
}
330
19
100
AcDbDictionary
281
     1
  3
STANDARD
350
1C
  0
DICTIONARY
  5
421
102
{ACAD_REACTORS
330
19
102
}
330
19
100
AcDbDictionary
281
     1
  0
ACDBDICTIONARYWDFLT
  5
41A
102
{ACAD_REACTORS
330
19
102
}
330
19
100
AcDbDictionary
281
     1
  3
Normal
350
41B
100
AcDbDictionaryWithDefault
340
41B
  0
DICTIONARY
  5
3349
102
{ACAD_REACTORS
330
19
102
}
330
19
100
AcDbDictionary
281
     1
  3
A0
350
334A
  3
A1
350
334B
  3
A2
350
334C
  3
A3
350
334D
  3
A4
350
334E
  3
A5
350
334F
  3
A6
350
3350
  3
A7
350
3351
  3
A8
350
3352
  3
A9
350
3353
  3
B0
350
3354
  3
B1
350
3355
  3
B2
350
3356
  3
B3
350
3357
  3
B4
350
3358
  3
B5
350
3359
  3
B6
350
335A
  0
DICTIONARY
  5
41E
102
{ACAD_REACTORS
330
19
102
}
330
19
100
AcDbDictionary
281
     1
  3
Standard
350
41F
  0
DICTIONARY
  5
3330
102
{ACAD_REACTORS
330
19
102
}
330
19
100
AcDbDictionary
281
     1
  3
2dWireframe
350
3336
  3
Basic
350
3335
  3
Brighten
350
333C
  3
ColorChange
350
3340
  3
Conceptual
350
3339
  3
Dim
350
333B
  3
EdgeColorOff
350
3348
  3
Facepattern
350
333F
  3
Flat
350
3331
  3
FlatWithEdges
350
3332
  3
Gouraud
350
3333
  3
GouraudWithEdges
350
3334
  3
Hidden
350
3338
  3
JitterOff
350
3346
  3
Linepattern
350
333E
  3
OverhangOff
350
3347
  3
Realistic
350
333A
  3
Shaded
350
3345
  3
Shaded with edges
350
3344
  3
Shades of Gray
350
3341
  3
Sketchy
350
3342
  3
Thicken
350
333D
  3
Wireframe
350
3337
  3
X-Ray
350
3343
  0
XRECORD
  5
3367
102
{ACAD_REACTORS
330
19
102
}
330
19
100
AcDbXrecord
280
     1
 90
        1
330
41F
  0
DICTIONARY
  5
B87
102
{ACAD_REACTORS
330
19
102
}
330
19
100
AcDbDictionary
281
     1
  3
CANNOSCALE
350
3360
  3
CMLEADERSTYLE
350
335F
  3
CTABLESTYLE
350
B88
  3
DIMASSOC
350
3313
  3
INDEXCTL
350
3362
  3
PROJECTNAME
350
3314
  3
SORTENTS
350
3361
  3
XCLIPFRAME
350
3363
  0
XRECORD
  5
3368
102
{ACAD_REACTORS
330
19
102
}
330
19
100
AcDbXrecord
280
     1
  1
DWGPROPS COOKIE
  2

  3

  4

  6

  7

  8
HUKUDA.M
  9

300
=
301
=
302
=
303
=
304
=
305
=
306
=
307
=
308
=
309
=
 40
0.205966412037037
 41
2453483.984035648
 42
2458989.729331933
  1

 90
        0
  0
DICTIONARY
  5
4AE
102
{ACAD_REACTORS
330
4AD
102
}
330
4AD
100
AcDbDictionary
281
     1
  0
SORTENTSTABLE
  5
D49
102
{ACAD_REACTORS
330
D48
102
}
330
D48
100
AcDbSortentsTable
330
A
331
136
  5
145
331
3EC
  5
3FB
331
132
  5
141
331
3E8
  5
3F7
331
3E4
  5
3F3
331
12E
  5
13D
331
BC
  5
CB
331
16D
  5
17C
331
169
  5
178
331
3E0
  5
3EF
331
B8
  5
C7
331
F7
  5
106
331
12A
  5
139
331
B4
  5
C3
331
F3
  5
102
331
B0
  5
BF
331
126
  5
135
331
165
  5
174
331
3DC
  5
3EB
331
122
  5
131
331
161
  5
170
331
EF
  5
FE
331
3D8
  5
3E7
331
3D4
  5
3E3
331
EB
  5
FA
331
11E
  5
12D
331
AC
  5
BB
331
15D
  5
16C
331
159
  5
168
331
3D0
  5
3DF
331
E7
  5
F6
331
11A
  5
129
331
A8
  5
B7
331
A4
  5
B3
331
E3
  5
F2
331
A0
  5
AF
331
40F
  5
7E5
331
155
  5
164
331
40B
  5
7E1
331
116
  5
125
331
407
  5
7DD
331
112
  5
121
331
151
  5
160
331
DF
  5
EE
331
403
  5
414
331
10E
  5
11D
331
14D
  5
15C
331
414
  5
7E8
331
9C
  5
AB
331
DB
  5
EA
331
180
  5
18F
331
D7
  5
E6
331
10A
  5
119
331
410
  5
7E6
331
98
  5
A7
331
149
  5
158
331
94
  5
A3
331
D3
  5
E2
331
90
  5
9F
331
3FF
  5
40E
331
145
  5
154
331
17C
  5
18B
331
3FB
  5
40A
331
106
  5
115
331
3F7
  5
406
331
102
  5
111
331
141
  5
150
331
CF
  5
DE
331
178
  5
187
331
3F3
  5
402
331
FE
  5
10D
331
13D
  5
14C
331
8C
  5
9B
331
CB
  5
DA
331
174
  5
183
331
170
  5
17F
331
C7
  5
D6
331
FA
  5
109
331
88
  5
97
331
139
  5
148
331
84
  5
93
331
C3
  5
D2
331
3EF
  5
3FE
331
135
  5
144
331
3EB
  5
3FA
331
131
  5
140
331
BF
  5
CE
331
3E7
  5
3F6
331
3E3
  5
3F2
331
12D
  5
13C
331
BB
  5
CA
331
16C
  5
17B
331
168
  5
177
331
B7
  5
C6
331
F6
  5
105
331
129
  5
138
331
B3
  5
C2
331
F2
  5
101
331
3DF
  5
3EE
331
125
  5
134
331
164
  5
173
331
3DB
  5
3EA
331
121
  5
130
331
160
  5
16F
331
AF
  5
BE
331
EE
  5
FD
331
3D7
  5
3E6
331
3D3
  5
3E2
331
EA
  5
F9
331
11D
  5
12C
331
AB
  5
BA
331
15C
  5
16B
331
158
  5
167
331
A7
  5
B6
331
E6
  5
F5
331
119
  5
128
331
A3
  5
B2
331
E2
  5
F1
331
3CF
  5
3DE
331
40E
  5
7E4
331
115
  5
124
331
154
  5
163
331
40A
  5
7E0
331
406
  5
7DC
331
111
  5
120
331
150
  5
15F
331
9F
  5
AE
331
DE
  5
ED
331
402
  5
411
331
DA
  5
E9
331
10D
  5
11C
331
9B
  5
AA
331
14C
  5
15B
331
148
  5
157
331
D6
  5
E5
331
109
  5
118
331
97
  5
A6
331
93
  5
A2
331
D2
  5
E1
331
17F
  5
18E
331
3FE
  5
40D
331
144
  5
153
331
17B
  5
18A
331
3FA
  5
409
331
105
  5
114
331
3F6
  5
405
331
101
  5
110
331
140
  5
14F
331
8F
  5
9E
331
CE
  5
DD
331
177
  5
186
331
173
  5
182
331
3F2
  5
401
331
FD
  5
10C
331
13C
  5
14B
331
8B
  5
9A
331
CA
  5
D9
331
C6
  5
D5
331
F9
  5
108
331
87
  5
96
331
138
  5
147
331
C2
  5
D1
331
3EE
  5
3FD
331
134
  5
143
331
3EA
  5
3F9
331
3E6
  5
3F5
331
130
  5
13F
331
BE
  5
CD
331
16F
  5
17E
331
12C
  5
13B
331
BA
  5
C9
331
16B
  5
17A
331
B6
  5
C5
331
F5
  5
104
331
128
  5
137
331
B2
  5
C1
331
F1
  5
100
331
167
  5
176
331
3DE
  5
3ED
331
124
  5
133
331
163
  5
172
331
3DA
  5
3E9
331
120
  5
12F
331
15F
  5
16E
331
426
  5
7E9
331
AE
  5
BD
331
ED
  5
FC
331
3D6
  5
3E5
331
3D2
  5
3E1
331
E9
  5
F8
331
11C
  5
12B
331
AA
  5
B9
331
15B
  5
16A
331
A6
  5
B5
331
E5
  5
F4
331
118
  5
127
331
A2
  5
B1
331
E1
  5
F0
331
157
  5
166
331
40D
  5
7E3
331
114
  5
123
331
153
  5
162
331
409
  5
7DF
331
405
  5
7DB
331
110
  5
11F
331
14F
  5
15E
331
9E
  5
AD
331
DD
  5
EC
331
401
  5
410
331
D9
  5
E8
331
10C
  5
11B
331
9A
  5
A9
331
14B
  5
15A
331
96
  5
A5
331
D5
  5
E4
331
108
  5
117
331
92
  5
A1
331
D1
  5
E0
331
147
  5
156
331
17E
  5
18D
331
3FD
  5
40C
331
104
  5
113
331
143
  5
152
331
17A
  5
189
331
3F9
  5
408
331
3F5
  5
404
331
100
  5
10F
331
13F
  5
14E
331
8E
  5
9D
331
CD
  5
DC
331
176
  5
185
331
172
  5
181
331
3F1
  5
400
331
C9
  5
D8
331
FC
  5
10B
331
8A
  5
99
331
13B
  5
14A
331
C5
  5
D4
331
F8
  5
107
331
86
  5
95
331
C1
  5
D0
331
137
  5
146
331
3ED
  5
3FC
331
133
  5
142
331
3E9
  5
3F8
331
3E5
  5
3F4
331
12F
  5
13E
331
BD
  5
CC
331
16E
  5
17D
331
16A
  5
179
331
3E1
  5
3F0
331
12B
  5
13A
331
B9
  5
C8
331
B5
  5
C4
331
F4
  5
103
331
B1
  5
C0
331
F0
  5
FF
331
166
  5
175
331
3DD
  5
3EC
331
127
  5
136
331
123
  5
132
331
162
  5
171
331
3D9
  5
3E8
331
3D5
  5
3E4
331
11F
  5
12E
331
15E
  5
16D
331
AD
  5
BC
331
EC
  5
FB
331
3D1
  5
3E0
331
E8
  5
F7
331
11B
  5
12A
331
A9
  5
B8
331
15A
  5
169
331
A5
  5
B4
331
E4
  5
F3
331
A1
  5
B0
331
E0
  5
EF
331
156
  5
165
331
40C
  5
7E2
331
117
  5
126
331
408
  5
7DE
331
113
  5
122
331
152
  5
161
331
404
  5
426
331
10F
  5
11E
331
14E
  5
15D
331
9D
  5
AC
331
DC
  5
EB
331
181
  5
190
331
400
  5
40F
331
D8
  5
E7
331
10B
  5
11A
331
411
  5
7E7
331
99
  5
A8
331
14A
  5
159
331
95
  5
A4
331
D4
  5
E3
331
91
  5
A0
331
D0
  5
DF
331
146
  5
155
331
17D
  5
18C
331
3FC
  5
40B
331
107
  5
116
331
103
  5
112
331
142
  5
151
331
179
  5
188
331
3F8
  5
407
331
3F4
  5
403
331
FF
  5
10E
331
13E
  5
14D
331
8D
  5
9C
331
CC
  5
DB
331
175
  5
184
331
171
  5
180
331
3F0
  5
3FF
331
C8
  5
D7
331
FB
  5
10A
331
89
  5
98
331
13A
  5
149
331
85
  5
94
331
C4
  5
D3
331
C0
  5
CF
  0
LAYOUT
  5
422
102
{ACAD_XDICTIONARY
360
336A
102
}
102
{ACAD_REACTORS
330
420
102
}
330
420
100
AcDbPlotSettings
  1

  2
吉川１Ｆ技術３ - DocuPrint 305
  4
A4
  6

 40
4.900083065032958
 41
4.900057315826416
 42
4.90008544921875
 43
4.90008544921875
 44
210.0156707763672
 45
297.0106506347656
 46
0.0
 47
0.0
 48
0.0
 49
0.0
140
0.0
141
0.0
142
1.0
143
81.28700211707345
 70
 11952
 72
     0
 73
     1
 74
     0
  7
免震.ctb
 75
     0
147
0.0123020898047114
148
-12486.38737212187
149
7543.131175398098
100
AcDbLayout
  1
Model
 70
     1
 71
     0
 10
0.0
 20
0.0
 11
12.0
 21
9.0
 12
0.0
 22
0.0
 32
0.0
 14
0.0
 24
0.0
 34
0.0
 15
0.0
 25
0.0
 35
0.0
146
0.0
 13
0.0
 23
0.0
 33
0.0
 16
1.0
 26
0.0
 36
0.0
 17
0.0
 27
1.0
 37
0.0
 76
     0
330
A
331
3315
1001
ACAD_PSEXT
1000
吉川１Ｆ技術３ - DocuPrint 305
1000
FX DocuPrint 305
1000
PORT_192.168.13.22
1000

1070
     0
  0
LAYOUT
  5
423
102
{ACAD_XDICTIONARY
360
336C
102
}
102
{ACAD_REACTORS
330
420
102
}
330
420
100
AcDbPlotSettings
  1

  2
吉川１Ｆ技術３ - DocuPrint 305
  4

  6

 40
0.0
 41
0.0
 42
0.0
 43
0.0
 44
0.0
 45
0.0
 46
0.0
 47
0.0
 48
0.0
 49
0.0
140
0.0
141
0.0
142
1.0
143
1.0
 70
   688
 72
     0
 73
     0
 74
     5
  7
免震.ctb
 75
    16
147
1.0
148
0.0
149
0.0
100
AcDbLayout
  1
レイアウト1
 70
     0
 71
     1
 10
0.0
 20
0.0
 11
12.0
 21
9.0
 12
0.0
 22
0.0
 32
0.0
 14
1.000000000000000E+20
 24
1.000000000000000E+20
 34
1.000000000000000E+20
 15
-1.000000000000000E+20
 25
-1.000000000000000E+20
 35
-1.000000000000000E+20
146
0.0
 13
0.0
 23
0.0
 33
0.0
 16
1.0
 26
0.0
 36
0.0
 17
0.0
 27
1.0
 37
0.0
 76
     0
330
B
  0
MATERIAL
  5
3328
102
{ACAD_XDICTIONARY
360
3329
102
}
102
{ACAD_REACTORS
330
41C
102
}
330
41C
100
AcDbMaterial
  1
ByBlock
 72
     0
 43
0.0208333333333333
 43
0.0
 43
0.0
 43
0.0
 43
0.0
 43
0.0208333333333333
 43
0.0
 43
0.0
 43
0.0
 43
0.0
 43
1.0
 43
0.0
 43
0.0
 43
0.0
 43
0.0
 43
1.0
 77
     0
 47
0.0208333333333333
 47
0.0
 47
0.0
 47
0.0
 47
0.0
 47
0.0208333333333333
 47
0.0
 47
0.0
 47
0.0
 47
0.0
 47
1.0
 47
0.0
 47
0.0
 47
0.0
 47
0.0
 47
1.0
171
     0
 49
0.0208333333333333
 49
0.0
 49
0.0
 49
0.0
 49
0.0
 49
0.0208333333333333
 49
0.0
 49
0.0
 49
0.0
 49
0.0
 49
1.0
 49
0.0
 49
0.0
 49
0.0
 49
0.0
 49
1.0
175
     0
142
0.0208333333333333
142
0.0
142
0.0
142
0.0
142
0.0
142
0.0208333333333333
142
0.0
142
0.0
142
0.0
142
0.0
142
1.0
142
0.0
142
0.0
142
0.0
142
0.0
142
1.0
179
     0
144
0.0208333333333333
144
0.0
144
0.0
144
0.0
144
0.0
144
0.0208333333333333
144
0.0
144
0.0
144
0.0
144
0.0
144
1.0
144
0.0
144
0.0
144
0.0
144
0.0
144
1.0
147
0.0208333333333333
147
0.0
147
0.0
147
0.0
147
0.0
147
0.0208333333333333
147
0.0
147
0.0
147
0.0
147
0.0
147
1.0
147
0.0
147
0.0
147
0.0
147
0.0
147
1.0
  0
MATERIAL
  5
3320
102
{ACAD_XDICTIONARY
360
3321
102
}
102
{ACAD_REACTORS
330
41C
102
}
330
41C
100
AcDbMaterial
  1
ByLayer
 72
     0
 43
0.0208333333333333
 43
0.0
 43
0.0
 43
0.0
 43
0.0
 43
0.0208333333333333
 43
0.0
 43
0.0
 43
0.0
 43
0.0
 43
1.0
 43
0.0
 43
0.0
 43
0.0
 43
0.0
 43
1.0
 77
     0
 47
0.0208333333333333
 47
0.0
 47
0.0
 47
0.0
 47
0.0
 47
0.0208333333333333
 47
0.0
 47
0.0
 47
0.0
 47
0.0
 47
1.0
 47
0.0
 47
0.0
 47
0.0
 47
0.0
 47
1.0
171
     0
 49
0.0208333333333333
 49
0.0
 49
0.0
 49
0.0
 49
0.0
 49
0.0208333333333333
 49
0.0
 49
0.0
 49
0.0
 49
0.0
 49
1.0
 49
0.0
 49
0.0
 49
0.0
 49
0.0
 49
1.0
175
     0
142
0.0208333333333333
142
0.0
142
0.0
142
0.0
142
0.0
142
0.0208333333333333
142
0.0
142
0.0
142
0.0
142
0.0
142
1.0
142
0.0
142
0.0
142
0.0
142
0.0
142
1.0
179
     0
144
0.0208333333333333
144
0.0
144
0.0
144
0.0
144
0.0
144
0.0208333333333333
144
0.0
144
0.0
144
0.0
144
0.0
144
1.0
144
0.0
144
0.0
144
0.0
144
0.0
144
1.0
147
0.0208333333333333
147
0.0
147
0.0
147
0.0
147
0.0
147
0.0208333333333333
147
0.0
147
0.0
147
0.0
147
0.0
147
1.0
147
0.0
147
0.0
147
0.0
147
0.0
147
1.0
  0
MATERIAL
  5
4AA
102
{ACAD_XDICTIONARY
360
4AB
102
}
102
{ACAD_REACTORS
330
41C
102
}
330
41C
100
AcDbMaterial
  1
Global
  0
MLEADERSTYLE
  5
335C
102
{ACAD_REACTORS
330
335B
102
}
330
335B
100
AcDbMLeaderStyle
170
     2
171
     1
172
     0
 90
        2
 40
0.0
 41
0.0
173
     1
 91
-1056964608
340
11
 92
       -2
290
     1
 42
0.09
291
     1
 43
0.36
  3
Standard
 44
0.18
300

342
17
174
     1
178
     6
175
     1
176
     0
 93
-1056964608
 45
0.18
292
     0
297
     0
 46
0.18
 94
-1056964608
 47
1.0
 49
1.0
140
1.0
293
     1
141
0.0
294
     1
177
     0
142
1.0
295
     0
296
     0
143
0.125
1001
ACAD_MLEADERVER
1070
     2
  0
MLINESTYLE
  5
1C
102
{ACAD_REACTORS
330
1B
102
}
330
1B
100
AcDbMlineStyle
  2
STANDARD
 70
     0
  3

 62
     0
 51
90.0
 52
90.0
 71
     2
 49
0.5
 62
   256
  6
BYLAYER
 49
-0.5
 62
   256
  6
BYLAYER
  0
ACDBPLACEHOLDER
  5
41B
102
{ACAD_REACTORS
330
41A
102
}
330
41A
  0
SCALE
  5
334A
102
{ACAD_REACTORS
330
3349
102
}
330
3349
100
AcDbScale
 70
     0
300
1:1
140
1.0
141
1.0
290
     1
  0
SCALE
  5
334B
102
{ACAD_REACTORS
330
3349
102
}
330
3349
100
AcDbScale
 70
     0
300
1/128" = 1'-0"
140
0.0078125
141
12.0
290
     0
  0
SCALE
  5
334C
102
{ACAD_REACTORS
330
3349
102
}
330
3349
100
AcDbScale
 70
     0
300
1/64" = 1'-0"
140
0.015625
141
12.0
290
     0
  0
SCALE
  5
334D
102
{ACAD_REACTORS
330
3349
102
}
330
3349
100
AcDbScale
 70
     0
300
1/32" = 1'-0"
140
0.03125
141
12.0
290
     0
  0
SCALE
  5
334E
102
{ACAD_REACTORS
330
3349
102
}
330
3349
100
AcDbScale
 70
     0
300
1/16" = 1'-0"
140
0.0625
141
12.0
290
     0
  0
SCALE
  5
334F
102
{ACAD_REACTORS
330
3349
102
}
330
3349
100
AcDbScale
 70
     0
300
3/32" = 1'-0"
140
0.09375
141
12.0
290
     0
  0
SCALE
  5
3350
102
{ACAD_REACTORS
330
3349
102
}
330
3349
100
AcDbScale
 70
     0
300
1/8" = 1'-0"
140
0.125
141
12.0
290
     0
  0
SCALE
  5
3351
102
{ACAD_REACTORS
330
3349
102
}
330
3349
100
AcDbScale
 70
     0
300
3/16" = 1'-0"
140
0.1875
141
12.0
290
     0
  0
SCALE
  5
3352
102
{ACAD_REACTORS
330
3349
102
}
330
3349
100
AcDbScale
 70
     0
300
1/4" = 1'-0"
140
0.25
141
12.0
290
     0
  0
SCALE
  5
3353
102
{ACAD_REACTORS
330
3349
102
}
330
3349
100
AcDbScale
 70
     0
300
3/8" = 1'-0"
140
0.375
141
12.0
290
     0
  0
SCALE
  5
3354
102
{ACAD_REACTORS
330
3349
102
}
330
3349
100
AcDbScale
 70
     0
300
1/2" = 1'-0"
140
0.5
141
12.0
290
     0
  0
SCALE
  5
3355
102
{ACAD_REACTORS
330
3349
102
}
330
3349
100
AcDbScale
 70
     0
300
3/4" = 1'-0"
140
0.75
141
12.0
290
     0
  0
SCALE
  5
3356
102
{ACAD_REACTORS
330
3349
102
}
330
3349
100
AcDbScale
 70
     0
300
1" = 1'-0"
140
1.0
141
12.0
290
     0
  0
SCALE
  5
3357
102
{ACAD_REACTORS
330
3349
102
}
330
3349
100
AcDbScale
 70
     0
300
1-1/2" = 1'-0"
140
1.5
141
12.0
290
     0
  0
SCALE
  5
3358
102
{ACAD_REACTORS
330
3349
102
}
330
3349
100
AcDbScale
 70
     0
300
3" = 1'-0"
140
3.0
141
12.0
290
     0
  0
SCALE
  5
3359
102
{ACAD_REACTORS
330
3349
102
}
330
3349
100
AcDbScale
 70
     0
300
6" = 1'-0"
140
6.0
141
12.0
290
     0
  0
SCALE
  5
335A
102
{ACAD_REACTORS
330
3349
102
}
330
3349
100
AcDbScale
 70
     0
300
1'-0" = 1'-0"
140
12.0
141
12.0
290
     0
  0
TABLESTYLE
  5
41F
102
{ACAD_XDICTIONARY
360
3365
102
}
102
{ACAD_REACTORS
330
41E
102
}
330
41E
100
AcDbTableStyle
  3
Standard
 70
     0
 71
     0
 40
0.06
 41
0.06
280
     0
281
     0
  7
STANDARD
140
0.18
170
     2
 62
     0
 63
     7
283
     0
274
    -2
284
     1
 64
     0
275
    -2
285
     1
 65
     0
276
    -2
286
     1
 66
     0
277
    -2
287
     1
 67
     0
278
    -2
288
     1
 68
     0
279
    -2
289
     1
 69
     0
  7
STANDARD
140
0.25
170
     5
 62
     0
 63
     7
283
     0
274
    -2
284
     1
 64
     0
275
    -2
285
     1
 65
     0
276
    -2
286
     1
 66
     0
277
    -2
287
     1
 67
     0
278
    -2
288
     1
 68
     0
279
    -2
289
     1
 69
     0
  7
STANDARD
140
0.18
170
     5
 62
     0
 63
     7
283
     0
274
    -2
284
     1
 64
     0
275
    -2
285
     1
 65
     0
276
    -2
286
     1
 66
     0
277
    -2
287
     1
 67
     0
278
    -2
288
     1
 68
     0
279
    -2
289
     1
 69
     0
  0
VISUALSTYLE
  5
3336
102
{ACAD_XDICTIONARY
360
337A
102
}
102
{ACAD_REACTORS
330
3330
102
}
330
3330
100
AcDbVisualStyle
  2
2dWireframe
 70
     4
 71
     0
 72
     2
 73
     0
 90
        0
 40
-0.6
 41
-30.0
 62
     5
 63
     7
 74
     1
 91
        4
 64
     7
 65
   257
 75
     1
175
     1
 42
1.0
 92
        0
 66
   257
 43
1.0
 76
     1
 77
     6
 78
     2
 67
     7
 79
     5
170
     0
171
     0
290
     0
174
     0
 93
        1
 44
0.0
173
     0
291
     0
 45
0.0
1001
ACAD
1000
AcDbSavedByObjectVersion
1070
     0
  0
VISUALSTYLE
  5
3335
102
{ACAD_XDICTIONARY
360
3378
102
}
102
{ACAD_REACTORS
330
3330
102
}
330
3330
100
AcDbVisualStyle
  2
Basic
 70
     7
 71
     1
 72
     0
 73
     1
 90
        0
 40
-0.6
 41
-30.0
 62
     5
 63
     7
 74
     0
 91
        4
 64
     7
 65
   257
 75
     1
175
     1
 42
1.0
 92
        8
 66
     7
 43
1.0
 76
     1
 77
     6
 78
     2
 67
     7
 79
     5
170
     0
171
     0
290
     0
174
     0
 93
        1
 44
0.0
173
     0
291
     1
 45
0.0
1001
ACAD
1000
AcDbSavedByObjectVersion
1070
     0
  0
VISUALSTYLE
  5
333C
102
{ACAD_XDICTIONARY
360
3386
102
}
102
{ACAD_REACTORS
330
3330
102
}
330
3330
100
AcDbVisualStyle
  2
Brighten
 70
    12
 71
     2
 72
     2
 73
     0
 90
        0
 40
-0.6
 41
-30.0
 62
     5
 63
     7
 74
     1
 91
        4
 64
     7
 65
   257
 75
     1
175
     1
 42
1.0
 92
        8
 66
     7
 43
1.0
 76
     1
 77
     6
 78
     2
 67
     7
 79
     5
170
     0
171
     0
290
     0
174
     0
 93
        1
 44
50.0
173
     0
291
     1
 45
0.0
1001
ACAD
1000
AcDbSavedByObjectVersion
1070
     0
  0
VISUALSTYLE
  5
3340
102
{ACAD_XDICTIONARY
360
338E
102
}
102
{ACAD_REACTORS
330
3330
102
}
330
3330
100
AcDbVisualStyle
  2
ColorChange
 70
    16
 71
     2
 72
     2
 73
     3
 90
        0
 40
-0.6
 41
-30.0
 62
     5
 63
     8
 74
     1
 91
        4
 64
     7
 65
   257
 75
     1
175
     1
 42
1.0
 92
        8
 66
     8
 43
1.0
 76
     1
 77
     6
 78
     2
 67
     7
 79
     5
170
     0
171
     0
290
     0
174
     0
 93
        1
 44
0.0
173
     0
291
     1
 45
0.0
1001
ACAD
1000
AcDbSavedByObjectVersion
1070
     0
  0
VISUALSTYLE
  5
3339
102
{ACAD_XDICTIONARY
360
3380
102
}
102
{ACAD_REACTORS
330
3330
102
}
330
3330
100
AcDbVisualStyle
  2
Conceptual
 70
     9
 71
     3
 72
     2
 73
     0
 90
        0
 40
-0.6
 41
-30.0
 62
     5
 63
     7
 74
     2
 91
        2
 64
     7
 65
   257
 75
     1
175
     1
 42
179.0
 92
        8
 66
     7
 43
1.0
 76
     1
 77
     6
 78
     2
 67
     7
 79
     3
170
     0
171
     0
290
     0
174
     0
 93
        1
 44
0.0
173
     0
291
     0
 45
0.0
1001
ACAD
1000
AcDbSavedByObjectVersion
1070
     0
  0
VISUALSTYLE
  5
333B
102
{ACAD_XDICTIONARY
360
3384
102
}
102
{ACAD_REACTORS
330
3330
102
}
330
3330
100
AcDbVisualStyle
  2
Dim
 70
    11
 71
     2
 72
     2
 73
     0
 90
        0
 40
-0.6
 41
-30.0
 62
     5
 63
     7
 74
     1
 91
        4
 64
     7
 65
   257
 75
     1
175
     1
 42
1.0
 92
        8
 66
     7
 43
1.0
 76
     1
 77
     6
 78
     2
 67
     7
 79
     5
170
     0
171
     0
290
     0
174
     0
 93
        1
 44
-50.0
173
     0
291
     1
 45
0.0
1001
ACAD
1000
AcDbSavedByObjectVersion
1070
     0
  0
VISUALSTYLE
  5
3348
102
{ACAD_XDICTIONARY
360
339E
102
}
102
{ACAD_REACTORS
330
3330
102
}
330
3330
100
AcDbVisualStyle
  2
EdgeColorOff
 70
    22
 71
     2
 72
     2
 73
     0
 90
        0
 40
-0.6
 41
-30.0
 62
     5
 63
     7
 74
     1
 91
        4
 64
     7
 65
   257
 75
     1
175
     1
 42
1.0
 92
        8
 66
     7
 43
1.0
 76
     1
 77
     6
 78
     2
 67
     7
 79
     5
170
     0
171
     0
290
     0
174
     0
 93
        1
 44
0.0
173
     0
291
     1
 45
0.0
1001
ACAD
1000
AcDbSavedByObjectVersion
1070
     0
  0
VISUALSTYLE
  5
333F
102
{ACAD_XDICTIONARY
360
338C
102
}
102
{ACAD_REACTORS
330
3330
102
}
330
3330
100
AcDbVisualStyle
  2
Facepattern
 70
    15
 71
     2
 72
     2
 73
     0
 90
        0
 40
-0.6
 41
-30.0
 62
     5
 63
     7
 74
     1
 91
        4
 64
     7
 65
   257
 75
     1
175
     1
 42
1.0
 92
        8
 66
     7
 43
1.0
 76
     1
 77
     6
 78
     2
 67
     7
 79
     5
170
     0
171
     0
290
     0
174
     0
 93
        1
 44
0.0
173
     0
291
     1
 45
0.0
1001
ACAD
1000
AcDbSavedByObjectVersion
1070
     0
  0
VISUALSTYLE
  5
3331
102
{ACAD_XDICTIONARY
360
3370
102
}
102
{ACAD_REACTORS
330
3330
102
}
330
3330
100
AcDbVisualStyle
  2
Flat
 70
     0
 71
     2
 72
     1
 73
     1
 90
        2
 40
-0.6
 41
30.0
 62
     5
 63
     7
 74
     0
 91
        0
 64
     7
 65
   257
 75
     1
175
     1
 42
1.0
 92
        8
 66
     7
 43
1.0
 76
     1
 77
     6
 78
     2
 67
     7
 79
     5
170
     0
171
     0
290
     0
174
     0
 93
       13
 44
0.0
173
     0
291
     1
 45
0.0
1001
ACAD
1000
AcDbSavedByObjectVersion
1070
     0
  0
VISUALSTYLE
  5
3332
102
{ACAD_XDICTIONARY
360
3372
102
}
102
{ACAD_REACTORS
330
3330
102
}
330
3330
100
AcDbVisualStyle
  2
FlatWithEdges
 70
     1
 71
     2
 72
     1
 73
     1
 90
        2
 40
-0.6
 41
30.0
 62
     5
 63
     7
 74
     1
 91
        0
 64
     7
 65
   257
 75
     1
175
     1
 42
1.0
 92
        0
 66
   257
 43
1.0
 76
     1
 77
     6
 78
     2
 67
     7
 79
     5
170
     0
171
     0
290
     0
174
     0
 93
       13
 44
0.0
173
     0
291
     1
 45
0.0
1001
ACAD
1000
AcDbSavedByObjectVersion
1070
     0
  0
VISUALSTYLE
  5
3333
102
{ACAD_XDICTIONARY
360
3374
102
}
102
{ACAD_REACTORS
330
3330
102
}
330
3330
100
AcDbVisualStyle
  2
Gouraud
 70
     2
 71
     2
 72
     2
 73
     1
 90
        2
 40
-0.6
 41
30.0
 62
     5
 63
     7
 74
     0
 91
        0
 64
     7
 65
   257
 75
     1
175
     1
 42
1.0
 92
        0
 66
     7
 43
1.0
 76
     1
 77
     6
 78
     2
 67
     7
 79
     5
170
     0
171
     0
290
     0
174
     0
 93
       13
 44
0.0
173
     0
291
     1
 45
0.0
1001
ACAD
1000
AcDbSavedByObjectVersion
1070
     0
  0
VISUALSTYLE
  5
3334
102
{ACAD_XDICTIONARY
360
3376
102
}
102
{ACAD_REACTORS
330
3330
102
}
330
3330
100
AcDbVisualStyle
  2
GouraudWithEdges
 70
     3
 71
     2
 72
     2
 73
     1
 90
        2
 40
-0.6
 41
30.0
 62
     5
 63
     7
 74
     1
 91
        0
 64
     7
 65
   257
 75
     1
175
     1
 42
1.0
 92
        0
 66
   257
 43
1.0
 76
     1
 77
     6
 78
     2
 67
     7
 79
     5
170
     0
171
     0
290
     0
174
     0
 93
       13
 44
0.0
173
     0
291
     1
 45
0.0
1001
ACAD
1000
AcDbSavedByObjectVersion
1070
     0
  0
VISUALSTYLE
  5
3338
102
{ACAD_XDICTIONARY
360
337E
102
}
102
{ACAD_REACTORS
330
3330
102
}
330
3330
100
AcDbVisualStyle
  2
Hidden
 70
     6
 71
     1
 72
     2
 73
     2
 90
        0
 40
-0.6
 41
-30.0
 62
     5
 63
     7
 74
     2
 91
        2
 64
     7
 65
   257
 75
     2
175
     1
 42
40.0
 92
        0
 66
   257
 43
1.0
 76
     1
 77
     6
 78
     2
 67
     7
 79
     3
170
     0
171
     0
290
     0
174
     0
 93
        1
 44
0.0
173
     0
291
     0
 45
0.0
1001
ACAD
1000
AcDbSavedByObjectVersion
1070
     0
  0
VISUALSTYLE
  5
3346
102
{ACAD_XDICTIONARY
360
339A
102
}
102
{ACAD_REACTORS
330
3330
102
}
330
3330
100
AcDbVisualStyle
  2
JitterOff
 70
    20
 71
     2
 72
     2
 73
     0
 90
        0
 40
-0.6
 41
-30.0
 62
     5
 63
     7
 74
     1
 91
        4
 64
     7
 65
   257
 75
     1
175
     1
 42
1.0
 92
       10
 66
     7
 43
1.0
 76
     1
 77
     6
 78
     2
 67
     7
 79
     5
170
     0
171
     0
290
     0
174
     0
 93
        1
 44
0.0
173
     0
291
     1
 45
0.0
1001
ACAD
1000
AcDbSavedByObjectVersion
1070
     0
  0
VISUALSTYLE
  5
333E
102
{ACAD_XDICTIONARY
360
338A
102
}
102
{ACAD_REACTORS
330
3330
102
}
330
3330
100
AcDbVisualStyle
  2
Linepattern
 70
    14
 71
     2
 72
     2
 73
     0
 90
        0
 40
-0.6
 41
-30.0
 62
     5
 63
     7
 74
     1
 91
        4
 64
     7
 65
   257
 75
     7
175
     7
 42
1.0
 92
        8
 66
     7
 43
1.0
 76
     1
 77
     6
 78
     2
 67
     7
 79
     5
170
     0
171
     0
290
     0
174
     0
 93
        1
 44
0.0
173
     0
291
     1
 45
0.0
1001
ACAD
1000
AcDbSavedByObjectVersion
1070
     0
  0
VISUALSTYLE
  5
3347
102
{ACAD_XDICTIONARY
360
339C
102
}
102
{ACAD_REACTORS
330
3330
102
}
330
3330
100
AcDbVisualStyle
  2
OverhangOff
 70
    21
 71
     2
 72
     2
 73
     0
 90
        0
 40
-0.6
 41
-30.0
 62
     5
 63
     7
 74
     1
 91
        4
 64
     7
 65
   257
 75
     1
175
     1
 42
1.0
 92
        9
 66
     7
 43
1.0
 76
     1
 77
     6
 78
     2
 67
     7
 79
     5
170
     0
171
     0
290
     0
174
     0
 93
        1
 44
0.0
173
     0
291
     1
 45
0.0
1001
ACAD
1000
AcDbSavedByObjectVersion
1070
     0
  0
VISUALSTYLE
  5
333A
102
{ACAD_XDICTIONARY
360
3382
102
}
102
{ACAD_REACTORS
330
3330
102
}
330
3330
100
AcDbVisualStyle
  2
Realistic
 70
     8
 71
     2
 72
     3
 73
     0
 90
        2
 40
-0.6
 41
30.0
 62
     5
 63
     7
 74
     0
 91
        0
 64
     7
 65
   257
 75
     1
175
     1
 42
1.0
 92
        8
 66
   257
 43
1.0
 76
     1
 77
     6
 78
     2
 67
     7
 79
     3
170
     0
171
     0
290
     0
174
     0
 93
       13
 44
0.0
173
     0
291
     0
 45
0.0
1001
ACAD
1000
AcDbSavedByObjectVersion
1070
     0
  0
VISUALSTYLE
  5
3345
102
{ACAD_XDICTIONARY
360
3398
102
}
102
{ACAD_REACTORS
330
3330
102
}
330
3330
100
AcDbVisualStyle
  2
Shaded
 70
    27
 71
     2
 72
     2
 73
     1
 90
        2
 40
-0.6
 41
30.0
 62
     5
 63
     7
 74
     0
 91
        4
 64
     7
 65
   257
 75
     1
175
     1
 42
1.0
 92
        8
 66
   257
 43
1.0
 76
     1
 77
     6
 78
     2
 67
     8
 79
     3
170
     0
171
     0
290
     0
174
     0
 93
        5
 44
0.0
173
     0
291
     0
 45
0.0
1001
ACAD
1000
AcDbSavedByObjectVersion
1070
     0
  0
VISUALSTYLE
  5
3344
102
{ACAD_XDICTIONARY
360
3396
102
}
102
{ACAD_REACTORS
330
3330
102
}
330
3330
100
AcDbVisualStyle
  2
Shaded with edges
 70
    26
 71
     2
 72
     2
 73
     1
 90
        2
 40
-0.6
 41
30.0
 62
     5
 63
     7
 74
     1
 91
       10
 64
     7
 65
   257
 75
     2
175
     1
 42
1.0
 92
        8
 66
   257
 43
1.0
 76
     1
 77
     6
 78
     2
 67
     7
 79
     3
170
     0
171
     0
290
     0
174
     0
 93
        5
 44
0.0
173
     0
291
     0
 45
0.0
1001
ACAD
1000
AcDbSavedByObjectVersion
1070
     0
  0
VISUALSTYLE
  5
3341
102
{ACAD_XDICTIONARY
360
3390
102
}
102
{ACAD_REACTORS
330
3330
102
}
330
3330
100
AcDbVisualStyle
  2
Shades of Gray
 70
    23
 71
     2
 72
     2
 73
     3
 90
        0
 40
-0.6
 41
-30.0
 62
     5
 63
     7
 74
     2
 91
        2
 64
     7
 65
     7
 75
     1
175
     1
 42
40.0
 92
        8
 66
     7
 43
1.0
 76
     1
 77
     6
 78
     2
 67
     7
 79
     3
170
     0
171
     0
290
     0
174
     0
 93
        1
 44
0.0
173
     0
291
     0
 45
0.0
1001
ACAD
1000
AcDbSavedByObjectVersion
1070
     0
  0
VISUALSTYLE
  5
3342
102
{ACAD_XDICTIONARY
360
3392
102
}
102
{ACAD_REACTORS
330
3330
102
}
330
3330
100
AcDbVisualStyle
  2
Sketchy
 70
    24
 71
     1
 72
     2
 73
     2
 90
        0
 40
-0.6
 41
-30.0
 62
     5
 63
     7
 74
     2
 91
        2
 64
     7
 65
     7
 75
     1
175
     1
 42
40.0
 92
       11
 66
     7
 43
1.0
 76
     1
 77
     6
 78
     2
 67
     7
 79
     6
170
     0
171
     0
290
     0
174
     0
 93
        1
 44
0.0
173
     0
291
     0
 45
0.0
1001
ACAD
1000
AcDbSavedByObjectVersion
1070
     0
  0
VISUALSTYLE
  5
333D
102
{ACAD_XDICTIONARY
360
3388
102
}
102
{ACAD_REACTORS
330
3330
102
}
330
3330
100
AcDbVisualStyle
  2
Thicken
 70
    13
 71
     2
 72
     2
 73
     0
 90
        0
 40
-0.6
 41
-30.0
 62
     5
 63
     7
 74
     1
 91
        4
 64
     7
 65
   257
 75
     1
175
     1
 42
1.0
 92
       12
 66
     7
 43
1.0
 76
     1
 77
     6
 78
     2
 67
     7
 79
     5
170
     0
171
     0
290
     0
174
     0
 93
        1
 44
0.0
173
     0
291
     1
 45
0.0
1001
ACAD
1000
AcDbSavedByObjectVersion
1070
     0
  0
VISUALSTYLE
  5
3337
102
{ACAD_XDICTIONARY
360
337C
102
}
102
{ACAD_REACTORS
330
3330
102
}
330
3330
100
AcDbVisualStyle
  2
Wireframe
 70
     5
 71
     0
 72
     2
 73
     0
 90
        0
 40
-0.6
 41
-30.0
 62
     5
 63
     7
 74
     1
 91
        4
 64
     7
 65
   257
 75
     1
175
     1
 42
1.0
 92
        0
 66
   257
 43
1.0
 76
     1
 77
     6
 78
     2
 67
     7
 79
     3
170
     0
171
     0
290
     0
174
     0
 93
        1
 44
0.0
173
     0
291
     0
 45
0.0
1001
ACAD
1000
AcDbSavedByObjectVersion
1070
     0
  0
VISUALSTYLE
  5
3343
102
{ACAD_XDICTIONARY
360
3394
102
}
102
{ACAD_REACTORS
330
3330
102
}
330
3330
100
AcDbVisualStyle
  2
X-Ray
 70
    25
 71
     2
 72
     2
 73
     1
 90
        1
 40
0.5
 41
-30.0
 62
     5
 63
     7
 74
     1
 91
        0
 64
     7
 65
   257
 75
     1
175
     1
 42
1.0
 92
        8
 66
     7
 43
1.0
 76
     1
 77
     6
 78
     2
 67
     7
 79
     3
170
     0
171
     0
290
     0
174
     0
 93
       13
 44
0.0
173
     0
291
     0
 45
0.0
1001
ACAD
1000
AcDbSavedByObjectVersion
1070
     0
  0
DICTIONARYVAR
  5
3360
102
{ACAD_REACTORS
330
B87
102
}
330
B87
100
DictionaryVariables
280
     0
  1
1:1
  0
DICTIONARYVAR
  5
335F
102
{ACAD_REACTORS
330
B87
102
}
330
B87
100
DictionaryVariables
280
     0
  1
STANDARD
  0
DICTIONARYVAR
  5
B88
102
{ACAD_REACTORS
330
B87
102
}
330
B87
100
DictionaryVariables
280
     0
  1
STANDARD
  0
DICTIONARYVAR
  5
3313
102
{ACAD_REACTORS
330
B87
102
}
330
B87
100
DictionaryVariables
280
     0
  1
1
  0
DICTIONARYVAR
  5
3362
102
{ACAD_REACTORS
330
B87
102
}
330
B87
100
DictionaryVariables
280
     0
  1
0
  0
DICTIONARYVAR
  5
3314
102
{ACAD_REACTORS
330
B87
102
}
330
B87
100
DictionaryVariables
280
     0
  1

  0
DICTIONARYVAR
  5
3361
102
{ACAD_REACTORS
330
B87
102
}
330
B87
100
DictionaryVariables
280
     0
  1
127
  0
DICTIONARYVAR
  5
3363
102
{ACAD_REACTORS
330
B87
102
}
330
B87
100
DictionaryVariables
280
     0
  1
2
  0
DICTIONARY
  5
336A
330
422
100
AcDbDictionary
280
     1
281
     1
  3
ACAD_XREC_ROUNDTRIP
360
336B
  0
DICTIONARY
  5
336C
330
423
100
AcDbDictionary
280
     1
281
     1
  3
ACAD_XREC_ROUNDTRIP
360
336D
  0
DICTIONARY
  5
3329
330
3328
100
AcDbDictionary
280
     1
281
     1
  3
ACAD_XREC_ROUNDTRIP
360
336F
  3
BUMPTILE
360
332B
  3
DIFFUSETILE
360
332A
  3
OPACITYTILE
360
332E
  3
REFLECTIONTILE
360
332D
  3
REFRACTIONTILE
360
332F
  3
SPECULARTILE
360
332C
  0
DICTIONARY
  5
3321
330
3320
100
AcDbDictionary
280
     1
281
     1
  3
ACAD_XREC_ROUNDTRIP
360
336E
  3
BUMPTILE
360
3323
  3
DIFFUSETILE
360
3322
  3
OPACITYTILE
360
3326
  3
REFLECTIONTILE
360
3325
  3
REFRACTIONTILE
360
3327
  3
SPECULARTILE
360
3324
  0
DICTIONARY
  5
4AB
330
4AA
100
AcDbDictionary
280
     1
281
     1
  3
ACAD_XREC_ROUNDTRIP
360
4AC
  0
DICTIONARY
  5
3365
330
41F
100
AcDbDictionary
280
     1
281
     1
  3
ACAD_ROUNDTRIP_2008_TABLESTYLE_CELLSTYLEMAP
360
3366
  3
ACAD_XREC_ROUNDTRIP
360
3369
  0
DICTIONARY
  5
337A
330
3336
100
AcDbDictionary
280
     1
281
     1
  3
ACAD_XREC_ROUNDTRIP
360
337B
  0
DICTIONARY
  5
3378
330
3335
100
AcDbDictionary
280
     1
281
     1
  3
ACAD_XREC_ROUNDTRIP
360
3379
  0
DICTIONARY
  5
3386
330
333C
100
AcDbDictionary
280
     1
281
     1
  3
ACAD_XREC_ROUNDTRIP
360
3387
  0
DICTIONARY
  5
338E
330
3340
100
AcDbDictionary
280
     1
281
     1
  3
ACAD_XREC_ROUNDTRIP
360
338F
  0
DICTIONARY
  5
3380
330
3339
100
AcDbDictionary
280
     1
281
     1
  3
ACAD_XREC_ROUNDTRIP
360
3381
  0
DICTIONARY
  5
3384
330
333B
100
AcDbDictionary
280
     1
281
     1
  3
ACAD_XREC_ROUNDTRIP
360
3385
  0
DICTIONARY
  5
339E
330
3348
100
AcDbDictionary
280
     1
281
     1
  3
ACAD_XREC_ROUNDTRIP
360
339F
  0
DICTIONARY
  5
338C
330
333F
100
AcDbDictionary
280
     1
281
     1
  3
ACAD_XREC_ROUNDTRIP
360
338D
  0
DICTIONARY
  5
3370
330
3331
100
AcDbDictionary
280
     1
281
     1
  3
ACAD_XREC_ROUNDTRIP
360
3371
  0
DICTIONARY
  5
3372
330
3332
100
AcDbDictionary
280
     1
281
     1
  3
ACAD_XREC_ROUNDTRIP
360
3373
  0
DICTIONARY
  5
3374
330
3333
100
AcDbDictionary
280
     1
281
     1
  3
ACAD_XREC_ROUNDTRIP
360
3375
  0
DICTIONARY
  5
3376
330
3334
100
AcDbDictionary
280
     1
281
     1
  3
ACAD_XREC_ROUNDTRIP
360
3377
  0
DICTIONARY
  5
337E
330
3338
100
AcDbDictionary
280
     1
281
     1
  3
ACAD_XREC_ROUNDTRIP
360
337F
  0
DICTIONARY
  5
339A
330
3346
100
AcDbDictionary
280
     1
281
     1
  3
ACAD_XREC_ROUNDTRIP
360
339B
  0
DICTIONARY
  5
338A
330
333E
100
AcDbDictionary
280
     1
281
     1
  3
ACAD_XREC_ROUNDTRIP
360
338B
  0
DICTIONARY
  5
339C
330
3347
100
AcDbDictionary
280
     1
281
     1
  3
ACAD_XREC_ROUNDTRIP
360
339D
  0
DICTIONARY
  5
3382
330
333A
100
AcDbDictionary
280
     1
281
     1
  3
ACAD_XREC_ROUNDTRIP
360
3383
  0
DICTIONARY
  5
3398
330
3345
100
AcDbDictionary
280
     1
281
     1
  3
ACAD_XREC_ROUNDTRIP
360
3399
  0
DICTIONARY
  5
3396
330
3344
100
AcDbDictionary
280
     1
281
     1
  3
ACAD_XREC_ROUNDTRIP
360
3397
  0
DICTIONARY
  5
3390
330
3341
100
AcDbDictionary
280
     1
281
     1
  3
ACAD_XREC_ROUNDTRIP
360
3391
  0
DICTIONARY
  5
3392
330
3342
100
AcDbDictionary
280
     1
281
     1
  3
ACAD_XREC_ROUNDTRIP
360
3393
  0
DICTIONARY
  5
3388
330
333D
100
AcDbDictionary
280
     1
281
     1
  3
ACAD_XREC_ROUNDTRIP
360
3389
  0
DICTIONARY
  5
337C
330
3337
100
AcDbDictionary
280
     1
281
     1
  3
ACAD_XREC_ROUNDTRIP
360
337D
  0
DICTIONARY
  5
3394
330
3343
100
AcDbDictionary
280
     1
281
     1
  3
ACAD_XREC_ROUNDTRIP
360
3395
  0
XRECORD
  5
336B
102
{ACAD_REACTORS
330
336A
102
}
330
336A
100
AcDbXrecord
280
     1
102
SHADEPLOT
 70
     0
102
SHADEPLOTRESLEVEL
 70
     2
102
SHADEPLOTCUSTOMDPI
 70
   300
  0
XRECORD
  5
336D
102
{ACAD_REACTORS
330
336C
102
}
330
336C
100
AcDbXrecord
280
     1
102
SHADEPLOT
 70
     0
102
SHADEPLOTRESLEVEL
 70
     2
102
SHADEPLOTCUSTOMDPI
 70
   300
  0
XRECORD
  5
336F
102
{ACAD_REACTORS
330
3329
102
}
330
3329
100
AcDbXrecord
280
     1
102
MATERIAL
148
0.0
149
0.0
149
0.0
 93
        0
 94
      127
282
     0
 72
     0
 77
     0
171
     0
175
     0
179
     0
273
     0
  0
XRECORD
  5
332B
102
{ACAD_REACTORS
330
3329
102
}
330
3329
100
AcDbXrecord
280
     1
270
     1
271
     1
  0
XRECORD
  5
332A
102
{ACAD_REACTORS
330
3329
102
}
330
3329
100
AcDbXrecord
280
     1
270
     1
271
     1
  0
XRECORD
  5
332E
102
{ACAD_REACTORS
330
3329
102
}
330
3329
100
AcDbXrecord
280
     1
270
     1
271
     1
  0
XRECORD
  5
332D
102
{ACAD_REACTORS
330
3329
102
}
330
3329
100
AcDbXrecord
280
     1
270
     1
271
     1
  0
XRECORD
  5
332F
102
{ACAD_REACTORS
330
3329
102
}
330
3329
100
AcDbXrecord
280
     1
270
     1
271
     1
  0
XRECORD
  5
332C
102
{ACAD_REACTORS
330
3329
102
}
330
3329
100
AcDbXrecord
280
     1
270
     1
271
     1
  0
XRECORD
  5
336E
102
{ACAD_REACTORS
330
3321
102
}
330
3321
100
AcDbXrecord
280
     1
102
MATERIAL
148
0.0
149
0.0
149
0.0
 93
        0
 94
      127
282
     0
 72
     0
 77
     0
171
     0
175
     0
179
     0
273
     0
  0
XRECORD
  5
3323
102
{ACAD_REACTORS
330
3321
102
}
330
3321
100
AcDbXrecord
280
     1
270
     1
271
     1
  0
XRECORD
  5
3322
102
{ACAD_REACTORS
330
3321
102
}
330
3321
100
AcDbXrecord
280
     1
270
     1
271
     1
  0
XRECORD
  5
3326
102
{ACAD_REACTORS
330
3321
102
}
330
3321
100
AcDbXrecord
280
     1
270
     1
271
     1
  0
XRECORD
  5
3325
102
{ACAD_REACTORS
330
3321
102
}
330
3321
100
AcDbXrecord
280
     1
270
     1
271
     1
  0
XRECORD
  5
3327
102
{ACAD_REACTORS
330
3321
102
}
330
3321
100
AcDbXrecord
280
     1
270
     1
271
     1
  0
XRECORD
  5
3324
102
{ACAD_REACTORS
330
3321
102
}
330
3321
100
AcDbXrecord
280
     1
270
     1
271
     1
  0
XRECORD
  5
4AC
102
{ACAD_REACTORS
330
4AB
102
}
330
4AB
100
AcDbXrecord
280
     1
102
MATERIAL
148
0.0
149
0.0
149
0.0
 93
        0
 94
      127
282
     0
 72
     1
 77
     1
171
     1
175
     1
179
     1
273
     0
  0
CELLSTYLEMAP
  5
3366
102
{ACAD_REACTORS
330
3365
102
}
330
3365
100
AcDbCellStyleMap
 90
        3
300
CELLSTYLE
  1
TABLEFORMAT_BEGIN
 90
        5
170
     1
 91
        0
 92
    32768
 62
   257
 93
        1
300
CONTENTFORMAT
  1
CONTENTFORMAT_BEGIN
 90
        0
 91
        0
 92
        4
 93
        0
300

 40
0.0
140
1.0
 94
        5
 62
     0
340
17
144
0.25
309
CONTENTFORMAT_END
171
     0
 94
        6
 95
        1
302
GRIDFORMAT
  1
GRIDFORMAT_BEGIN
 90
        0
 91
        1
 62
     0
 92
       -2
340
0
 93
        0
 40
0.045
309
GRIDFORMAT_END
 95
        2
302
GRIDFORMAT
  1
GRIDFORMAT_BEGIN
 90
        0
 91
        1
 62
     0
 92
       -2
340
0
 93
        0
 40
0.045
309
GRIDFORMAT_END
 95
        4
302
GRIDFORMAT
  1
GRIDFORMAT_BEGIN
 90
        0
 91
        1
 62
     0
 92
       -2
340
0
 93
        0
 40
0.045
309
GRIDFORMAT_END
 95
        8
302
GRIDFORMAT
  1
GRIDFORMAT_BEGIN
 90
        0
 91
        1
 62
     0
 92
       -2
340
0
 93
        0
 40
0.045
309
GRIDFORMAT_END
 95
       16
302
GRIDFORMAT
  1
GRIDFORMAT_BEGIN
 90
        0
 91
        1
 62
     0
 92
       -2
340
0
 93
        0
 40
0.045
309
GRIDFORMAT_END
 95
       32
302
GRIDFORMAT
  1
GRIDFORMAT_BEGIN
 90
        0
 91
        1
 62
     0
 92
       -2
340
0
 93
        0
 40
0.045
309
GRIDFORMAT_END
309
TABLEFORMAT_END
  1
CELLSTYLE_BEGIN
 90
        1
 91
        1
300
_TITLE
309
CELLSTYLE_END
300
CELLSTYLE
  1
TABLEFORMAT_BEGIN
 90
        5
170
     1
 91
        0
 92
        0
 62
   257
 93
        1
300
CONTENTFORMAT
  1
CONTENTFORMAT_BEGIN
 90
        0
 91
        0
 92
        4
 93
        0
300

 40
0.0
140
1.0
 94
        5
 62
     0
340
17
144
0.18
309
CONTENTFORMAT_END
171
     0
 94
        6
 95
        1
302
GRIDFORMAT
  1
GRIDFORMAT_BEGIN
 90
        0
 91
        1
 62
     0
 92
       -2
340
0
 93
        0
 40
0.045
309
GRIDFORMAT_END
 95
        2
302
GRIDFORMAT
  1
GRIDFORMAT_BEGIN
 90
        0
 91
        1
 62
     0
 92
       -2
340
0
 93
        0
 40
0.045
309
GRIDFORMAT_END
 95
        4
302
GRIDFORMAT
  1
GRIDFORMAT_BEGIN
 90
        0
 91
        1
 62
     0
 92
       -2
340
0
 93
        0
 40
0.045
309
GRIDFORMAT_END
 95
        8
302
GRIDFORMAT
  1
GRIDFORMAT_BEGIN
 90
        0
 91
        1
 62
     0
 92
       -2
340
0
 93
        0
 40
0.045
309
GRIDFORMAT_END
 95
       16
302
GRIDFORMAT
  1
GRIDFORMAT_BEGIN
 90
        0
 91
        1
 62
     0
 92
       -2
340
0
 93
        0
 40
0.045
309
GRIDFORMAT_END
 95
       32
302
GRIDFORMAT
  1
GRIDFORMAT_BEGIN
 90
        0
 91
        1
 62
     0
 92
       -2
340
0
 93
        0
 40
0.045
309
GRIDFORMAT_END
309
TABLEFORMAT_END
  1
CELLSTYLE_BEGIN
 90
        2
 91
        1
300
_HEADER
309
CELLSTYLE_END
300
CELLSTYLE
  1
TABLEFORMAT_BEGIN
 90
        5
170
     1
 91
        0
 92
        0
 62
   257
 93
        1
300
CONTENTFORMAT
  1
CONTENTFORMAT_BEGIN
 90
        0
 91
        0
 92
        4
 93
        0
300

 40
0.0
140
1.0
 94
        2
 62
     0
340
17
144
0.18
309
CONTENTFORMAT_END
171
     0
 94
        6
 95
        1
302
GRIDFORMAT
  1
GRIDFORMAT_BEGIN
 90
        0
 91
        1
 62
     0
 92
       -2
340
0
 93
        0
 40
0.045
309
GRIDFORMAT_END
 95
        2
302
GRIDFORMAT
  1
GRIDFORMAT_BEGIN
 90
        0
 91
        1
 62
     0
 92
       -2
340
0
 93
        0
 40
0.045
309
GRIDFORMAT_END
 95
        4
302
GRIDFORMAT
  1
GRIDFORMAT_BEGIN
 90
        0
 91
        1
 62
     0
 92
       -2
340
0
 93
        0
 40
0.045
309
GRIDFORMAT_END
 95
        8
302
GRIDFORMAT
  1
GRIDFORMAT_BEGIN
 90
        0
 91
        1
 62
     0
 92
       -2
340
0
 93
        0
 40
0.045
309
GRIDFORMAT_END
 95
       16
302
GRIDFORMAT
  1
GRIDFORMAT_BEGIN
 90
        0
 91
        1
 62
     0
 92
       -2
340
0
 93
        0
 40
0.045
309
GRIDFORMAT_END
 95
       32
302
GRIDFORMAT
  1
GRIDFORMAT_BEGIN
 90
        0
 91
        1
 62
     0
 92
       -2
340
0
 93
        0
 40
0.045
309
GRIDFORMAT_END
309
TABLEFORMAT_END
  1
CELLSTYLE_BEGIN
 90
        3
 91
        2
300
_DATA
309
CELLSTYLE_END
  0
XRECORD
  5
3369
102
{ACAD_REACTORS
330
3365
102
}
330
3365
100
AcDbXrecord
280
     1
102
ACAD_ROUNDTRIP_PRE2007_TABLESTYLE
 90
        4
 91
        0
  1

 92
        4
 93
        0
  2

 94
        4
 95
        0
  3

  0
XRECORD
  5
337B
102
{ACAD_REACTORS
330
337A
102
}
330
337A
100
AcDbXrecord
280
     1
102
RTVSPropertyOp0
 70
     1
102
RTVSPropertyOp1
 70
     1
102
RTVSPropertyOp2
 70
     1
102
RTVSPropertyOp3
 70
     1
102
RTVSPropertyOp4
 70
     1
102
RTVSPropertyOp5
 70
     1
102
RTVSPropertyOp6
 70
     1
102
RTVSPropertyOp7
 70
     1
102
RTVSPropertyOp8
 70
     1
102
RTVSPropertyOp9
 70
     1
102
RTVSPropertyOp10
 70
     1
102
RTVSPropertyOp11
 70
     1
102
RTVSPropertyOp12
 70
     1
102
RTVSPropertyOp13
 70
     1
102
RTVSPropertyOp14
 70
     1
102
RTVSPropertyOp15
 70
     1
102
RTVSPropertyOp16
 70
     1
102
RTVSPropertyOp17
 70
     1
102
RTVSPropertyOp18
 70
     1
102
RTVSPropertyOp19
 70
     1
102
RTVSPropertyOp20
 70
     1
102
RTVSPropertyOp21
 70
     1
102
RTVSPropertyOp22
 70
     1
102
RTVSPropertyOp23
 70
     1
102
RTVSPropertyOp24
 70
     1
102
RTVSPropertyOp25
 70
     1
102
RTVSPropertyOp26
 70
     1
102
RTVSPropertyOp27
 70
     1
102
RTVSPropertyOp28
 70
     1
102
RTVSPropertyOp29
 70
     1
102
RTVSPropertyOp30
 70
     1
102
RTVSPropertyOp31
 70
     1
102
RTVSPropertyOp32
 70
     1
  0
XRECORD
  5
3379
102
{ACAD_REACTORS
330
3378
102
}
330
3378
100
AcDbXrecord
280
     1
102
RTVSPropertyOp0
 70
     1
102
RTVSPropertyOp1
 70
     1
102
RTVSPropertyOp2
 70
     1
102
RTVSPropertyOp3
 70
     1
102
RTVSPropertyOp4
 70
     1
102
RTVSPropertyOp5
 70
     1
102
RTVSPropertyOp6
 70
     1
102
RTVSPropertyOp7
 70
     1
102
RTVSPropertyOp8
 70
     1
102
RTVSPropertyOp9
 70
     1
102
RTVSPropertyOp10
 70
     1
102
RTVSPropertyOp11
 70
     1
102
RTVSPropertyOp12
 70
     1
102
RTVSPropertyOp13
 70
     1
102
RTVSPropertyOp14
 70
     1
102
RTVSPropertyOp15
 70
     1
102
RTVSPropertyOp16
 70
     1
102
RTVSPropertyOp17
 70
     1
102
RTVSPropertyOp18
 70
     1
102
RTVSPropertyOp19
 70
     1
102
RTVSPropertyOp20
 70
     1
102
RTVSPropertyOp21
 70
     1
102
RTVSPropertyOp22
 70
     1
102
RTVSPropertyOp23
 70
     1
102
RTVSPropertyOp24
 70
     1
102
RTVSPropertyOp25
 70
     1
102
RTVSPropertyOp26
 70
     1
102
RTVSPropertyOp27
 70
     1
102
RTVSPropertyOp28
 70
     1
102
RTVSPropertyOp29
 70
     1
102
RTVSPropertyOp30
 70
     1
102
RTVSPropertyOp31
 70
     1
102
RTVSPropertyOp32
 70
     1
  0
XRECORD
  5
3387
102
{ACAD_REACTORS
330
3386
102
}
330
3386
100
AcDbXrecord
280
     1
102
RTVSPropertyOp0
 70
     1
102
RTVSPropertyOp1
 70
     1
102
RTVSPropertyOp2
 70
     1
102
RTVSPropertyOp3
 70
     1
102
RTVSPropertyOp4
 70
     1
102
RTVSPropertyOp5
 70
     1
102
RTVSPropertyOp6
 70
     1
102
RTVSPropertyOp7
 70
     1
102
RTVSPropertyOp8
 70
     1
102
RTVSPropertyOp9
 70
     1
102
RTVSPropertyOp10
 70
     1
102
RTVSPropertyOp11
 70
     1
102
RTVSPropertyOp12
 70
     1
102
RTVSPropertyOp13
 70
     1
102
RTVSPropertyOp14
 70
     1
102
RTVSPropertyOp15
 70
     1
102
RTVSPropertyOp16
 70
     1
102
RTVSPropertyOp17
 70
     1
102
RTVSPropertyOp18
 70
     1
102
RTVSPropertyOp19
 70
     1
102
RTVSPropertyOp20
 70
     1
102
RTVSPropertyOp21
 70
     1
102
RTVSPropertyOp22
 70
     1
102
RTVSPropertyOp23
 70
     1
102
RTVSPropertyOp24
 70
     1
102
RTVSPropertyOp25
 70
     1
102
RTVSPropertyOp26
 70
     1
102
RTVSPropertyOp27
 70
     1
102
RTVSPropertyOp28
 70
     1
102
RTVSPropertyOp29
 70
     1
102
RTVSPropertyOp30
 70
     1
102
RTVSPropertyOp31
 70
     1
102
RTVSPropertyOp32
 70
     1
  0
XRECORD
  5
338F
102
{ACAD_REACTORS
330
338E
102
}
330
338E
100
AcDbXrecord
280
     1
102
RTVSPropertyOp0
 70
     1
102
RTVSPropertyOp1
 70
     1
102
RTVSPropertyOp2
 70
     1
102
RTVSPropertyOp3
 70
     1
102
RTVSPropertyOp4
 70
     1
102
RTVSPropertyOp5
 70
     1
102
RTVSPropertyOp6
 70
     1
102
RTVSPropertyOp7
 70
     1
102
RTVSPropertyOp8
 70
     1
102
RTVSPropertyOp9
 70
     1
102
RTVSPropertyOp10
 70
     1
102
RTVSPropertyOp11
 70
     1
102
RTVSPropertyOp12
 70
     1
102
RTVSPropertyOp13
 70
     1
102
RTVSPropertyOp14
 70
     1
102
RTVSPropertyOp15
 70
     1
102
RTVSPropertyOp16
 70
     1
102
RTVSPropertyOp17
 70
     1
102
RTVSPropertyOp18
 70
     1
102
RTVSPropertyOp19
 70
     1
102
RTVSPropertyOp20
 70
     1
102
RTVSPropertyOp21
 70
     1
102
RTVSPropertyOp22
 70
     1
102
RTVSPropertyOp23
 70
     1
102
RTVSPropertyOp24
 70
     1
102
RTVSPropertyOp25
 70
     1
102
RTVSPropertyOp26
 70
     1
102
RTVSPropertyOp27
 70
     1
102
RTVSPropertyOp28
 70
     1
102
RTVSPropertyOp29
 70
     1
102
RTVSPropertyOp30
 70
     1
102
RTVSPropertyOp31
 70
     1
102
RTVSPropertyOp32
 70
     1
  0
XRECORD
  5
3381
102
{ACAD_REACTORS
330
3380
102
}
330
3380
100
AcDbXrecord
280
     1
102
RTVSPropertyOp0
 70
     1
102
RTVSPropertyOp1
 70
     1
102
RTVSPropertyOp2
 70
     1
102
RTVSPropertyOp3
 70
     1
102
RTVSPropertyOp4
 70
     1
102
RTVSPropertyOp5
 70
     1
102
RTVSPropertyOp6
 70
     1
102
RTVSPropertyOp7
 70
     1
102
RTVSPropertyOp8
 70
     1
102
RTVSPropertyOp9
 70
     1
102
RTVSPropertyOp10
 70
     1
102
RTVSPropertyOp11
 70
     1
102
RTVSPropertyOp12
 70
     1
102
RTVSPropertyOp13
 70
     1
102
RTVSPropertyOp14
 70
     1
102
RTVSPropertyOp15
 70
     1
102
RTVSPropertyOp16
 70
     1
102
RTVSPropertyOp17
 70
     1
102
RTVSPropertyOp18
 70
     1
102
RTVSPropertyOp19
 70
     1
102
RTVSPropertyOp20
 70
     1
102
RTVSPropertyOp21
 70
     1
102
RTVSPropertyOp22
 70
     1
102
RTVSPropertyOp23
 70
     1
102
RTVSPropertyOp24
 70
     1
102
RTVSPropertyOp25
 70
     1
102
RTVSPropertyOp26
 70
     1
102
RTVSPropertyOp27
 70
     1
102
RTVSPropertyOp28
 70
     1
102
RTVSPropertyOp29
 70
     1
102
RTVSPropertyOp30
 70
     1
102
RTVSPropertyOp31
 70
     1
102
RTVSPropertyOp32
 70
     1
  0
XRECORD
  5
3385
102
{ACAD_REACTORS
330
3384
102
}
330
3384
100
AcDbXrecord
280
     1
102
RTVSPropertyOp0
 70
     1
102
RTVSPropertyOp1
 70
     1
102
RTVSPropertyOp2
 70
     1
102
RTVSPropertyOp3
 70
     1
102
RTVSPropertyOp4
 70
     1
102
RTVSPropertyOp5
 70
     1
102
RTVSPropertyOp6
 70
     1
102
RTVSPropertyOp7
 70
     1
102
RTVSPropertyOp8
 70
     1
102
RTVSPropertyOp9
 70
     1
102
RTVSPropertyOp10
 70
     1
102
RTVSPropertyOp11
 70
     1
102
RTVSPropertyOp12
 70
     1
102
RTVSPropertyOp13
 70
     1
102
RTVSPropertyOp14
 70
     1
102
RTVSPropertyOp15
 70
     1
102
RTVSPropertyOp16
 70
     1
102
RTVSPropertyOp17
 70
     1
102
RTVSPropertyOp18
 70
     1
102
RTVSPropertyOp19
 70
     1
102
RTVSPropertyOp20
 70
     1
102
RTVSPropertyOp21
 70
     1
102
RTVSPropertyOp22
 70
     1
102
RTVSPropertyOp23
 70
     1
102
RTVSPropertyOp24
 70
     1
102
RTVSPropertyOp25
 70
     1
102
RTVSPropertyOp26
 70
     1
102
RTVSPropertyOp27
 70
     1
102
RTVSPropertyOp28
 70
     1
102
RTVSPropertyOp29
 70
     1
102
RTVSPropertyOp30
 70
     1
102
RTVSPropertyOp31
 70
     1
102
RTVSPropertyOp32
 70
     1
  0
XRECORD
  5
339F
102
{ACAD_REACTORS
330
339E
102
}
330
339E
100
AcDbXrecord
280
     1
102
RTVSPropertyOp0
 70
     0
102
RTVSPropertyOp1
 70
     0
102
RTVSPropertyOp2
 70
     0
102
RTVSPropertyOp3
 70
     0
102
RTVSPropertyOp4
 70
     0
102
RTVSPropertyOp5
 70
     0
102
RTVSPropertyOp6
 70
     0
102
RTVSPropertyOp7
 70
     0
102
RTVSPropertyOp8
 70
     0
102
RTVSPropertyOp9
 70
     0
102
RTVSPropertyOp10
 70
     0
102
RTVSPropertyOp11
 70
     0
102
RTVSPropertyOp12
 70
     0
102
RTVSPropertyOp13
 70
     0
102
RTVSPropertyOp14
 70
     2
102
RTVSPropertyOp15
 70
     0
102
RTVSPropertyOp16
 70
     0
102
RTVSPropertyOp17
 70
     0
102
RTVSPropertyOp18
 70
     0
102
RTVSPropertyOp19
 70
     0
102
RTVSPropertyOp20
 70
     0
102
RTVSPropertyOp21
 70
     0
102
RTVSPropertyOp22
 70
     0
102
RTVSPropertyOp23
 70
     0
102
RTVSPropertyOp24
 70
     0
102
RTVSPropertyOp25
 70
     0
102
RTVSPropertyOp26
 70
     0
102
RTVSPropertyOp27
 70
     0
102
RTVSPropertyOp28
 70
     0
102
RTVSPropertyOp29
 70
     0
102
RTVSPropertyOp30
 70
     0
102
RTVSPropertyOp31
 70
     0
102
RTVSPropertyOp32
 70
     0
  0
XRECORD
  5
338D
102
{ACAD_REACTORS
330
338C
102
}
330
338C
100
AcDbXrecord
280
     1
102
RTVSPropertyOp0
 70
     1
102
RTVSPropertyOp1
 70
     1
102
RTVSPropertyOp2
 70
     1
102
RTVSPropertyOp3
 70
     1
102
RTVSPropertyOp4
 70
     1
102
RTVSPropertyOp5
 70
     1
102
RTVSPropertyOp6
 70
     1
102
RTVSPropertyOp7
 70
     1
102
RTVSPropertyOp8
 70
     1
102
RTVSPropertyOp9
 70
     1
102
RTVSPropertyOp10
 70
     1
102
RTVSPropertyOp11
 70
     1
102
RTVSPropertyOp12
 70
     1
102
RTVSPropertyOp13
 70
     1
102
RTVSPropertyOp14
 70
     1
102
RTVSPropertyOp15
 70
     1
102
RTVSPropertyOp16
 70
     1
102
RTVSPropertyOp17
 70
     1
102
RTVSPropertyOp18
 70
     1
102
RTVSPropertyOp19
 70
     1
102
RTVSPropertyOp20
 70
     1
102
RTVSPropertyOp21
 70
     1
102
RTVSPropertyOp22
 70
     1
102
RTVSPropertyOp23
 70
     1
102
RTVSPropertyOp24
 70
     1
102
RTVSPropertyOp25
 70
     1
102
RTVSPropertyOp26
 70
     1
102
RTVSPropertyOp27
 70
     1
102
RTVSPropertyOp28
 70
     1
102
RTVSPropertyOp29
 70
     1
102
RTVSPropertyOp30
 70
     1
102
RTVSPropertyOp31
 70
     1
102
RTVSPropertyOp32
 70
     1
  0
XRECORD
  5
3371
102
{ACAD_REACTORS
330
3370
102
}
330
3370
100
AcDbXrecord
280
     1
102
RTVSPropertyOp0
 70
     1
102
RTVSPropertyOp1
 70
     1
102
RTVSPropertyOp2
 70
     1
102
RTVSPropertyOp3
 70
     1
102
RTVSPropertyOp4
 70
     1
102
RTVSPropertyOp5
 70
     1
102
RTVSPropertyOp6
 70
     1
102
RTVSPropertyOp7
 70
     1
102
RTVSPropertyOp8
 70
     1
102
RTVSPropertyOp9
 70
     1
102
RTVSPropertyOp10
 70
     1
102
RTVSPropertyOp11
 70
     1
102
RTVSPropertyOp12
 70
     1
102
RTVSPropertyOp13
 70
     1
102
RTVSPropertyOp14
 70
     1
102
RTVSPropertyOp15
 70
     1
102
RTVSPropertyOp16
 70
     1
102
RTVSPropertyOp17
 70
     1
102
RTVSPropertyOp18
 70
     1
102
RTVSPropertyOp19
 70
     1
102
RTVSPropertyOp20
 70
     1
102
RTVSPropertyOp21
 70
     1
102
RTVSPropertyOp22
 70
     1
102
RTVSPropertyOp23
 70
     1
102
RTVSPropertyOp24
 70
     1
102
RTVSPropertyOp25
 70
     1
102
RTVSPropertyOp26
 70
     1
102
RTVSPropertyOp27
 70
     1
102
RTVSPropertyOp28
 70
     1
102
RTVSPropertyOp29
 70
     1
102
RTVSPropertyOp30
 70
     1
102
RTVSPropertyOp31
 70
     1
102
RTVSPropertyOp32
 70
     1
  0
XRECORD
  5
3373
102
{ACAD_REACTORS
330
3372
102
}
330
3372
100
AcDbXrecord
280
     1
102
RTVSPropertyOp0
 70
     1
102
RTVSPropertyOp1
 70
     1
102
RTVSPropertyOp2
 70
     1
102
RTVSPropertyOp3
 70
     1
102
RTVSPropertyOp4
 70
     1
102
RTVSPropertyOp5
 70
     1
102
RTVSPropertyOp6
 70
     1
102
RTVSPropertyOp7
 70
     1
102
RTVSPropertyOp8
 70
     1
102
RTVSPropertyOp9
 70
     1
102
RTVSPropertyOp10
 70
     1
102
RTVSPropertyOp11
 70
     1
102
RTVSPropertyOp12
 70
     1
102
RTVSPropertyOp13
 70
     1
102
RTVSPropertyOp14
 70
     1
102
RTVSPropertyOp15
 70
     1
102
RTVSPropertyOp16
 70
     1
102
RTVSPropertyOp17
 70
     1
102
RTVSPropertyOp18
 70
     1
102
RTVSPropertyOp19
 70
     1
102
RTVSPropertyOp20
 70
     1
102
RTVSPropertyOp21
 70
     1
102
RTVSPropertyOp22
 70
     1
102
RTVSPropertyOp23
 70
     1
102
RTVSPropertyOp24
 70
     1
102
RTVSPropertyOp25
 70
     1
102
RTVSPropertyOp26
 70
     1
102
RTVSPropertyOp27
 70
     1
102
RTVSPropertyOp28
 70
     1
102
RTVSPropertyOp29
 70
     1
102
RTVSPropertyOp30
 70
     1
102
RTVSPropertyOp31
 70
     1
102
RTVSPropertyOp32
 70
     1
  0
XRECORD
  5
3375
102
{ACAD_REACTORS
330
3374
102
}
330
3374
100
AcDbXrecord
280
     1
102
RTVSPropertyOp0
 70
     1
102
RTVSPropertyOp1
 70
     1
102
RTVSPropertyOp2
 70
     1
102
RTVSPropertyOp3
 70
     1
102
RTVSPropertyOp4
 70
     1
102
RTVSPropertyOp5
 70
     1
102
RTVSPropertyOp6
 70
     1
102
RTVSPropertyOp7
 70
     1
102
RTVSPropertyOp8
 70
     1
102
RTVSPropertyOp9
 70
     1
102
RTVSPropertyOp10
 70
     1
102
RTVSPropertyOp11
 70
     1
102
RTVSPropertyOp12
 70
     1
102
RTVSPropertyOp13
 70
     1
102
RTVSPropertyOp14
 70
     1
102
RTVSPropertyOp15
 70
     1
102
RTVSPropertyOp16
 70
     1
102
RTVSPropertyOp17
 70
     1
102
RTVSPropertyOp18
 70
     1
102
RTVSPropertyOp19
 70
     1
102
RTVSPropertyOp20
 70
     1
102
RTVSPropertyOp21
 70
     1
102
RTVSPropertyOp22
 70
     1
102
RTVSPropertyOp23
 70
     1
102
RTVSPropertyOp24
 70
     1
102
RTVSPropertyOp25
 70
     1
102
RTVSPropertyOp26
 70
     1
102
RTVSPropertyOp27
 70
     1
102
RTVSPropertyOp28
 70
     1
102
RTVSPropertyOp29
 70
     1
102
RTVSPropertyOp30
 70
     1
102
RTVSPropertyOp31
 70
     1
102
RTVSPropertyOp32
 70
     1
  0
XRECORD
  5
3377
102
{ACAD_REACTORS
330
3376
102
}
330
3376
100
AcDbXrecord
280
     1
102
RTVSPropertyOp0
 70
     1
102
RTVSPropertyOp1
 70
     1
102
RTVSPropertyOp2
 70
     1
102
RTVSPropertyOp3
 70
     1
102
RTVSPropertyOp4
 70
     1
102
RTVSPropertyOp5
 70
     1
102
RTVSPropertyOp6
 70
     1
102
RTVSPropertyOp7
 70
     1
102
RTVSPropertyOp8
 70
     1
102
RTVSPropertyOp9
 70
     1
102
RTVSPropertyOp10
 70
     1
102
RTVSPropertyOp11
 70
     1
102
RTVSPropertyOp12
 70
     1
102
RTVSPropertyOp13
 70
     1
102
RTVSPropertyOp14
 70
     1
102
RTVSPropertyOp15
 70
     1
102
RTVSPropertyOp16
 70
     1
102
RTVSPropertyOp17
 70
     1
102
RTVSPropertyOp18
 70
     1
102
RTVSPropertyOp19
 70
     1
102
RTVSPropertyOp20
 70
     1
102
RTVSPropertyOp21
 70
     1
102
RTVSPropertyOp22
 70
     1
102
RTVSPropertyOp23
 70
     1
102
RTVSPropertyOp24
 70
     1
102
RTVSPropertyOp25
 70
     1
102
RTVSPropertyOp26
 70
     1
102
RTVSPropertyOp27
 70
     1
102
RTVSPropertyOp28
 70
     1
102
RTVSPropertyOp29
 70
     1
102
RTVSPropertyOp30
 70
     1
102
RTVSPropertyOp31
 70
     1
102
RTVSPropertyOp32
 70
     1
  0
XRECORD
  5
337F
102
{ACAD_REACTORS
330
337E
102
}
330
337E
100
AcDbXrecord
280
     1
102
RTVSPropertyOp0
 70
     1
102
RTVSPropertyOp1
 70
     1
102
RTVSPropertyOp2
 70
     1
102
RTVSPropertyOp3
 70
     1
102
RTVSPropertyOp4
 70
     1
102
RTVSPropertyOp5
 70
     1
102
RTVSPropertyOp6
 70
     1
102
RTVSPropertyOp7
 70
     1
102
RTVSPropertyOp8
 70
     1
102
RTVSPropertyOp9
 70
     1
102
RTVSPropertyOp10
 70
     1
102
RTVSPropertyOp11
 70
     1
102
RTVSPropertyOp12
 70
     1
102
RTVSPropertyOp13
 70
     1
102
RTVSPropertyOp14
 70
     1
102
RTVSPropertyOp15
 70
     1
102
RTVSPropertyOp16
 70
     1
102
RTVSPropertyOp17
 70
     1
102
RTVSPropertyOp18
 70
     1
102
RTVSPropertyOp19
 70
     1
102
RTVSPropertyOp20
 70
     1
102
RTVSPropertyOp21
 70
     1
102
RTVSPropertyOp22
 70
     1
102
RTVSPropertyOp23
 70
     1
102
RTVSPropertyOp24
 70
     1
102
RTVSPropertyOp25
 70
     1
102
RTVSPropertyOp26
 70
     1
102
RTVSPropertyOp27
 70
     1
102
RTVSPropertyOp28
 70
     1
102
RTVSPropertyOp29
 70
     1
102
RTVSPropertyOp30
 70
     1
102
RTVSPropertyOp31
 70
     1
102
RTVSPropertyOp32
 70
     1
  0
XRECORD
  5
339B
102
{ACAD_REACTORS
330
339A
102
}
330
339A
100
AcDbXrecord
280
     1
102
RTVSPropertyOp0
 70
     0
102
RTVSPropertyOp1
 70
     0
102
RTVSPropertyOp2
 70
     0
102
RTVSPropertyOp3
 70
     0
102
RTVSPropertyOp4
 70
     0
102
RTVSPropertyOp5
 70
     0
102
RTVSPropertyOp6
 70
     0
102
RTVSPropertyOp7
 70
     0
102
RTVSPropertyOp8
 70
     0
102
RTVSPropertyOp9
 70
     0
102
RTVSPropertyOp10
 70
     0
102
RTVSPropertyOp11
 70
     0
102
RTVSPropertyOp12
 70
     0
102
RTVSPropertyOp13
 70
     0
102
RTVSPropertyOp14
 70
     2
102
RTVSPropertyOp15
 70
     0
102
RTVSPropertyOp16
 70
     0
102
RTVSPropertyOp17
 70
     0
102
RTVSPropertyOp18
 70
     0
102
RTVSPropertyOp19
 70
     0
102
RTVSPropertyOp20
 70
     0
102
RTVSPropertyOp21
 70
     0
102
RTVSPropertyOp22
 70
     0
102
RTVSPropertyOp23
 70
     0
102
RTVSPropertyOp24
 70
     0
102
RTVSPropertyOp25
 70
     0
102
RTVSPropertyOp26
 70
     0
102
RTVSPropertyOp27
 70
     0
102
RTVSPropertyOp28
 70
     0
102
RTVSPropertyOp29
 70
     0
102
RTVSPropertyOp30
 70
     0
102
RTVSPropertyOp31
 70
     0
102
RTVSPropertyOp32
 70
     0
  0
XRECORD
  5
338B
102
{ACAD_REACTORS
330
338A
102
}
330
338A
100
AcDbXrecord
280
     1
102
RTVSPropertyOp0
 70
     1
102
RTVSPropertyOp1
 70
     1
102
RTVSPropertyOp2
 70
     1
102
RTVSPropertyOp3
 70
     1
102
RTVSPropertyOp4
 70
     1
102
RTVSPropertyOp5
 70
     1
102
RTVSPropertyOp6
 70
     1
102
RTVSPropertyOp7
 70
     1
102
RTVSPropertyOp8
 70
     1
102
RTVSPropertyOp9
 70
     1
102
RTVSPropertyOp10
 70
     1
102
RTVSPropertyOp11
 70
     1
102
RTVSPropertyOp12
 70
     1
102
RTVSPropertyOp13
 70
     1
102
RTVSPropertyOp14
 70
     1
102
RTVSPropertyOp15
 70
     1
102
RTVSPropertyOp16
 70
     1
102
RTVSPropertyOp17
 70
     1
102
RTVSPropertyOp18
 70
     1
102
RTVSPropertyOp19
 70
     1
102
RTVSPropertyOp20
 70
     1
102
RTVSPropertyOp21
 70
     1
102
RTVSPropertyOp22
 70
     1
102
RTVSPropertyOp23
 70
     1
102
RTVSPropertyOp24
 70
     1
102
RTVSPropertyOp25
 70
     1
102
RTVSPropertyOp26
 70
     1
102
RTVSPropertyOp27
 70
     1
102
RTVSPropertyOp28
 70
     1
102
RTVSPropertyOp29
 70
     1
102
RTVSPropertyOp30
 70
     1
102
RTVSPropertyOp31
 70
     1
102
RTVSPropertyOp32
 70
     1
  0
XRECORD
  5
339D
102
{ACAD_REACTORS
330
339C
102
}
330
339C
100
AcDbXrecord
280
     1
102
RTVSPropertyOp0
 70
     0
102
RTVSPropertyOp1
 70
     0
102
RTVSPropertyOp2
 70
     0
102
RTVSPropertyOp3
 70
     0
102
RTVSPropertyOp4
 70
     0
102
RTVSPropertyOp5
 70
     0
102
RTVSPropertyOp6
 70
     0
102
RTVSPropertyOp7
 70
     0
102
RTVSPropertyOp8
 70
     0
102
RTVSPropertyOp9
 70
     0
102
RTVSPropertyOp10
 70
     0
102
RTVSPropertyOp11
 70
     0
102
RTVSPropertyOp12
 70
     0
102
RTVSPropertyOp13
 70
     0
102
RTVSPropertyOp14
 70
     2
102
RTVSPropertyOp15
 70
     0
102
RTVSPropertyOp16
 70
     0
102
RTVSPropertyOp17
 70
     0
102
RTVSPropertyOp18
 70
     0
102
RTVSPropertyOp19
 70
     0
102
RTVSPropertyOp20
 70
     0
102
RTVSPropertyOp21
 70
     0
102
RTVSPropertyOp22
 70
     0
102
RTVSPropertyOp23
 70
     0
102
RTVSPropertyOp24
 70
     0
102
RTVSPropertyOp25
 70
     0
102
RTVSPropertyOp26
 70
     0
102
RTVSPropertyOp27
 70
     0
102
RTVSPropertyOp28
 70
     0
102
RTVSPropertyOp29
 70
     0
102
RTVSPropertyOp30
 70
     0
102
RTVSPropertyOp31
 70
     0
102
RTVSPropertyOp32
 70
     0
  0
XRECORD
  5
3383
102
{ACAD_REACTORS
330
3382
102
}
330
3382
100
AcDbXrecord
280
     1
102
RTVSPropertyOp0
 70
     1
102
RTVSPropertyOp1
 70
     1
102
RTVSPropertyOp2
 70
     1
102
RTVSPropertyOp3
 70
     1
102
RTVSPropertyOp4
 70
     1
102
RTVSPropertyOp5
 70
     1
102
RTVSPropertyOp6
 70
     1
102
RTVSPropertyOp7
 70
     1
102
RTVSPropertyOp8
 70
     1
102
RTVSPropertyOp9
 70
     1
102
RTVSPropertyOp10
 70
     1
102
RTVSPropertyOp11
 70
     1
102
RTVSPropertyOp12
 70
     1
102
RTVSPropertyOp13
 70
     1
102
RTVSPropertyOp14
 70
     1
102
RTVSPropertyOp15
 70
     1
102
RTVSPropertyOp16
 70
     1
102
RTVSPropertyOp17
 70
     1
102
RTVSPropertyOp18
 70
     1
102
RTVSPropertyOp19
 70
     1
102
RTVSPropertyOp20
 70
     1
102
RTVSPropertyOp21
 70
     1
102
RTVSPropertyOp22
 70
     1
102
RTVSPropertyOp23
 70
     1
102
RTVSPropertyOp24
 70
     1
102
RTVSPropertyOp25
 70
     1
102
RTVSPropertyOp26
 70
     1
102
RTVSPropertyOp27
 70
     1
102
RTVSPropertyOp28
 70
     1
102
RTVSPropertyOp29
 70
     1
102
RTVSPropertyOp30
 70
     1
102
RTVSPropertyOp31
 70
     1
102
RTVSPropertyOp32
 70
     1
  0
XRECORD
  5
3399
102
{ACAD_REACTORS
330
3398
102
}
330
3398
100
AcDbXrecord
280
     1
102
RTVSPropertyOp0
 70
     1
102
RTVSPropertyOp1
 70
     1
102
RTVSPropertyOp2
 70
     1
102
RTVSPropertyOp3
 70
     1
102
RTVSPropertyOp4
 70
     1
102
RTVSPropertyOp5
 70
     1
102
RTVSPropertyOp6
 70
     1
102
RTVSPropertyOp7
 70
     1
102
RTVSPropertyOp8
 70
     1
102
RTVSPropertyOp9
 70
     1
102
RTVSPropertyOp10
 70
     1
102
RTVSPropertyOp11
 70
     1
102
RTVSPropertyOp12
 70
     1
102
RTVSPropertyOp13
 70
     1
102
RTVSPropertyOp14
 70
     1
102
RTVSPropertyOp15
 70
     1
102
RTVSPropertyOp16
 70
     1
102
RTVSPropertyOp17
 70
     1
102
RTVSPropertyOp18
 70
     1
102
RTVSPropertyOp19
 70
     1
102
RTVSPropertyOp20
 70
     1
102
RTVSPropertyOp21
 70
     1
102
RTVSPropertyOp22
 70
     1
102
RTVSPropertyOp23
 70
     1
102
RTVSPropertyOp24
 70
     1
102
RTVSPropertyOp25
 70
     1
102
RTVSPropertyOp26
 70
     1
102
RTVSPropertyOp27
 70
     1
102
RTVSPropertyOp28
 70
     1
102
RTVSPropertyOp29
 70
     1
102
RTVSPropertyOp30
 70
     1
102
RTVSPropertyOp31
 70
     1
102
RTVSPropertyOp32
 70
     1
  0
XRECORD
  5
3397
102
{ACAD_REACTORS
330
3396
102
}
330
3396
100
AcDbXrecord
280
     1
102
RTVSPropertyOp0
 70
     1
102
RTVSPropertyOp1
 70
     1
102
RTVSPropertyOp2
 70
     1
102
RTVSPropertyOp3
 70
     1
102
RTVSPropertyOp4
 70
     1
102
RTVSPropertyOp5
 70
     1
102
RTVSPropertyOp6
 70
     1
102
RTVSPropertyOp7
 70
     1
102
RTVSPropertyOp8
 70
     1
102
RTVSPropertyOp9
 70
     1
102
RTVSPropertyOp10
 70
     1
102
RTVSPropertyOp11
 70
     1
102
RTVSPropertyOp12
 70
     1
102
RTVSPropertyOp13
 70
     1
102
RTVSPropertyOp14
 70
     1
102
RTVSPropertyOp15
 70
     1
102
RTVSPropertyOp16
 70
     1
102
RTVSPropertyOp17
 70
     1
102
RTVSPropertyOp18
 70
     1
102
RTVSPropertyOp19
 70
     1
102
RTVSPropertyOp20
 70
     1
102
RTVSPropertyOp21
 70
     1
102
RTVSPropertyOp22
 70
     1
102
RTVSPropertyOp23
 70
     1
102
RTVSPropertyOp24
 70
     1
102
RTVSPropertyOp25
 70
     1
102
RTVSPropertyOp26
 70
     1
102
RTVSPropertyOp27
 70
     1
102
RTVSPropertyOp28
 70
     1
102
RTVSPropertyOp29
 70
     1
102
RTVSPropertyOp30
 70
     1
102
RTVSPropertyOp31
 70
     1
102
RTVSPropertyOp32
 70
     1
  0
XRECORD
  5
3391
102
{ACAD_REACTORS
330
3390
102
}
330
3390
100
AcDbXrecord
280
     1
102
RTVSPropertyOp0
 70
     1
102
RTVSPropertyOp1
 70
     1
102
RTVSPropertyOp2
 70
     1
102
RTVSPropertyOp3
 70
     1
102
RTVSPropertyOp4
 70
     1
102
RTVSPropertyOp5
 70
     1
102
RTVSPropertyOp6
 70
     1
102
RTVSPropertyOp7
 70
     1
102
RTVSPropertyOp8
 70
     1
102
RTVSPropertyOp9
 70
     1
102
RTVSPropertyOp10
 70
     1
102
RTVSPropertyOp11
 70
     1
102
RTVSPropertyOp12
 70
     1
102
RTVSPropertyOp13
 70
     1
102
RTVSPropertyOp14
 70
     1
102
RTVSPropertyOp15
 70
     1
102
RTVSPropertyOp16
 70
     1
102
RTVSPropertyOp17
 70
     1
102
RTVSPropertyOp18
 70
     1
102
RTVSPropertyOp19
 70
     1
102
RTVSPropertyOp20
 70
     1
102
RTVSPropertyOp21
 70
     1
102
RTVSPropertyOp22
 70
     1
102
RTVSPropertyOp23
 70
     1
102
RTVSPropertyOp24
 70
     1
102
RTVSPropertyOp25
 70
     1
102
RTVSPropertyOp26
 70
     1
102
RTVSPropertyOp27
 70
     1
102
RTVSPropertyOp28
 70
     1
102
RTVSPropertyOp29
 70
     1
102
RTVSPropertyOp30
 70
     1
102
RTVSPropertyOp31
 70
     1
102
RTVSPropertyOp32
 70
     1
  0
XRECORD
  5
3393
102
{ACAD_REACTORS
330
3392
102
}
330
3392
100
AcDbXrecord
280
     1
102
RTVSPropertyOp0
 70
     1
102
RTVSPropertyOp1
 70
     1
102
RTVSPropertyOp2
 70
     1
102
RTVSPropertyOp3
 70
     1
102
RTVSPropertyOp4
 70
     1
102
RTVSPropertyOp5
 70
     1
102
RTVSPropertyOp6
 70
     1
102
RTVSPropertyOp7
 70
     1
102
RTVSPropertyOp8
 70
     1
102
RTVSPropertyOp9
 70
     1
102
RTVSPropertyOp10
 70
     1
102
RTVSPropertyOp11
 70
     1
102
RTVSPropertyOp12
 70
     1
102
RTVSPropertyOp13
 70
     1
102
RTVSPropertyOp14
 70
     1
102
RTVSPropertyOp15
 70
     1
102
RTVSPropertyOp16
 70
     1
102
RTVSPropertyOp17
 70
     1
102
RTVSPropertyOp18
 70
     1
102
RTVSPropertyOp19
 70
     1
102
RTVSPropertyOp20
 70
     1
102
RTVSPropertyOp21
 70
     1
102
RTVSPropertyOp22
 70
     1
102
RTVSPropertyOp23
 70
     1
102
RTVSPropertyOp24
 70
     1
102
RTVSPropertyOp25
 70
     1
102
RTVSPropertyOp26
 70
     1
102
RTVSPropertyOp27
 70
     1
102
RTVSPropertyOp28
 70
     1
102
RTVSPropertyOp29
 70
     1
102
RTVSPropertyOp30
 70
     1
102
RTVSPropertyOp31
 70
     1
102
RTVSPropertyOp32
 70
     1
  0
XRECORD
  5
3389
102
{ACAD_REACTORS
330
3388
102
}
330
3388
100
AcDbXrecord
280
     1
102
RTVSPropertyOp0
 70
     1
102
RTVSPropertyOp1
 70
     1
102
RTVSPropertyOp2
 70
     1
102
RTVSPropertyOp3
 70
     1
102
RTVSPropertyOp4
 70
     1
102
RTVSPropertyOp5
 70
     1
102
RTVSPropertyOp6
 70
     1
102
RTVSPropertyOp7
 70
     1
102
RTVSPropertyOp8
 70
     1
102
RTVSPropertyOp9
 70
     1
102
RTVSPropertyOp10
 70
     1
102
RTVSPropertyOp11
 70
     1
102
RTVSPropertyOp12
 70
     1
102
RTVSPropertyOp13
 70
     1
102
RTVSPropertyOp14
 70
     1
102
RTVSPropertyOp15
 70
     1
102
RTVSPropertyOp16
 70
     1
102
RTVSPropertyOp17
 70
     1
102
RTVSPropertyOp18
 70
     1
102
RTVSPropertyOp19
 70
     1
102
RTVSPropertyOp20
 70
     1
102
RTVSPropertyOp21
 70
     1
102
RTVSPropertyOp22
 70
     1
102
RTVSPropertyOp23
 70
     1
102
RTVSPropertyOp24
 70
     1
102
RTVSPropertyOp25
 70
     1
102
RTVSPropertyOp26
 70
     1
102
RTVSPropertyOp27
 70
     1
102
RTVSPropertyOp28
 70
     1
102
RTVSPropertyOp29
 70
     1
102
RTVSPropertyOp30
 70
     1
102
RTVSPropertyOp31
 70
     1
102
RTVSPropertyOp32
 70
     1
  0
XRECORD
  5
337D
102
{ACAD_REACTORS
330
337C
102
}
330
337C
100
AcDbXrecord
280
     1
102
RTVSPropertyOp0
 70
     1
102
RTVSPropertyOp1
 70
     1
102
RTVSPropertyOp2
 70
     1
102
RTVSPropertyOp3
 70
     1
102
RTVSPropertyOp4
 70
     1
102
RTVSPropertyOp5
 70
     1
102
RTVSPropertyOp6
 70
     1
102
RTVSPropertyOp7
 70
     1
102
RTVSPropertyOp8
 70
     1
102
RTVSPropertyOp9
 70
     1
102
RTVSPropertyOp10
 70
     1
102
RTVSPropertyOp11
 70
     1
102
RTVSPropertyOp12
 70
     1
102
RTVSPropertyOp13
 70
     1
102
RTVSPropertyOp14
 70
     1
102
RTVSPropertyOp15
 70
     1
102
RTVSPropertyOp16
 70
     1
102
RTVSPropertyOp17
 70
     1
102
RTVSPropertyOp18
 70
     1
102
RTVSPropertyOp19
 70
     1
102
RTVSPropertyOp20
 70
     1
102
RTVSPropertyOp21
 70
     1
102
RTVSPropertyOp22
 70
     1
102
RTVSPropertyOp23
 70
     1
102
RTVSPropertyOp24
 70
     1
102
RTVSPropertyOp25
 70
     1
102
RTVSPropertyOp26
 70
     1
102
RTVSPropertyOp27
 70
     1
102
RTVSPropertyOp28
 70
     1
102
RTVSPropertyOp29
 70
     1
102
RTVSPropertyOp30
 70
     1
102
RTVSPropertyOp31
 70
     1
102
RTVSPropertyOp32
 70
     1
  0
XRECORD
  5
3395
102
{ACAD_REACTORS
330
3394
102
}
330
3394
100
AcDbXrecord
280
     1
102
RTVSPropertyOp0
 70
     1
102
RTVSPropertyOp1
 70
     1
102
RTVSPropertyOp2
 70
     1
102
RTVSPropertyOp3
 70
     1
102
RTVSPropertyOp4
 70
     1
102
RTVSPropertyOp5
 70
     1
102
RTVSPropertyOp6
 70
     1
102
RTVSPropertyOp7
 70
     1
102
RTVSPropertyOp8
 70
     1
102
RTVSPropertyOp9
 70
     1
102
RTVSPropertyOp10
 70
     1
102
RTVSPropertyOp11
 70
     1
102
RTVSPropertyOp12
 70
     1
102
RTVSPropertyOp13
 70
     1
102
RTVSPropertyOp14
 70
     1
102
RTVSPropertyOp15
 70
     1
102
RTVSPropertyOp16
 70
     1
102
RTVSPropertyOp17
 70
     1
102
RTVSPropertyOp18
 70
     1
102
RTVSPropertyOp19
 70
     1
102
RTVSPropertyOp20
 70
     1
102
RTVSPropertyOp21
 70
     1
102
RTVSPropertyOp22
 70
     1
102
RTVSPropertyOp23
 70
     1
102
RTVSPropertyOp24
 70
     1
102
RTVSPropertyOp25
 70
     1
102
RTVSPropertyOp26
 70
     1
102
RTVSPropertyOp27
 70
     1
102
RTVSPropertyOp28
 70
     1
102
RTVSPropertyOp29
 70
     1
102
RTVSPropertyOp30
 70
     1
102
RTVSPropertyOp31
 70
     1
102
RTVSPropertyOp32
 70
     1
  0
ENDSEC
  0
EOF
