  0
SECTION
  2
HEADER
  9
$ACADVER
  1
AC1014
  9
$ACADMAINTVER
 70
     0
  9
$DWGCODEPAGE
  3
DOS932
  9
$INSBASE
 10
0.0
 20
0.0
 30
0.0
  9
$EXTMIN
 10
-125.749998
 20
-23.3
 30
0.0
  9
$EXTMAX
 10
396.750002
 20
193.778
 30
0.0
  9
$LIMMIN
 10
0.0
 20
0.0
  9
$LIMMAX
 10
297.0
 20
210.0
  9
$ORTHOMODE
 70
     0
  9
$REGENMODE
 70
     1
  9
$FILLMODE
 70
     1
  9
$QTEXTMODE
 70
     0
  9
$MIRRTEXT
 70
     1
  9
$DRAGMODE
 70
     2
  9
$LTSCALE
 40
1.0
  9
$OSMODE
 70
     0
  9
$ATTMODE
 70
     1
  9
$TEXTSIZE
 40
0.2
  9
$TRACEWID
 40
0.05
  9
$TEXTSTYLE
  7
STANDARD
  9
$CLAYER
  8
LAY-2
  9
$CELTYPE
  6
CONTINUOUS
  9
$CECOLOR
 62
   256
  9
$CELTSCALE
 40
1.0
  9
$DELOBJ
 70
     1
  9
$DISPSILH
 70
     0
  9
$DIMSCALE
 40
1.0
  9
$DIMASZ
 40
0.18
  9
$DIMEXO
 40
0.0625
  9
$DIMDLI
 40
0.38
  9
$DIMRND
 40
0.0
  9
$DIMDLE
 40
0.0
  9
$DIMEXE
 40
0.18
  9
$DIMTP
 40
0.0
  9
$DIMTM
 40
0.0
  9
$DIMTXT
 40
0.18
  9
$DIMCEN
 40
0.09
  9
$DIMTSZ
 40
0.0
  9
$DIMTOL
 70
     0
  9
$DIMLIM
 70
     0
  9
$DIMTIH
 70
     1
  9
$DIMTOH
 70
     1
  9
$DIMSE1
 70
     0
  9
$DIMSE2
 70
     0
  9
$DIMTAD
 70
     0
  9
$DIMZIN
 70
     0
  9
$DIMBLK
  1

  9
$DIMASO
 70
     1
  9
$DIMSHO
 70
     1
  9
$DIMPOST
  1

  9
$DIMAPOST
  1

  9
$DIMALT
 70
     0
  9
$DIMALTD
 70
     2
  9
$DIMALTF
 40
25.4
  9
$DIMLFAC
 40
1.0
  9
$DIMTOFL
 70
     0
  9
$DIMTVP
 40
0.0
  9
$DIMTIX
 70
     0
  9
$DIMSOXD
 70
     0
  9
$DIMSAH
 70
     0
  9
$DIMBLK1
  1

  9
$DIMBLK2
  1

  9
$DIMSTYLE
  2
STANDARD
  9
$DIMCLRD
 70
     0
  9
$DIMCLRE
 70
     0
  9
$DIMCLRT
 70
     0
  9
$DIMTFAC
 40
1.0
  9
$DIMGAP
 40
0.09
  9
$DIMJUST
 70
     0
  9
$DIMSD1
 70
     0
  9
$DIMSD2
 70
     0
  9
$DIMTOLJ
 70
     1
  9
$DIMTZIN
 70
     0
  9
$DIMALTZ
 70
     0
  9
$DIMALTTZ
 70
     0
  9
$DIMFIT
 70
     3
  9
$DIMUPT
 70
     0
  9
$DIMUNIT
 70
     2
  9
$DIMDEC
 70
     4
  9
$DIMTDEC
 70
     4
  9
$DIMALTU
 70
     2
  9
$DIMALTTD
 70
     2
  9
$DIMTXSTY
  7
STANDARD
  9
$DIMAUNIT
 70
     0
  9
$LUNITS
 70
     2
  9
$LUPREC
 70
     4
  9
$SKETCHINC
 40
0.1
  9
$FILLETRAD
 40
0.0
  9
$AUNITS
 70
     0
  9
$AUPREC
 70
     0
  9
$MENU
  1
acad
  9
$ELEVATION
 40
0.0
  9
$PELEVATION
 40
0.0
  9
$THICKNESS
 40
0.0
  9
$LIMCHECK
 70
     0
  9
$BLIPMODE
 70
     1
  9
$CHAMFERA
 40
0.0
  9
$CHAMFERB
 40
0.0
  9
$CHAMFERC
 40
0.0
  9
$CHAMFERD
 40
0.0
  9
$SKPOLY
 70
     0
  9
$TDCREATE
 40
2453455.839242234
  9
$TDUPDATE
 40
2453455.839242234
  9
$TDINDWG
 40
0.0000000000
  9
$TDUSRTIMER
 40
0.0000000000
  9
$USRTIMER
 70
     1
  9
$ANGBASE
 50
0.0
  9
$ANGDIR
 70
     0
  9
$PDMODE
 70
     0
  9
$PDSIZE
 40
0.0
  9
$PLINEWID
 40
0.0
  9
$COORDS
 70
     1
  9
$SPLFRAME
 70
     0
  9
$SPLINETYPE
 70
     6
  9
$SPLINESEGS
 70
     8
  9
$ATTDIA
 70
     0
  9
$ATTREQ
 70
     1
  9
$HANDLING
 70
     1
  9
$HANDSEED
  5
35F
  9
$SURFTAB1
 70
     6
  9
$SURFTAB2
 70
     6
  9
$SURFTYPE
 70
     6
  9
$SURFU
 70
     6
  9
$SURFV
 70
     6
  9
$UCSNAME
  2

  9
$UCSORG
 10
0.0
 20
0.0
 30
0.0
  9
$UCSXDIR
 10
1.0
 20
0.0
 30
0.0
  9
$UCSYDIR
 10
0.0
 20
1.0
 30
0.0
  9
$PUCSNAME
  2

  9
$PUCSORG
 10
0.0
 20
0.0
 30
0.0
  9
$PUCSXDIR
 10
1.0
 20
0.0
 30
0.0
  9
$PUCSYDIR
 10
0.0
 20
1.0
 30
0.0
  9
$USERI1
 70
     0
  9
$USERI2
 70
     0
  9
$USERI3
 70
     0
  9
$USERI4
 70
     0
  9
$USERI5
 70
     0
  9
$USERR1
 40
0.0
  9
$USERR2
 40
0.0
  9
$USERR3
 40
0.0
  9
$USERR4
 40
0.0
  9
$USERR5
 40
0.0
  9
$WORLDVIEW
 70
     1
  9
$SHADEDGE
 70
     3
  9
$SHADEDIF
 70
    70
  9
$TILEMODE
 70
     1
  9
$MAXACTVP
 70
    16
  9
$PINSBASE
 10
0.0
 20
0.0
 30
0.0
  9
$PLIMCHECK
 70
     0
  9
$PEXTMIN
 10
1.000000E+20
 20
1.000000E+20
 30
1.000000E+20
  9
$PEXTMAX
 10
-1.000000E+20
 20
-1.000000E+20
 30
-1.000000E+20
  9
$PLIMMIN
 10
0.0
 20
0.0
  9
$PLIMMAX
 10
12.0
 20
9.0
  9
$UNITMODE
 70
     0
  9
$VISRETAIN
 70
     0
  9
$PLINEGEN
 70
     1
  9
$PSLTSCALE
 70
     0
  9
$TREEDEPTH
 70
  3020
  9
$PICKSTYLE
 70
     1
  9
$CMLSTYLE
  2
Standard
  9
$CMLJUST
 70
     0
  9
$CMLSCALE
 40
1.0
  9
$PROXYGRAPHICS
 70
     0
  9
$MEASUREMENT
 70
     0
  0
ENDSEC
  0
SECTION
  2
CLASSES
  0
CLASS
  1
LWPOLYLINE
  2
AcDbPolyline
  3
"AutoCAD"
 90
        0
280
     0
281
     1
  0
CLASS
  1
IMAGE
  2
AcDbRasterImage
  3
ISM
 90
      127
280
     0
281
     1
  0
CLASS
  1
OLE2FRAME
  2
AcDbOle2Frame
  3
""
 90
        0
280
     0
281
     1
  0
CLASS
  1
HATCH
  2
AcDbHatch
  3
"ACAD_SEDONA"
 90
        0
280
     0
281
     1
  0
CLASS
  1
DICTIONARYVAR
  2
AcDbDictionaryVar
  3
"AutoCAD"
 90
        0
280
     0
281
     0
  0
CLASS
  1
RASTERVARIABLES
  2
AcDbRasterVariables
  3
ISM
 90
        0
280
     0
281
     0
  0
CLASS
  1
IMAGEDEF
  2
AcDbRasterImageDef
  3
ISM
 90
        0
280
     0
281
     0
  0
CLASS
  1
IMAGEDEF_REACTOR
  2
AcDbRasterImageDefReactor
  3
ISM
 90
        1
280
     0
281
     0
  0
CLASS
  1
IDBUFFER
  2
AcDbIdBuffer
  3
"Acad"
 90
        0
280
     0
281
     0
  0
CLASS
  1
SPATIAL_FILTER
  2
AcDbSpatialFilter
  3
"Acad"
 90
        0
280
     0
281
     0
  0
CLASS
  1
XRECORD
  2
AcDbXrecord
  3
"<Built In>"
 90
        0
280
     0
281
     0
  0
CLASS
  1
SORTENTSTABLE
  2
AcDbSortentsTable
  3
"AutoCAD"
 90
        0
280
     0
281
     0
  0
CLASS
  1
LAYER_INDEX
  2
AcDbLayerIndex
  3
"Acad"
 90
        0
280
     0
281
     0
  0
CLASS
  1
SPATIAL_INDEX
  2
AcDbSpatialIndex
  3
"Acad"
 90
        0
280
     0
281
     0
  0
CLASS
  1
OBJECT_PTR
  2
CAseDLPNTableRecord
  3
"ASE-LPNTableRecord"
 90
        1
280
     0
281
     0
  0
CLASS
  1
LAYOUT
  2
AcDbLayout
  3
"AutoCAD 2000"
 90
        1
280
     0
281
     0
  0
CLASS
  1
PLOTSETTINGS
  2
AcDbPlotSettings
  3
"AutoCAD 2000"
 90
        1
280
     0
281
     0
  0
CLASS
  1
ACDBDICTIONARYWDFLT
  2
AcDbDictionaryWithDefault
  3
"AutoCAD 2000"
 90
        1
280
     0
281
     0
  0
CLASS
  1
ACDBPLACEHOLDER
  2
AcDbPlaceHolder
  3
"AutoCAD 2000"
 90
        1
280
     0
281
     0
  0
CLASS
  1
VBA_PROJECT
  2
AcDbVbaProject
  3
"acadvba"
 90
        1
280
     0
281
     0
  0
CLASS
  1
WIPEOUT
  2
AcDbWipeout
  3
WipeOut|AutoCAD Express Tool|expresstools@autodesk.com
 90
      127
280
     0
281
     1
  0
CLASS
  1
WIPEOUTVARIABLES
  2
AcDbWipeoutVariables
  3
WipeOut|AutoCAD Express Tool|expresstools@autodesk.com
 90
        0
280
     0
281
     0
  0
CLASS
  1
RTEXT
  2
RText
  3
RText|AutoCAD Express Tool|expresstools@autodesk.com
 90
        0
280
     0
281
     1
  0
CLASS
  1
ARCALIGNEDTEXT
  2
AcDbArcAlignedText
  3
ATEXT|AutoCAD Express Tool|expresstools@autodesk.com
 90
        0
280
     0
281
     1
  0
ENDSEC
  0
SECTION
  2
TABLES
  0
TABLE
  2
VPORT
  5
7
100
AcDbSymbolTable
 70
     1
  0
VPORT
  5
15
100
AcDbSymbolTableRecord
100
AcDbViewportTableRecord
  2
*ACTIVE
 70
     0
 10
0.0
 20
0.0
 11
1.0
 21
1.0
 12
135.500002
 22
85.239
 13
0.0
 23
0.0
 14
1.0
 24
1.0
 15
0.0
 25
0.0
 16
0.0
 26
0.0
 36
1.0
 17
0.0
 27
0.0
 37
0.0
 40
217.078
 41
1.722533
 42
50.0
 43
0.0
 44
0.0
 50
0.0
 51
0.0
 71
     0
 72
   100
 73
     1
 74
     1
 75
     0
 76
     0
 77
     0
 78
     0
  0
ENDTAB
  0
TABLE
  2
LTYPE
  5
4
100
AcDbSymbolTable
 70
     9
  0
LTYPE
  5
11
100
AcDbSymbolTableRecord
100
AcDbLinetypeTableRecord
  2
BYBLOCK
 70
    64
  3

 72
    65
 73
     0
 40
0.0
  0
LTYPE
  5
12
100
AcDbSymbolTableRecord
100
AcDbLinetypeTableRecord
  2
BYLAYER
 70
    64
  3

 72
    65
 73
     0
 40
0.0
  0
LTYPE
  5
13
100
AcDbSymbolTableRecord
100
AcDbLinetypeTableRecord
  2
CONTINUOUS
 70
    64
  3
実線
 72
    65
 73
     0
 40
0.0
  0
LTYPE
  5
1D
100
AcDbSymbolTableRecord
100
AcDbLinetypeTableRecord
  2
EXLTYPE1
 70
    64
  3
破線
 72
    65
 73
     2
 40
4.0
 49
3.0
 74
     0
 49
-1.0
 74
     0
  0
LTYPE
  5
1E
100
AcDbSymbolTableRecord
100
AcDbLinetypeTableRecord
  2
EXLTYPE2
 70
    64
  3
点線
 72
    65
 73
     2
 40
2.0
 49
1.0
 74
     0
 49
-1.0
 74
     0
  0
LTYPE
  5
1F
100
AcDbSymbolTableRecord
100
AcDbLinetypeTableRecord
  2
EXLTYPE3
 70
    64
  3
一点鎖線
 72
    65
 73
     4
 40
33.0
 49
30.0
 74
     0
 49
-1.0
 74
     0
 49
1.0
 74
     0
 49
-1.0
 74
     0
  0
LTYPE
  5
20
100
AcDbSymbolTableRecord
100
AcDbLinetypeTableRecord
  2
EXLTYPE4
 70
    64
  3
二点鎖線
 72
    65
 73
     6
 40
35.0
 49
30.0
 74
     0
 49
-1.0
 74
     0
 49
1.0
 74
     0
 49
-1.0
 74
     0
 49
1.0
 74
     0
 49
-1.0
 74
     0
  0
LTYPE
  5
21
100
AcDbSymbolTableRecord
100
AcDbLinetypeTableRecord
  2
EXLTYPE5
 70
    64
  3
三点鎖線
 72
    65
 73
     8
 40
37.0
 49
30.0
 74
     0
 49
-1.0
 74
     0
 49
1.0
 74
     0
 49
-1.0
 74
     0
 49
1.0
 74
     0
 49
-1.0
 74
     0
 49
1.0
 74
     0
 49
-1.0
 74
     0
  0
LTYPE
  5
22
100
AcDbSymbolTableRecord
100
AcDbLinetypeTableRecord
  2
EXLTYPE6
 70
    64
  3
四点鎖線
 72
    65
 73
    10
 40
39.0
 49
30.0
 74
     0
 49
-1.0
 74
     0
 49
1.0
 74
     0
 49
-1.0
 74
     0
 49
1.0
 74
     0
 49
-1.0
 74
     0
 49
1.0
 74
     0
 49
-1.0
 74
     0
 49
1.0
 74
     0
 49
-1.0
 74
     0
  0
ENDTAB
  0
TABLE
  2
LAYER
  5
2
100
AcDbSymbolTable
 70
     3
  0
LAYER
  5
14
100
AcDbSymbolTableRecord
100
AcDbLayerTableRecord
  2
0
 70
     0
 62
     7
  6
CONTINUOUS
  0
LAYER
  5
25
100
AcDbSymbolTableRecord
100
AcDbLayerTableRecord
  2
LAY-1
 70
    64
 62
     7
  6
CONTINUOUS
  0
LAYER
  5
26
100
AcDbSymbolTableRecord
100
AcDbLayerTableRecord
  2
LAY-2
 70
    64
 62
     7
  6
CONTINUOUS
  0
ENDTAB
  0
TABLE
  2
STYLE
  5
3
100
AcDbSymbolTable
 70
     4
  0
STYLE
  5
17
100
AcDbSymbolTableRecord
100
AcDbTextStyleTableRecord
  2
STANDARD
 70
     0
 40
0.0
 41
1.0
 50
0.0
 71
     0
 42
0.0
  3
monotxt
  4
extfont
  0
STYLE
  5
23
100
AcDbSymbolTableRecord
100
AcDbTextStyleTableRecord
  2
EXCADSTD
 70
    64
 40
0.0
 41
1.0
 50
0.0
 71
     0
 42
0.2
  3
monotxt
  4
extfont
  0
STYLE
  5
24
100
AcDbSymbolTableRecord
100
AcDbTextStyleTableRecord
  2
EXCADVERT
 70
    68
 40
0.0
 41
1.0
 50
0.0
 71
     0
 42
0.286885
  3
monotxt
  4
extfont
  0
STYLE
  5
35D
100
AcDbSymbolTableRecord
100
AcDbTextStyleTableRecord
  2
EXCADTTF1
 70
    64
 40
0.0
 41
1.0
 50
0.0
 71
     0
 42
0.2
  3
MS Gothic.ttf
  4

1001
ACAD
1000
MS Gothic
1071
    32817
  0
ENDTAB
  0
TABLE
  2
VIEW
  5
5
100
AcDbSymbolTable
 70
     0
  0
ENDTAB
  0
TABLE
  2
UCS
  5
6
100
AcDbSymbolTable
 70
     0
  0
ENDTAB
  0
TABLE
  2
APPID
  5
8
100
AcDbSymbolTable
 70
     1
  0
APPID
  5
16
100
AcDbSymbolTableRecord
100
AcDbRegAppTableRecord
  2
ACAD
 70
     0
  0
ENDTAB
  0
TABLE
  2
DIMSTYLE
  5
9
100
AcDbSymbolTable
 70
     1
  0
DIMSTYLE
105
18
100
AcDbSymbolTableRecord
100
AcDbDimStyleTableRecord
  2
STANDARD
 70
     0
  3

  4

  5

  6

  7

 40
1.0
 41
0.18
 42
0.0625
 43
0.38
 44
0.18
 45
0.0
 46
0.0
 47
0.0
 48
0.0
 71
     0
 72
     0
 73
     1
 74
     1
 75
     0
 76
     0
 77
     0
 78
     0
140
0.18
141
0.09
142
0.0
143
25.4
144
1.0
145
0.0
146
1.0
147
0.09
170
     0
171
     2
172
     0
173
     0
174
     0
175
     0
176
     0
177
     0
178
     0
270
     2
271
     4
272
     4
273
     2
274
     2
275
     0
280
     0
281
     0
282
     0
283
     1
284
     0
285
     0
286
     0
287
     0
288
     0
340
17
  0
ENDTAB
  0
TABLE
  2
BLOCK_RECORD
  5
1
100
AcDbSymbolTable
 70
    14
  0
BLOCK_RECORD
  5
A
100
AcDbSymbolTableRecord
100
AcDbBlockTableRecord
  2
*MODEL_SPACE
  0
BLOCK_RECORD
  5
B
100
AcDbSymbolTableRecord
100
AcDbBlockTableRecord
  2
*PAPER_SPACE
  0
BLOCK_RECORD
  5
27
100
AcDbSymbolTableRecord
100
AcDbBlockTableRecord
  2
_EX_NORM
  0
BLOCK_RECORD
  5
28
100
AcDbSymbolTableRecord
100
AcDbBlockTableRecord
  2
_EX_BNORM
  0
BLOCK_RECORD
  5
29
100
AcDbSymbolTableRecord
100
AcDbBlockTableRecord
  2
_EX_BCIR
  0
BLOCK_RECORD
  5
2A
100
AcDbSymbolTableRecord
100
AcDbBlockTableRecord
  2
_EX_RCIVIL
  0
BLOCK_RECORD
  5
2B
100
AcDbSymbolTableRecord
100
AcDbBlockTableRecord
  2
_EX_SLANT
  0
BLOCK_RECORD
  5
2C
100
AcDbSymbolTableRecord
100
AcDbBlockTableRecord
  2
_EX_NONE
  0
BLOCK_RECORD
  5
2D
100
AcDbSymbolTableRecord
100
AcDbBlockTableRecord
  2
_EX_CIVIL
  0
BLOCK_RECORD
  5
2E
100
AcDbSymbolTableRecord
100
AcDbBlockTableRecord
  2
_EX_WCIR
  0
BLOCK_RECORD
  5
2F
100
AcDbSymbolTableRecord
100
AcDbBlockTableRecord
  2
_EX_WCIR2
  0
BLOCK_RECORD
  5
30
100
AcDbSymbolTableRecord
100
AcDbBlockTableRecord
  2
_EX_WNORM
  0
BLOCK_RECORD
  5
31
100
AcDbSymbolTableRecord
100
AcDbBlockTableRecord
  2
_EX_NNORM
  0
BLOCK_RECORD
  5
32
100
AcDbSymbolTableRecord
100
AcDbBlockTableRecord
  2
_EX_BBOX
  0
BLOCK_RECORD
  5
33
100
AcDbSymbolTableRecord
100
AcDbBlockTableRecord
  2
_EX_WBOX
  0
BLOCK_RECORD
  5
34
100
AcDbSymbolTableRecord
100
AcDbBlockTableRecord
  2
_EX_INTEGRAL
  0
ENDTAB
  0
ENDSEC
  0
SECTION
  2
BLOCKS
  0
BLOCK
  5
D
100
AcDbEntity
  8
0
100
AcDbBlockBegin
  2
*MODEL_SPACE
 70
     0
 10
0.0
 20
0.0
 30
0.0
  3
*MODEL_SPACE
  1

  0
ENDBLK
  5
E
100
AcDbEntity
  8
0
100
AcDbBlockEnd
  0
BLOCK
  5
F
100
AcDbEntity
 67
     1
  8
0
100
AcDbBlockBegin
  2
*PAPER_SPACE
 70
     0
 10
0.0
 20
0.0
 30
0.0
  3
*PAPER_SPACE
  1

  0
ENDBLK
  5
10
100
AcDbEntity
 67
     1
  8
0
100
AcDbBlockEnd
  0
BLOCK
  5
35
100
AcDbEntity
  8
0
100
AcDbBlockBegin
  2
_EX_NORM
 70
     0
 10
0.0
 20
0.0
 30
0.0
  3
_EX_NORM
  1

  0
LINE
  5
36
100
AcDbEntity
  8
0
  6
CONTINUOUS
 62
     0
100
AcDbLine
 10
0.0
 20
0.0
 30
0.0
 11
-1.0
 21
0.0
 31
0.0
  0
LINE
  5
37
100
AcDbEntity
  8
0
  6
CONTINUOUS
 62
     0
100
AcDbLine
 10
0.0
 20
0.0
 30
0.0
 11
-1.0
 21
0.166667
 31
0.0
  0
LINE
  5
38
100
AcDbEntity
  8
0
  6
CONTINUOUS
 62
     0
100
AcDbLine
 10
0.0
 20
0.0
 30
0.0
 11
-1.0
 21
-0.166667
 31
0.0
  0
ENDBLK
  5
39
100
AcDbEntity
  8
0
100
AcDbBlockEnd
  0
BLOCK
  5
3A
100
AcDbEntity
  8
0
100
AcDbBlockBegin
  2
_EX_BNORM
 70
     0
 10
0.0
 20
0.0
 30
0.0
  3
_EX_BNORM
  1

  0
LINE
  5
3B
100
AcDbEntity
  8
0
  6
CONTINUOUS
 62
     0
100
AcDbLine
 10
0.0
 20
0.0
 30
0.0
 11
-1.0
 21
0.0
 31
0.0
  0
LINE
  5
3C
100
AcDbEntity
  8
0
  6
CONTINUOUS
 62
     0
100
AcDbLine
 10
0.0
 20
0.0
 30
0.0
 11
-1.0
 21
0.166667
 31
0.0
  0
LINE
  5
3D
100
AcDbEntity
  8
0
  6
CONTINUOUS
 62
     0
100
AcDbLine
 10
0.0
 20
0.0
 30
0.0
 11
-1.0
 21
-0.166667
 31
0.0
  0
LINE
  5
3E
100
AcDbEntity
  8
0
  6
CONTINUOUS
 62
     0
100
AcDbLine
 10
0.0
 20
0.0
 30
0.0
 11
-1.0
 21
0.083333
 31
0.0
  0
LINE
  5
3F
100
AcDbEntity
  8
0
  6
CONTINUOUS
 62
     0
100
AcDbLine
 10
0.0
 20
0.0
 30
0.0
 11
-1.0
 21
-0.083333
 31
0.0
  0
LINE
  5
40
100
AcDbEntity
  8
0
  6
CONTINUOUS
 62
     0
100
AcDbLine
 10
-1.0
 20
0.166667
 30
0.0
 11
-1.0
 21
-0.166667
 31
0.0
  0
ENDBLK
  5
41
100
AcDbEntity
  8
0
100
AcDbBlockEnd
  0
BLOCK
  5
42
100
AcDbEntity
  8
0
100
AcDbBlockBegin
  2
_EX_BCIR
 70
     0
 10
0.0
 20
0.0
 30
0.0
  3
_EX_BCIR
  1

  0
LINE
  5
43
100
AcDbEntity
  8
0
  6
CONTINUOUS
 62
     0
100
AcDbLine
 10
0.0
 20
0.0
 30
0.0
 11
-1.0
 21
0.0
 31
0.0
  0
CIRCLE
  5
44
100
AcDbEntity
  8
0
  6
CONTINUOUS
 62
     0
100
AcDbCircle
 10
0.0
 20
0.0
 30
0.0
 40
0.5
  0
CIRCLE
  5
45
100
AcDbEntity
  8
0
  6
CONTINUOUS
 62
     0
100
AcDbCircle
 10
0.0
 20
0.0
 30
0.0
 40
0.25
  0
ENDBLK
  5
46
100
AcDbEntity
  8
0
100
AcDbBlockEnd
  0
BLOCK
  5
47
100
AcDbEntity
  8
0
100
AcDbBlockBegin
  2
_EX_RCIVIL
 70
     0
 10
0.0
 20
0.0
 30
0.0
  3
_EX_RCIVIL
  1

  0
LINE
  5
48
100
AcDbEntity
  8
0
  6
CONTINUOUS
 62
     0
100
AcDbLine
 10
0.0
 20
0.0
 30
0.0
 11
-1.0
 21
0.0
 31
0.0
  0
LINE
  5
49
100
AcDbEntity
  8
0
  6
CONTINUOUS
 62
     0
100
AcDbLine
 10
-1.0
 20
-0.25
 30
0.0
 11
0.0
 21
-0.25
 31
0.0
  0
LINE
  5
4A
100
AcDbEntity
  8
0
  6
CONTINUOUS
 62
     0
100
AcDbLine
 10
-1.0
 20
-0.125
 30
0.0
 11
0.0
 21
-0.125
 31
0.0
  0
ENDBLK
  5
4B
100
AcDbEntity
  8
0
100
AcDbBlockEnd
  0
BLOCK
  5
4C
100
AcDbEntity
  8
0
100
AcDbBlockBegin
  2
_EX_SLANT
 70
     0
 10
0.0
 20
0.0
 30
0.0
  3
_EX_SLANT
  1

  0
LINE
  5
4D
100
AcDbEntity
  8
0
  6
CONTINUOUS
 62
     0
100
AcDbLine
 10
0.0
 20
0.0
 30
0.0
 11
-1.0
 21
0.0
 31
0.0
  0
LINE
  5
4E
100
AcDbEntity
  8
0
  6
CONTINUOUS
 62
     0
100
AcDbLine
 10
0.707107
 20
0.707107
 30
0.0
 11
-0.707107
 21
-0.707107
 31
0.0
  0
ENDBLK
  5
4F
100
AcDbEntity
  8
0
100
AcDbBlockEnd
  0
BLOCK
  5
50
100
AcDbEntity
  8
0
100
AcDbBlockBegin
  2
_EX_NONE
 70
     0
 10
0.0
 20
0.0
 30
0.0
  3
_EX_NONE
  1

  0
LINE
  5
51
100
AcDbEntity
  8
0
  6
CONTINUOUS
 62
     0
100
AcDbLine
 10
0.0
 20
0.0
 30
0.0
 11
-1.0
 21
0.0
 31
0.0
  0
ENDBLK
  5
52
100
AcDbEntity
  8
0
100
AcDbBlockEnd
  0
BLOCK
  5
53
100
AcDbEntity
  8
0
100
AcDbBlockBegin
  2
_EX_CIVIL
 70
     0
 10
0.0
 20
0.0
 30
0.0
  3
_EX_CIVIL
  1

  0
LINE
  5
54
100
AcDbEntity
  8
0
  6
CONTINUOUS
 62
     0
100
AcDbLine
 10
0.0
 20
0.0
 30
0.0
 11
-1.0
 21
0.0
 31
0.0
  0
LINE
  5
55
100
AcDbEntity
  8
0
  6
CONTINUOUS
 62
     0
100
AcDbLine
 10
-1.0
 20
0.25
 30
0.0
 11
0.0
 21
0.25
 31
0.0
  0
LINE
  5
56
100
AcDbEntity
  8
0
  6
CONTINUOUS
 62
     0
100
AcDbLine
 10
-1.0
 20
0.125
 30
0.0
 11
0.0
 21
0.125
 31
0.0
  0
ENDBLK
  5
57
100
AcDbEntity
  8
0
100
AcDbBlockEnd
  0
BLOCK
  5
58
100
AcDbEntity
  8
0
100
AcDbBlockBegin
  2
_EX_WCIR
 70
     0
 10
0.0
 20
0.0
 30
0.0
  3
_EX_WCIR
  1

  0
LINE
  5
59
100
AcDbEntity
  8
0
  6
CONTINUOUS
 62
     0
100
AcDbLine
 10
0.0
 20
0.0
 30
0.0
 11
-1.0
 21
0.0
 31
0.0
  0
CIRCLE
  5
5A
100
AcDbEntity
  8
0
  6
CONTINUOUS
 62
     0
100
AcDbCircle
 10
0.0
 20
0.0
 30
0.0
 40
0.5
  0
ENDBLK
  5
5B
100
AcDbEntity
  8
0
100
AcDbBlockEnd
  0
BLOCK
  5
5C
100
AcDbEntity
  8
0
100
AcDbBlockBegin
  2
_EX_WCIR2
 70
     0
 10
0.0
 20
0.0
 30
0.0
  3
_EX_WCIR2
  1

  0
LINE
  5
5D
100
AcDbEntity
  8
0
  6
CONTINUOUS
 62
     0
100
AcDbLine
 10
-0.5
 20
0.0
 30
0.0
 11
-1.0
 21
0.0
 31
0.0
  0
CIRCLE
  5
5E
100
AcDbEntity
  8
0
  6
CONTINUOUS
 62
     0
100
AcDbCircle
 10
0.0
 20
0.0
 30
0.0
 40
0.5
  0
ENDBLK
  5
5F
100
AcDbEntity
  8
0
100
AcDbBlockEnd
  0
BLOCK
  5
60
100
AcDbEntity
  8
0
100
AcDbBlockBegin
  2
_EX_WNORM
 70
     0
 10
0.0
 20
0.0
 30
0.0
  3
_EX_WNORM
  1

  0
LINE
  5
61
100
AcDbEntity
  8
0
  6
CONTINUOUS
 62
     0
100
AcDbLine
 10
-1.0
 20
0.0
 30
0.0
 11
-1.0
 21
0.0
 31
0.0
  0
LINE
  5
62
100
AcDbEntity
  8
0
  6
CONTINUOUS
 62
     0
100
AcDbLine
 10
0.0
 20
0.0
 30
0.0
 11
-1.0
 21
0.166667
 31
0.0
  0
LINE
  5
63
100
AcDbEntity
  8
0
  6
CONTINUOUS
 62
     0
100
AcDbLine
 10
0.0
 20
0.0
 30
0.0
 11
-1.0
 21
-0.166667
 31
0.0
  0
LINE
  5
64
100
AcDbEntity
  8
0
  6
CONTINUOUS
 62
     0
100
AcDbLine
 10
-1.0
 20
0.166667
 30
0.0
 11
-1.0
 21
-0.166667
 31
0.0
  0
ENDBLK
  5
65
100
AcDbEntity
  8
0
100
AcDbBlockEnd
  0
BLOCK
  5
66
100
AcDbEntity
  8
0
100
AcDbBlockBegin
  2
_EX_NNORM
 70
     0
 10
0.0
 20
0.0
 30
0.0
  3
_EX_NNORM
  1

  0
LINE
  5
67
100
AcDbEntity
  8
0
  6
CONTINUOUS
 62
     0
100
AcDbLine
 10
0.0
 20
0.0
 30
0.0
 11
-1.0
 21
0.0
 31
0.0
  0
LINE
  5
68
100
AcDbEntity
  8
0
  6
CONTINUOUS
 62
     0
100
AcDbLine
 10
0.0
 20
0.0
 30
0.0
 11
-1.0
 21
0.166667
 31
0.0
  0
LINE
  5
69
100
AcDbEntity
  8
0
  6
CONTINUOUS
 62
     0
100
AcDbLine
 10
0.0
 20
0.0
 30
0.0
 11
-1.0
 21
-0.166667
 31
0.0
  0
LINE
  5
6A
100
AcDbEntity
  8
0
  6
CONTINUOUS
 62
     0
100
AcDbLine
 10
-1.0
 20
0.166667
 30
0.0
 11
-1.0
 21
-0.166667
 31
0.0
  0
ENDBLK
  5
6B
100
AcDbEntity
  8
0
100
AcDbBlockEnd
  0
BLOCK
  5
6C
100
AcDbEntity
  8
0
100
AcDbBlockBegin
  2
_EX_BBOX
 70
     0
 10
0.0
 20
0.0
 30
0.0
  3
_EX_BBOX
  1

  0
LINE
  5
6D
100
AcDbEntity
  8
0
  6
CONTINUOUS
 62
     0
100
AcDbLine
 10
0.0
 20
0.0
 30
0.0
 11
-1.0
 21
0.0
 31
0.0
  0
LINE
  5
6E
100
AcDbEntity
  8
0
  6
CONTINUOUS
 62
     0
100
AcDbLine
 10
-0.5
 20
0.5
 30
0.0
 11
0.5
 21
0.5
 31
0.0
  0
LINE
  5
6F
100
AcDbEntity
  8
0
  6
CONTINUOUS
 62
     0
100
AcDbLine
 10
0.5
 20
0.5
 30
0.0
 11
0.5
 21
-0.5
 31
0.0
  0
LINE
  5
70
100
AcDbEntity
  8
0
  6
CONTINUOUS
 62
     0
100
AcDbLine
 10
0.5
 20
-0.5
 30
0.0
 11
-0.5
 21
-0.5
 31
0.0
  0
LINE
  5
71
100
AcDbEntity
  8
0
  6
CONTINUOUS
 62
     0
100
AcDbLine
 10
-0.5
 20
-0.5
 30
0.0
 11
-0.5
 21
0.5
 31
0.0
  0
LINE
  5
72
100
AcDbEntity
  8
0
  6
CONTINUOUS
 62
     0
100
AcDbLine
 10
-0.25
 20
0.25
 30
0.0
 11
0.25
 21
0.25
 31
0.0
  0
LINE
  5
73
100
AcDbEntity
  8
0
  6
CONTINUOUS
 62
     0
100
AcDbLine
 10
0.25
 20
0.25
 30
0.0
 11
0.25
 21
-0.25
 31
0.0
  0
LINE
  5
74
100
AcDbEntity
  8
0
  6
CONTINUOUS
 62
     0
100
AcDbLine
 10
0.25
 20
-0.25
 30
0.0
 11
-0.25
 21
-0.25
 31
0.0
  0
LINE
  5
75
100
AcDbEntity
  8
0
  6
CONTINUOUS
 62
     0
100
AcDbLine
 10
-0.25
 20
-0.25
 30
0.0
 11
-0.25
 21
0.25
 31
0.0
  0
ENDBLK
  5
76
100
AcDbEntity
  8
0
100
AcDbBlockEnd
  0
BLOCK
  5
77
100
AcDbEntity
  8
0
100
AcDbBlockBegin
  2
_EX_WBOX
 70
     0
 10
0.0
 20
0.0
 30
0.0
  3
_EX_WBOX
  1

  0
LINE
  5
78
100
AcDbEntity
  8
0
  6
CONTINUOUS
 62
     0
100
AcDbLine
 10
-0.5
 20
0.0
 30
0.0
 11
-1.0
 21
0.0
 31
0.0
  0
LINE
  5
79
100
AcDbEntity
  8
0
  6
CONTINUOUS
 62
     0
100
AcDbLine
 10
-0.5
 20
0.5
 30
0.0
 11
0.5
 21
0.5
 31
0.0
  0
LINE
  5
7A
100
AcDbEntity
  8
0
  6
CONTINUOUS
 62
     0
100
AcDbLine
 10
0.5
 20
0.5
 30
0.0
 11
0.5
 21
-0.5
 31
0.0
  0
LINE
  5
7B
100
AcDbEntity
  8
0
  6
CONTINUOUS
 62
     0
100
AcDbLine
 10
0.5
 20
-0.5
 30
0.0
 11
-0.5
 21
-0.5
 31
0.0
  0
LINE
  5
7C
100
AcDbEntity
  8
0
  6
CONTINUOUS
 62
     0
100
AcDbLine
 10
-0.5
 20
-0.5
 30
0.0
 11
-0.5
 21
0.5
 31
0.0
  0
ENDBLK
  5
7D
100
AcDbEntity
  8
0
100
AcDbBlockEnd
  0
BLOCK
  5
7E
100
AcDbEntity
  8
0
100
AcDbBlockBegin
  2
_EX_INTEGRAL
 70
     0
 10
0.0
 20
0.0
 30
0.0
  3
_EX_INTEGRAL
  1

  0
LINE
  5
7F
100
AcDbEntity
  8
0
  6
CONTINUOUS
 62
     0
100
AcDbLine
 10
0.0
 20
0.0
 30
0.0
 11
-1.0
 21
0.0
 31
0.0
  0
ARC
  5
80
100
AcDbEntity
  8
0
  6
CONTINUOUS
 62
     0
100
AcDbCircle
 10
0.0
 20
0.0
 30
0.0
 40
0.707107
100
AcDbArc
 50
90.0
 51
180.0
  0
ARC
  5
81
100
AcDbEntity
  8
0
  6
CONTINUOUS
 62
     0
100
AcDbCircle
 10
0.0
 20
0.0
 30
0.0
 40
0.707107
100
AcDbArc
 50
270.0
 51
0.0
  0
ENDBLK
  5
82
100
AcDbEntity
  8
0
100
AcDbBlockEnd
  0
ENDSEC
  0
SECTION
  2
ENTITIES
  0
LINE
  5
83
100
AcDbEntity
  8
LAY-2
  6
CONTINUOUS
 62
     2
100
AcDbLine
 10
95.986708
 20
198.828
 30
0.0
 11
97.439292
 21
198.828
 31
0.0
  0
LINE
  5
84
100
AcDbEntity
  8
LAY-2
  6
CONTINUOUS
 62
     2
100
AcDbLine
 10
94.95516
 20
198.578
 30
0.0
 11
98.47084
 21
198.578
 31
0.0
  0
LINE
  5
85
100
AcDbEntity
  8
LAY-2
  6
CONTINUOUS
 62
     2
100
AcDbLine
 10
94.361936
 20
198.328
 30
0.0
 11
99.064064
 21
198.328
 31
0.0
  0
LINE
  5
86
100
AcDbEntity
  8
LAY-2
  6
CONTINUOUS
 62
     2
100
AcDbLine
 10
93.913
 20
198.078
 30
0.0
 11
99.513
 21
198.078
 31
0.0
  0
LINE
  5
87
100
AcDbEntity
  8
LAY-2
  6
CONTINUOUS
 62
     2
100
AcDbLine
 10
93.546377
 20
197.828
 30
0.0
 11
99.879623
 21
197.828
 31
0.0
  0
LINE
  5
88
100
AcDbEntity
  8
LAY-2
  6
CONTINUOUS
 62
     2
100
AcDbLine
 10
93.235932
 20
197.578
 30
0.0
 11
100.190068
 21
197.578
 31
0.0
  0
LINE
  5
89
100
AcDbEntity
  8
LAY-2
  6
CONTINUOUS
 62
     2
100
AcDbLine
 10
84.213
 20
197.328
 30
0.0
 11
92.268757
 21
197.328
 31
0.0
  0
LINE
  5
8A
100
AcDbEntity
  8
LAY-2
  6
CONTINUOUS
 62
     2
100
AcDbLine
 10
92.96767
 20
197.328
 30
0.0
 11
100.45833
 21
197.328
 31
0.0
  0
LINE
  5
8B
100
AcDbEntity
  8
LAY-2
  6
CONTINUOUS
 62
     2
100
AcDbLine
 10
101.157243
 20
197.328
 30
0.0
 11
107.213
 21
197.328
 31
0.0
  0
LINE
  5
8C
100
AcDbEntity
  8
LAY-2
  6
CONTINUOUS
 62
     2
100
AcDbLine
 10
108.063
 20
197.328
 30
0.0
 11
114.763
 21
197.328
 31
0.0
  0
LINE
  5
8D
100
AcDbEntity
  8
LAY-2
  6
CONTINUOUS
 62
     2
100
AcDbLine
 10
115.513
 20
197.328
 30
0.0
 11
117.213
 21
197.328
 31
0.0
  0
LINE
  5
8E
100
AcDbEntity
  8
LAY-2
  6
CONTINUOUS
 62
     2
100
AcDbLine
 10
120.713
 20
197.328
 30
0.0
 11
122.413
 21
197.328
 31
0.0
  0
LINE
  5
8F
100
AcDbEntity
  8
LAY-2
  6
CONTINUOUS
 62
     2
100
AcDbLine
 10
84.213
 20
197.078
 30
0.0
 11
92.069316
 21
197.078
 31
0.0
  0
LINE
  5
90
100
AcDbEntity
  8
LAY-2
  6
CONTINUOUS
 62
     2
100
AcDbLine
 10
92.73305
 20
197.078
 30
0.0
 11
100.69295
 21
197.078
 31
0.0
  0
LINE
  5
91
100
AcDbEntity
  8
LAY-2
  6
CONTINUOUS
 62
     2
100
AcDbLine
 10
101.356684
 20
197.078
 30
0.0
 11
107.213
 21
197.078
 31
0.0
  0
LINE
  5
92
100
AcDbEntity
  8
LAY-2
  6
CONTINUOUS
 62
     2
100
AcDbLine
 10
108.063
 20
197.078
 30
0.0
 11
114.763
 21
197.078
 31
0.0
  0
LINE
  5
93
100
AcDbEntity
  8
LAY-2
  6
CONTINUOUS
 62
     2
100
AcDbLine
 10
115.513
 20
197.078
 30
0.0
 11
117.377522
 21
197.078
 31
0.0
  0
LINE
  5
94
100
AcDbEntity
  8
LAY-2
  6
CONTINUOUS
 62
     2
100
AcDbLine
 10
120.713
 20
197.078
 30
0.0
 11
122.413
 21
197.078
 31
0.0
  0
LINE
  5
95
100
AcDbEntity
  8
LAY-2
  6
CONTINUOUS
 62
     2
100
AcDbLine
 10
84.213
 20
196.828
 30
0.0
 11
91.89104
 21
196.828
 31
0.0
  0
LINE
  5
96
100
AcDbEntity
  8
LAY-2
  6
CONTINUOUS
 62
     2
100
AcDbLine
 10
92.526414
 20
196.828
 30
0.0
 11
95.413962
 21
196.828
 31
0.0
  0
LINE
  5
97
100
AcDbEntity
  8
LAY-2
  6
CONTINUOUS
 62
     2
100
AcDbLine
 10
98.012038
 20
196.828
 30
0.0
 11
100.899586
 21
196.828
 31
0.0
  0
LINE
  5
98
100
AcDbEntity
  8
LAY-2
  6
CONTINUOUS
 62
     2
100
AcDbLine
 10
101.53496
 20
196.828
 30
0.0
 11
107.213
 21
196.828
 31
0.0
  0
LINE
  5
99
100
AcDbEntity
  8
LAY-2
  6
CONTINUOUS
 62
     2
100
AcDbLine
 10
108.063
 20
196.828
 30
0.0
 11
114.763
 21
196.828
 31
0.0
  0
LINE
  5
9A
100
AcDbEntity
  8
LAY-2
  6
CONTINUOUS
 62
     2
100
AcDbLine
 10
115.513
 20
196.828
 30
0.0
 11
117.542044
 21
196.828
 31
0.0
  0
LINE
  5
9B
100
AcDbEntity
  8
LAY-2
  6
CONTINUOUS
 62
     2
100
AcDbLine
 10
120.713
 20
196.828
 30
0.0
 11
122.413
 21
196.828
 31
0.0
  0
LINE
  5
9C
100
AcDbEntity
  8
LAY-2
  6
CONTINUOUS
 62
     2
100
AcDbLine
 10
84.213
 20
196.578
 30
0.0
 11
91.731655
 21
196.578
 31
0.0
  0
LINE
  5
9D
100
AcDbEntity
  8
LAY-2
  6
CONTINUOUS
 62
     2
100
AcDbLine
 10
92.34379
 20
196.578
 30
0.0
 11
94.910224
 21
196.578
 31
0.0
  0
LINE
  5
9E
100
AcDbEntity
  8
LAY-2
  6
CONTINUOUS
 62
     2
100
AcDbLine
 10
98.515776
 20
196.578
 30
0.0
 11
101.08221
 21
196.578
 31
0.0
  0
LINE
  5
9F
100
AcDbEntity
  8
LAY-2
  6
CONTINUOUS
 62
     2
100
AcDbLine
 10
101.694345
 20
196.578
 30
0.0
 11
107.213
 21
196.578
 31
0.0
  0
LINE
  5
A0
100
AcDbEntity
  8
LAY-2
  6
CONTINUOUS
 62
     2
100
AcDbLine
 10
108.063
 20
196.578
 30
0.0
 11
114.763
 21
196.578
 31
0.0
  0
LINE
  5
A1
100
AcDbEntity
  8
LAY-2
  6
CONTINUOUS
 62
     2
100
AcDbLine
 10
115.513
 20
196.578
 30
0.0
 11
117.706566
 21
196.578
 31
0.0
  0
LINE
  5
A2
100
AcDbEntity
  8
LAY-2
  6
CONTINUOUS
 62
     2
100
AcDbLine
 10
120.713
 20
196.578
 30
0.0
 11
122.413
 21
196.578
 31
0.0
  0
LINE
  5
A3
100
AcDbEntity
  8
LAY-2
  6
CONTINUOUS
 62
     2
100
AcDbLine
 10
84.213
 20
196.328
 30
0.0
 11
91.589398
 21
196.328
 31
0.0
  0
LINE
  5
A4
100
AcDbEntity
  8
LAY-2
  6
CONTINUOUS
 62
     2
100
AcDbLine
 10
92.182272
 20
196.328
 30
0.0
 11
94.547936
 21
196.328
 31
0.0
  0
LINE
  5
A5
100
AcDbEntity
  8
LAY-2
  6
CONTINUOUS
 62
     2
100
AcDbLine
 10
98.878064
 20
196.328
 30
0.0
 11
101.243728
 21
196.328
 31
0.0
  0
LINE
  5
A6
100
AcDbEntity
  8
LAY-2
  6
CONTINUOUS
 62
     2
100
AcDbLine
 10
101.836602
 20
196.328
 30
0.0
 11
107.213
 21
196.328
 31
0.0
  0
LINE
  5
A7
100
AcDbEntity
  8
LAY-2
  6
CONTINUOUS
 62
     2
100
AcDbLine
 10
108.063
 20
196.328
 30
0.0
 11
114.763
 21
196.328
 31
0.0
  0
LINE
  5
A8
100
AcDbEntity
  8
LAY-2
  6
CONTINUOUS
 62
     2
100
AcDbLine
 10
115.513
 20
196.328
 30
0.0
 11
117.871088
 21
196.328
 31
0.0
  0
LINE
  5
A9
100
AcDbEntity
  8
LAY-2
  6
CONTINUOUS
 62
     2
100
AcDbLine
 10
120.713
 20
196.328
 30
0.0
 11
122.413
 21
196.328
 31
0.0
  0
LINE
  5
AA
100
AcDbEntity
  8
LAY-2
  6
CONTINUOUS
 62
     2
100
AcDbLine
 10
84.213
 20
196.078
 30
0.0
 11
91.462876
 21
196.078
 31
0.0
  0
LINE
  5
AB
100
AcDbEntity
  8
LAY-2
  6
CONTINUOUS
 62
     2
100
AcDbLine
 10
92.039671
 20
196.078
 30
0.0
 11
94.26351
 21
196.078
 31
0.0
  0
LINE
  5
AC
100
AcDbEntity
  8
LAY-2
  6
CONTINUOUS
 62
     2
100
AcDbLine
 10
95.83408
 20
196.078
 30
0.0
 11
97.59192
 21
196.078
 31
0.0
  0
LINE
  5
AD
100
AcDbEntity
  8
LAY-2
  6
CONTINUOUS
 62
     2
100
AcDbLine
 10
99.16249
 20
196.078
 30
0.0
 11
101.386329
 21
196.078
 31
0.0
  0
LINE
  5
AE
100
AcDbEntity
  8
LAY-2
  6
CONTINUOUS
 62
     2
100
AcDbLine
 10
101.963124
 20
196.078
 30
0.0
 11
107.213
 21
196.078
 31
0.0
  0
LINE
  5
AF
100
AcDbEntity
  8
LAY-2
  6
CONTINUOUS
 62
     2
100
AcDbLine
 10
108.063
 20
196.078
 30
0.0
 11
114.763
 21
196.078
 31
0.0
  0
LINE
  5
B0
100
AcDbEntity
  8
LAY-2
  6
CONTINUOUS
 62
     2
100
AcDbLine
 10
115.513
 20
196.078
 30
0.0
 11
118.03561
 21
196.078
 31
0.0
  0
LINE
  5
B1
100
AcDbEntity
  8
LAY-2
  6
CONTINUOUS
 62
     2
100
AcDbLine
 10
120.713
 20
196.078
 30
0.0
 11
122.413
 21
196.078
 31
0.0
  0
LINE
  5
B2
100
AcDbEntity
  8
LAY-2
  6
CONTINUOUS
 62
     2
100
AcDbLine
 10
84.213
 20
195.828
 30
0.0
 11
91.350976
 21
195.828
 31
0.0
  0
LINE
  5
B3
100
AcDbEntity
  8
LAY-2
  6
CONTINUOUS
 62
     2
100
AcDbLine
 10
91.914302
 20
195.828
 30
0.0
 11
94.032049
 21
195.828
 31
0.0
  0
LINE
  5
B4
100
AcDbEntity
  8
LAY-2
  6
CONTINUOUS
 62
     2
100
AcDbLine
 10
95.313
 20
195.828
 30
0.0
 11
98.113
 21
195.828
 31
0.0
  0
LINE
  5
B5
100
AcDbEntity
  8
LAY-2
  6
CONTINUOUS
 62
     2
100
AcDbLine
 10
99.393951
 20
195.828
 30
0.0
 11
101.511698
 21
195.828
 31
0.0
  0
LINE
  5
B6
100
AcDbEntity
  8
LAY-2
  6
CONTINUOUS
 62
     2
100
AcDbLine
 10
102.075024
 20
195.828
 30
0.0
 11
107.213
 21
195.828
 31
0.0
  0
LINE
  5
B7
100
AcDbEntity
  8
LAY-2
  6
CONTINUOUS
 62
     2
100
AcDbLine
 10
108.063
 20
195.828
 30
0.0
 11
114.763
 21
195.828
 31
0.0
  0
LINE
  5
B8
100
AcDbEntity
  8
LAY-2
  6
CONTINUOUS
 62
     2
100
AcDbLine
 10
115.513
 20
195.828
 30
0.0
 11
118.200132
 21
195.828
 31
0.0
  0
LINE
  5
B9
100
AcDbEntity
  8
LAY-2
  6
CONTINUOUS
 62
     2
100
AcDbLine
 10
120.713
 20
195.828
 30
0.0
 11
122.413
 21
195.828
 31
0.0
  0
LINE
  5
BA
100
AcDbEntity
  8
LAY-2
  6
CONTINUOUS
 62
     2
100
AcDbLine
 10
87.713
 20
195.578
 30
0.0
 11
89.463
 21
195.578
 31
0.0
  0
LINE
  5
BB
100
AcDbEntity
  8
LAY-2
  6
CONTINUOUS
 62
     2
100
AcDbLine
 10
91.804844
 20
195.578
 30
0.0
 11
93.840719
 21
195.578
 31
0.0
  0
LINE
  5
BC
100
AcDbEntity
  8
LAY-2
  6
CONTINUOUS
 62
     2
100
AcDbLine
 10
94.974466
 20
195.578
 30
0.0
 11
98.451534
 21
195.578
 31
0.0
  0
LINE
  5
BD
100
AcDbEntity
  8
LAY-2
  6
CONTINUOUS
 62
     2
100
AcDbLine
 10
99.585281
 20
195.578
 30
0.0
 11
101.621156
 21
195.578
 31
0.0
  0
LINE
  5
BE
100
AcDbEntity
  8
LAY-2
  6
CONTINUOUS
 62
     2
100
AcDbLine
 10
105.28452
 20
195.578
 30
0.0
 11
107.213
 21
195.578
 31
0.0
  0
LINE
  5
BF
100
AcDbEntity
  8
LAY-2
  6
CONTINUOUS
 62
     2
100
AcDbLine
 10
108.063
 20
195.578
 30
0.0
 11
109.813
 21
195.578
 31
0.0
  0
LINE
  5
C0
100
AcDbEntity
  8
LAY-2
  6
CONTINUOUS
 62
     2
100
AcDbLine
 10
115.513
 20
195.578
 30
0.0
 11
118.364654
 21
195.578
 31
0.0
  0
LINE
  5
C1
100
AcDbEntity
  8
LAY-2
  6
CONTINUOUS
 62
     2
100
AcDbLine
 10
120.713
 20
195.578
 30
0.0
 11
122.413
 21
195.578
 31
0.0
  0
LINE
  5
C2
100
AcDbEntity
  8
LAY-2
  6
CONTINUOUS
 62
     2
100
AcDbLine
 10
87.713
 20
195.328
 30
0.0
 11
89.463
 21
195.328
 31
0.0
  0
LINE
  5
C3
100
AcDbEntity
  8
LAY-2
  6
CONTINUOUS
 62
     2
100
AcDbLine
 10
91.710251
 20
195.328
 30
0.0
 11
93.681911
 21
195.328
 31
0.0
  0
LINE
  5
C4
100
AcDbEntity
  8
LAY-2
  6
CONTINUOUS
 62
     2
100
AcDbLine
 10
94.723025
 20
195.328
 30
0.0
 11
98.702975
 21
195.328
 31
0.0
  0
LINE
  5
C5
100
AcDbEntity
  8
LAY-2
  6
CONTINUOUS
 62
     2
100
AcDbLine
 10
99.744089
 20
195.328
 30
0.0
 11
101.715749
 21
195.328
 31
0.0
  0
LINE
  5
C6
100
AcDbEntity
  8
LAY-2
  6
CONTINUOUS
 62
     2
100
AcDbLine
 10
105.059146
 20
195.328
 30
0.0
 11
106.987625
 21
195.328
 31
0.0
  0
LINE
  5
C7
100
AcDbEntity
  8
LAY-2
  6
CONTINUOUS
 62
     2
100
AcDbLine
 10
108.063
 20
195.328
 30
0.0
 11
109.813
 21
195.328
 31
0.0
  0
LINE
  5
C8
100
AcDbEntity
  8
LAY-2
  6
CONTINUOUS
 62
     2
100
AcDbLine
 10
115.513
 20
195.328
 30
0.0
 11
118.529176
 21
195.328
 31
0.0
  0
LINE
  5
C9
100
AcDbEntity
  8
LAY-2
  6
CONTINUOUS
 62
     2
100
AcDbLine
 10
120.713
 20
195.328
 30
0.0
 11
122.413
 21
195.328
 31
0.0
  0
LINE
  5
CA
100
AcDbEntity
  8
LAY-2
  6
CONTINUOUS
 62
     2
100
AcDbLine
 10
87.713
 20
195.078
 30
0.0
 11
89.463
 21
195.078
 31
0.0
  0
LINE
  5
CB
100
AcDbEntity
  8
LAY-2
  6
CONTINUOUS
 62
     2
100
AcDbLine
 10
91.629694
 20
195.078
 30
0.0
 11
93.550722
 21
195.078
 31
0.0
  0
LINE
  5
CC
100
AcDbEntity
  8
LAY-2
  6
CONTINUOUS
 62
     2
100
AcDbLine
 10
94.528395
 20
195.078
 30
0.0
 11
98.897605
 21
195.078
 31
0.0
  0
LINE
  5
CD
100
AcDbEntity
  8
LAY-2
  6
CONTINUOUS
 62
     2
100
AcDbLine
 10
99.875278
 20
195.078
 30
0.0
 11
101.796306
 21
195.078
 31
0.0
  0
LINE
  5
CE
100
AcDbEntity
  8
LAY-2
  6
CONTINUOUS
 62
     2
100
AcDbLine
 10
104.833771
 20
195.078
 30
0.0
 11
106.762251
 21
195.078
 31
0.0
  0
LINE
  5
CF
100
AcDbEntity
  8
LAY-2
  6
CONTINUOUS
 62
     2
100
AcDbLine
 10
108.063
 20
195.078
 30
0.0
 11
109.813
 21
195.078
 31
0.0
  0
LINE
  5
D0
100
AcDbEntity
  8
LAY-2
  6
CONTINUOUS
 62
     2
100
AcDbLine
 10
115.513
 20
195.078
 30
0.0
 11
117.213
 21
195.078
 31
0.0
  0
LINE
  5
D1
100
AcDbEntity
  8
LAY-2
  6
CONTINUOUS
 62
     2
100
AcDbLine
 10
117.258037
 20
195.078
 30
0.0
 11
118.693699
 21
195.078
 31
0.0
  0
LINE
  5
D2
100
AcDbEntity
  8
LAY-2
  6
CONTINUOUS
 62
     2
100
AcDbLine
 10
120.713
 20
195.078
 30
0.0
 11
122.413
 21
195.078
 31
0.0
  0
LINE
  5
D3
100
AcDbEntity
  8
LAY-2
  6
CONTINUOUS
 62
     2
100
AcDbLine
 10
87.713
 20
194.828
 30
0.0
 11
89.463
 21
194.828
 31
0.0
  0
LINE
  5
D4
100
AcDbEntity
  8
LAY-2
  6
CONTINUOUS
 62
     2
100
AcDbLine
 10
91.562515
 20
194.828
 30
0.0
 11
93.443826
 21
194.828
 31
0.0
  0
LINE
  5
D5
100
AcDbEntity
  8
LAY-2
  6
CONTINUOUS
 62
     2
100
AcDbLine
 10
94.376336
 20
194.828
 30
0.0
 11
99.049664
 21
194.828
 31
0.0
  0
LINE
  5
D6
100
AcDbEntity
  8
LAY-2
  6
CONTINUOUS
 62
     2
100
AcDbLine
 10
99.982174
 20
194.828
 30
0.0
 11
101.863485
 21
194.828
 31
0.0
  0
LINE
  5
D7
100
AcDbEntity
  8
LAY-2
  6
CONTINUOUS
 62
     2
100
AcDbLine
 10
104.608396
 20
194.828
 30
0.0
 11
106.536876
 21
194.828
 31
0.0
  0
LINE
  5
D8
100
AcDbEntity
  8
LAY-2
  6
CONTINUOUS
 62
     2
100
AcDbLine
 10
108.063
 20
194.828
 30
0.0
 11
109.813
 21
194.828
 31
0.0
  0
LINE
  5
D9
100
AcDbEntity
  8
LAY-2
  6
CONTINUOUS
 62
     2
100
AcDbLine
 10
115.513
 20
194.828
 30
0.0
 11
117.213
 21
194.828
 31
0.0
  0
LINE
  5
DA
100
AcDbEntity
  8
LAY-2
  6
CONTINUOUS
 62
     2
100
AcDbLine
 10
117.422559
 20
194.828
 30
0.0
 11
118.858221
 21
194.828
 31
0.0
  0
LINE
  5
DB
100
AcDbEntity
  8
LAY-2
  6
CONTINUOUS
 62
     2
100
AcDbLine
 10
120.713
 20
194.828
 30
0.0
 11
122.413
 21
194.828
 31
0.0
  0
LINE
  5
DC
100
AcDbEntity
  8
LAY-2
  6
CONTINUOUS
 62
     2
100
AcDbLine
 10
87.713
 20
194.578
 30
0.0
 11
89.463
 21
194.578
 31
0.0
  0
LINE
  5
DD
100
AcDbEntity
  8
LAY-2
  6
CONTINUOUS
 62
     2
100
AcDbLine
 10
91.508195
 20
194.578
 30
0.0
 11
93.358898
 21
194.578
 31
0.0
  0
LINE
  5
DE
100
AcDbEntity
  8
LAY-2
  6
CONTINUOUS
 62
     2
100
AcDbLine
 10
94.258922
 20
194.578
 30
0.0
 11
99.167078
 21
194.578
 31
0.0
  0
LINE
  5
DF
100
AcDbEntity
  8
LAY-2
  6
CONTINUOUS
 62
     2
100
AcDbLine
 10
100.067102
 20
194.578
 30
0.0
 11
101.917805
 21
194.578
 31
0.0
  0
LINE
  5
E0
100
AcDbEntity
  8
LAY-2
  6
CONTINUOUS
 62
     2
100
AcDbLine
 10
104.383021
 20
194.578
 30
0.0
 11
106.311501
 21
194.578
 31
0.0
  0
LINE
  5
E1
100
AcDbEntity
  8
LAY-2
  6
CONTINUOUS
 62
     2
100
AcDbLine
 10
108.063
 20
194.578
 30
0.0
 11
109.813
 21
194.578
 31
0.0
  0
LINE
  5
E2
100
AcDbEntity
  8
LAY-2
  6
CONTINUOUS
 62
     2
100
AcDbLine
 10
115.513
 20
194.578
 30
0.0
 11
117.213
 21
194.578
 31
0.0
  0
LINE
  5
E3
100
AcDbEntity
  8
LAY-2
  6
CONTINUOUS
 62
     2
100
AcDbLine
 10
117.587081
 20
194.578
 30
0.0
 11
119.022743
 21
194.578
 31
0.0
  0
LINE
  5
E4
100
AcDbEntity
  8
LAY-2
  6
CONTINUOUS
 62
     2
100
AcDbLine
 10
120.713
 20
194.578
 30
0.0
 11
122.413
 21
194.578
 31
0.0
  0
LINE
  5
E5
100
AcDbEntity
  8
LAY-2
  6
CONTINUOUS
 62
     2
100
AcDbLine
 10
87.713
 20
194.328
 30
0.0
 11
89.463
 21
194.328
 31
0.0
  0
LINE
  5
E6
100
AcDbEntity
  8
LAY-2
  6
CONTINUOUS
 62
     2
100
AcDbLine
 10
91.466334
 20
194.328
 30
0.0
 11
93.294301
 21
194.328
 31
0.0
  0
LINE
  5
E7
100
AcDbEntity
  8
LAY-2
  6
CONTINUOUS
 62
     2
100
AcDbLine
 10
94.171347
 20
194.328
 30
0.0
 11
99.254653
 21
194.328
 31
0.0
  0
LINE
  5
E8
100
AcDbEntity
  8
LAY-2
  6
CONTINUOUS
 62
     2
100
AcDbLine
 10
100.131699
 20
194.328
 30
0.0
 11
101.959666
 21
194.328
 31
0.0
  0
LINE
  5
E9
100
AcDbEntity
  8
LAY-2
  6
CONTINUOUS
 62
     2
100
AcDbLine
 10
104.157647
 20
194.328
 30
0.0
 11
106.086126
 21
194.328
 31
0.0
  0
LINE
  5
EA
100
AcDbEntity
  8
LAY-2
  6
CONTINUOUS
 62
     2
100
AcDbLine
 10
108.063
 20
194.328
 30
0.0
 11
114.763
 21
194.328
 31
0.0
  0
LINE
  5
EB
100
AcDbEntity
  8
LAY-2
  6
CONTINUOUS
 62
     2
100
AcDbLine
 10
115.513
 20
194.328
 30
0.0
 11
117.213
 21
194.328
 31
0.0
  0
LINE
  5
EC
100
AcDbEntity
  8
LAY-2
  6
CONTINUOUS
 62
     2
100
AcDbLine
 10
117.751603
 20
194.328
 30
0.0
 11
119.187265
 21
194.328
 31
0.0
  0
LINE
  5
ED
100
AcDbEntity
  8
LAY-2
  6
CONTINUOUS
 62
     2
100
AcDbLine
 10
120.713
 20
194.328
 30
0.0
 11
122.413
 21
194.328
 31
0.0
  0
LINE
  5
EE
100
AcDbEntity
  8
LAY-2
  6
CONTINUOUS
 62
     2
100
AcDbLine
 10
87.713
 20
194.078
 30
0.0
 11
89.463
 21
194.078
 31
0.0
  0
LINE
  5
EF
100
AcDbEntity
  8
LAY-2
  6
CONTINUOUS
 62
     2
100
AcDbLine
 10
91.436638
 20
194.078
 30
0.0
 11
93.248898
 21
194.078
 31
0.0
  0
LINE
  5
F0
100
AcDbEntity
  8
LAY-2
  6
CONTINUOUS
 62
     2
100
AcDbLine
 10
94.110597
 20
194.078
 30
0.0
 11
99.315403
 21
194.078
 31
0.0
  0
LINE
  5
F1
100
AcDbEntity
  8
LAY-2
  6
CONTINUOUS
 62
     2
100
AcDbLine
 10
100.177102
 20
194.078
 30
0.0
 11
101.989362
 21
194.078
 31
0.0
  0
LINE
  5
F2
100
AcDbEntity
  8
LAY-2
  6
CONTINUOUS
 62
     2
100
AcDbLine
 10
103.932272
 20
194.078
 30
0.0
 11
105.860752
 21
194.078
 31
0.0
  0
LINE
  5
F3
100
AcDbEntity
  8
LAY-2
  6
CONTINUOUS
 62
     2
100
AcDbLine
 10
108.063
 20
194.078
 30
0.0
 11
114.763
 21
194.078
 31
0.0
  0
LINE
  5
F4
100
AcDbEntity
  8
LAY-2
  6
CONTINUOUS
 62
     2
100
AcDbLine
 10
115.513
 20
194.078
 30
0.0
 11
117.213
 21
194.078
 31
0.0
  0
LINE
  5
F5
100
AcDbEntity
  8
LAY-2
  6
CONTINUOUS
 62
     2
100
AcDbLine
 10
117.916125
 20
194.078
 30
0.0
 11
119.351787
 21
194.078
 31
0.0
  0
LINE
  5
F6
100
AcDbEntity
  8
LAY-2
  6
CONTINUOUS
 62
     2
100
AcDbLine
 10
120.713
 20
194.078
 30
0.0
 11
122.413
 21
194.078
 31
0.0
  0
LINE
  5
F7
100
AcDbEntity
  8
LAY-2
  6
CONTINUOUS
 62
     2
100
AcDbLine
 10
87.713
 20
193.828
 30
0.0
 11
89.463
 21
193.828
 31
0.0
  0
LINE
  5
F8
100
AcDbEntity
  8
LAY-2
  6
CONTINUOUS
 62
     2
100
AcDbLine
 10
91.4189
 20
193.828
 30
0.0
 11
93.22194
 21
193.828
 31
0.0
  0
LINE
  5
F9
100
AcDbEntity
  8
LAY-2
  6
CONTINUOUS
 62
     2
100
AcDbLine
 10
94.074819
 20
193.828
 30
0.0
 11
99.351181
 21
193.828
 31
0.0
  0
LINE
  5
FA
100
AcDbEntity
  8
LAY-2
  6
CONTINUOUS
 62
     2
100
AcDbLine
 10
100.20406
 20
193.828
 30
0.0
 11
102.0071
 21
193.828
 31
0.0
  0
LINE
  5
FB
100
AcDbEntity
  8
LAY-2
  6
CONTINUOUS
 62
     2
100
AcDbLine
 10
103.706897
 20
193.828
 30
0.0
 11
105.635377
 21
193.828
 31
0.0
  0
LINE
  5
FC
100
AcDbEntity
  8
LAY-2
  6
CONTINUOUS
 62
     2
100
AcDbLine
 10
108.063
 20
193.828
 30
0.0
 11
114.763
 21
193.828
 31
0.0
  0
LINE
  5
FD
100
AcDbEntity
  8
LAY-2
  6
CONTINUOUS
 62
     2
100
AcDbLine
 10
115.513
 20
193.828
 30
0.0
 11
117.213
 21
193.828
 31
0.0
  0
LINE
  5
FE
100
AcDbEntity
  8
LAY-2
  6
CONTINUOUS
 62
     2
100
AcDbLine
 10
118.080647
 20
193.828
 30
0.0
 11
119.516309
 21
193.828
 31
0.0
  0
LINE
  5
FF
100
AcDbEntity
  8
LAY-2
  6
CONTINUOUS
 62
     2
100
AcDbLine
 10
120.713
 20
193.828
 30
0.0
 11
122.413
 21
193.828
 31
0.0
  0
LINE
  5
100
100
AcDbEntity
  8
LAY-2
  6
CONTINUOUS
 62
     2
100
AcDbLine
 10
87.713
 20
193.578
 30
0.0
 11
89.463
 21
193.578
 31
0.0
  0
LINE
  5
101
100
AcDbEntity
  8
LAY-2
  6
CONTINUOUS
 62
     2
100
AcDbLine
 10
91.413
 20
193.578
 30
0.0
 11
93.213
 21
193.578
 31
0.0
  0
LINE
  5
102
100
AcDbEntity
  8
LAY-2
  6
CONTINUOUS
 62
     2
100
AcDbLine
 10
94.063
 20
193.578
 30
0.0
 11
99.363
 21
193.578
 31
0.0
  0
LINE
  5
103
100
AcDbEntity
  8
LAY-2
  6
CONTINUOUS
 62
     2
100
AcDbLine
 10
100.213
 20
193.578
 30
0.0
 11
102.013
 21
193.578
 31
0.0
  0
LINE
  5
104
100
AcDbEntity
  8
LAY-2
  6
CONTINUOUS
 62
     2
100
AcDbLine
 10
103.481522
 20
193.578
 30
0.0
 11
105.410002
 21
193.578
 31
0.0
  0
LINE
  5
105
100
AcDbEntity
  8
LAY-2
  6
CONTINUOUS
 62
     2
100
AcDbLine
 10
108.063
 20
193.578
 30
0.0
 11
114.763
 21
193.578
 31
0.0
  0
LINE
  5
106
100
AcDbEntity
  8
LAY-2
  6
CONTINUOUS
 62
     2
100
AcDbLine
 10
115.513
 20
193.578
 30
0.0
 11
117.213
 21
193.578
 31
0.0
  0
LINE
  5
107
100
AcDbEntity
  8
LAY-2
  6
CONTINUOUS
 62
     2
100
AcDbLine
 10
118.245169
 20
193.578
 30
0.0
 11
119.680831
 21
193.578
 31
0.0
  0
LINE
  5
108
100
AcDbEntity
  8
LAY-2
  6
CONTINUOUS
 62
     2
100
AcDbLine
 10
120.713
 20
193.578
 30
0.0
 11
122.413
 21
193.578
 31
0.0
  0
LINE
  5
109
100
AcDbEntity
  8
LAY-2
  6
CONTINUOUS
 62
     2
100
AcDbLine
 10
87.713
 20
193.328
 30
0.0
 11
89.463
 21
193.328
 31
0.0
  0
LINE
  5
10A
100
AcDbEntity
  8
LAY-2
  6
CONTINUOUS
 62
     2
100
AcDbLine
 10
91.4189
 20
193.328
 30
0.0
 11
93.22194
 21
193.328
 31
0.0
  0
LINE
  5
10B
100
AcDbEntity
  8
LAY-2
  6
CONTINUOUS
 62
     2
100
AcDbLine
 10
94.074819
 20
193.328
 30
0.0
 11
99.351181
 21
193.328
 31
0.0
  0
LINE
  5
10C
100
AcDbEntity
  8
LAY-2
  6
CONTINUOUS
 62
     2
100
AcDbLine
 10
100.20406
 20
193.328
 30
0.0
 11
102.0071
 21
193.328
 31
0.0
  0
LINE
  5
10D
100
AcDbEntity
  8
LAY-2
  6
CONTINUOUS
 62
     2
100
AcDbLine
 10
103.256148
 20
193.328
 30
0.0
 11
105.184627
 21
193.328
 31
0.0
  0
LINE
  5
10E
100
AcDbEntity
  8
LAY-2
  6
CONTINUOUS
 62
     2
100
AcDbLine
 10
108.063
 20
193.328
 30
0.0
 11
114.763
 21
193.328
 31
0.0
  0
LINE
  5
10F
100
AcDbEntity
  8
LAY-2
  6
CONTINUOUS
 62
     2
100
AcDbLine
 10
115.513
 20
193.328
 30
0.0
 11
117.213
 21
193.328
 31
0.0
  0
LINE
  5
110
100
AcDbEntity
  8
LAY-2
  6
CONTINUOUS
 62
     2
100
AcDbLine
 10
118.409691
 20
193.328
 30
0.0
 11
119.845353
 21
193.328
 31
0.0
  0
LINE
  5
111
100
AcDbEntity
  8
LAY-2
  6
CONTINUOUS
 62
     2
100
AcDbLine
 10
120.713
 20
193.328
 30
0.0
 11
122.413
 21
193.328
 31
0.0
  0
LINE
  5
112
100
AcDbEntity
  8
LAY-2
  6
CONTINUOUS
 62
     2
100
AcDbLine
 10
87.713
 20
193.078
 30
0.0
 11
89.463
 21
193.078
 31
0.0
  0
LINE
  5
113
100
AcDbEntity
  8
LAY-2
  6
CONTINUOUS
 62
     2
100
AcDbLine
 10
91.436638
 20
193.078
 30
0.0
 11
93.248898
 21
193.078
 31
0.0
  0
LINE
  5
114
100
AcDbEntity
  8
LAY-2
  6
CONTINUOUS
 62
     2
100
AcDbLine
 10
94.110597
 20
193.078
 30
0.0
 11
99.315403
 21
193.078
 31
0.0
  0
LINE
  5
115
100
AcDbEntity
  8
LAY-2
  6
CONTINUOUS
 62
     2
100
AcDbLine
 10
100.177102
 20
193.078
 30
0.0
 11
101.989362
 21
193.078
 31
0.0
  0
LINE
  5
116
100
AcDbEntity
  8
LAY-2
  6
CONTINUOUS
 62
     2
100
AcDbLine
 10
103.030773
 20
193.078
 30
0.0
 11
104.959253
 21
193.078
 31
0.0
  0
LINE
  5
117
100
AcDbEntity
  8
LAY-2
  6
CONTINUOUS
 62
     2
100
AcDbLine
 10
108.063
 20
193.078
 30
0.0
 11
114.763
 21
193.078
 31
0.0
  0
LINE
  5
118
100
AcDbEntity
  8
LAY-2
  6
CONTINUOUS
 62
     2
100
AcDbLine
 10
115.513
 20
193.078
 30
0.0
 11
117.213
 21
193.078
 31
0.0
  0
LINE
  5
119
100
AcDbEntity
  8
LAY-2
  6
CONTINUOUS
 62
     2
100
AcDbLine
 10
118.574213
 20
193.078
 30
0.0
 11
120.009875
 21
193.078
 31
0.0
  0
LINE
  5
11A
100
AcDbEntity
  8
LAY-2
  6
CONTINUOUS
 62
     2
100
AcDbLine
 10
120.713
 20
193.078
 30
0.0
 11
122.413
 21
193.078
 31
0.0
  0
LINE
  5
11B
100
AcDbEntity
  8
LAY-2
  6
CONTINUOUS
 62
     2
100
AcDbLine
 10
87.713
 20
192.828
 30
0.0
 11
89.463
 21
192.828
 31
0.0
  0
LINE
  5
11C
100
AcDbEntity
  8
LAY-2
  6
CONTINUOUS
 62
     2
100
AcDbLine
 10
91.466334
 20
192.828
 30
0.0
 11
93.294301
 21
192.828
 31
0.0
  0
LINE
  5
11D
100
AcDbEntity
  8
LAY-2
  6
CONTINUOUS
 62
     2
100
AcDbLine
 10
94.171347
 20
192.828
 30
0.0
 11
99.254653
 21
192.828
 31
0.0
  0
LINE
  5
11E
100
AcDbEntity
  8
LAY-2
  6
CONTINUOUS
 62
     2
100
AcDbLine
 10
100.131699
 20
192.828
 30
0.0
 11
101.959666
 21
192.828
 31
0.0
  0
LINE
  5
11F
100
AcDbEntity
  8
LAY-2
  6
CONTINUOUS
 62
     2
100
AcDbLine
 10
102.805398
 20
192.828
 30
0.0
 11
104.733878
 21
192.828
 31
0.0
  0
LINE
  5
120
100
AcDbEntity
  8
LAY-2
  6
CONTINUOUS
 62
     2
100
AcDbLine
 10
108.063
 20
192.828
 30
0.0
 11
109.813
 21
192.828
 31
0.0
  0
LINE
  5
121
100
AcDbEntity
  8
LAY-2
  6
CONTINUOUS
 62
     2
100
AcDbLine
 10
115.513
 20
192.828
 30
0.0
 11
117.213
 21
192.828
 31
0.0
  0
LINE
  5
122
100
AcDbEntity
  8
LAY-2
  6
CONTINUOUS
 62
     2
100
AcDbLine
 10
118.738735
 20
192.828
 30
0.0
 11
120.174397
 21
192.828
 31
0.0
  0
LINE
  5
123
100
AcDbEntity
  8
LAY-2
  6
CONTINUOUS
 62
     2
100
AcDbLine
 10
120.713
 20
192.828
 30
0.0
 11
122.413
 21
192.828
 31
0.0
  0
LINE
  5
124
100
AcDbEntity
  8
LAY-2
  6
CONTINUOUS
 62
     2
100
AcDbLine
 10
87.713
 20
192.578
 30
0.0
 11
89.463
 21
192.578
 31
0.0
  0
LINE
  5
125
100
AcDbEntity
  8
LAY-2
  6
CONTINUOUS
 62
     2
100
AcDbLine
 10
91.508195
 20
192.578
 30
0.0
 11
93.358898
 21
192.578
 31
0.0
  0
LINE
  5
126
100
AcDbEntity
  8
LAY-2
  6
CONTINUOUS
 62
     2
100
AcDbLine
 10
94.258922
 20
192.578
 30
0.0
 11
99.167078
 21
192.578
 31
0.0
  0
LINE
  5
127
100
AcDbEntity
  8
LAY-2
  6
CONTINUOUS
 62
     2
100
AcDbLine
 10
100.067102
 20
192.578
 30
0.0
 11
101.917805
 21
192.578
 31
0.0
  0
LINE
  5
128
100
AcDbEntity
  8
LAY-2
  6
CONTINUOUS
 62
     2
100
AcDbLine
 10
102.580024
 20
192.578
 30
0.0
 11
104.508503
 21
192.578
 31
0.0
  0
LINE
  5
129
100
AcDbEntity
  8
LAY-2
  6
CONTINUOUS
 62
     2
100
AcDbLine
 10
108.063
 20
192.578
 30
0.0
 11
109.813
 21
192.578
 31
0.0
  0
LINE
  5
12A
100
AcDbEntity
  8
LAY-2
  6
CONTINUOUS
 62
     2
100
AcDbLine
 10
115.513
 20
192.578
 30
0.0
 11
117.213
 21
192.578
 31
0.0
  0
LINE
  5
12B
100
AcDbEntity
  8
LAY-2
  6
CONTINUOUS
 62
     2
100
AcDbLine
 10
118.903257
 20
192.578
 30
0.0
 11
120.338919
 21
192.578
 31
0.0
  0
LINE
  5
12C
100
AcDbEntity
  8
LAY-2
  6
CONTINUOUS
 62
     2
100
AcDbLine
 10
120.713
 20
192.578
 30
0.0
 11
122.413
 21
192.578
 31
0.0
  0
LINE
  5
12D
100
AcDbEntity
  8
LAY-2
  6
CONTINUOUS
 62
     2
100
AcDbLine
 10
87.713
 20
192.328
 30
0.0
 11
89.463
 21
192.328
 31
0.0
  0
LINE
  5
12E
100
AcDbEntity
  8
LAY-2
  6
CONTINUOUS
 62
     2
100
AcDbLine
 10
91.562515
 20
192.328
 30
0.0
 11
93.443826
 21
192.328
 31
0.0
  0
LINE
  5
12F
100
AcDbEntity
  8
LAY-2
  6
CONTINUOUS
 62
     2
100
AcDbLine
 10
94.376336
 20
192.328
 30
0.0
 11
99.049664
 21
192.328
 31
0.0
  0
LINE
  5
130
100
AcDbEntity
  8
LAY-2
  6
CONTINUOUS
 62
     2
100
AcDbLine
 10
99.982174
 20
192.328
 30
0.0
 11
101.863485
 21
192.328
 31
0.0
  0
LINE
  5
131
100
AcDbEntity
  8
LAY-2
  6
CONTINUOUS
 62
     2
100
AcDbLine
 10
102.392023
 20
192.328
 30
0.0
 11
104.283128
 21
192.328
 31
0.0
  0
LINE
  5
132
100
AcDbEntity
  8
LAY-2
  6
CONTINUOUS
 62
     2
100
AcDbLine
 10
108.063
 20
192.328
 30
0.0
 11
109.813
 21
192.328
 31
0.0
  0
LINE
  5
133
100
AcDbEntity
  8
LAY-2
  6
CONTINUOUS
 62
     2
100
AcDbLine
 10
115.513
 20
192.328
 30
0.0
 11
117.213
 21
192.328
 31
0.0
  0
LINE
  5
134
100
AcDbEntity
  8
LAY-2
  6
CONTINUOUS
 62
     2
100
AcDbLine
 10
119.067779
 20
192.328
 30
0.0
 11
120.503441
 21
192.328
 31
0.0
  0
LINE
  5
135
100
AcDbEntity
  8
LAY-2
  6
CONTINUOUS
 62
     2
100
AcDbLine
 10
120.713
 20
192.328
 30
0.0
 11
122.413
 21
192.328
 31
0.0
  0
LINE
  5
136
100
AcDbEntity
  8
LAY-2
  6
CONTINUOUS
 62
     2
100
AcDbLine
 10
87.713
 20
192.078
 30
0.0
 11
89.463
 21
192.078
 31
0.0
  0
LINE
  5
137
100
AcDbEntity
  8
LAY-2
  6
CONTINUOUS
 62
     2
100
AcDbLine
 10
91.629694
 20
192.078
 30
0.0
 11
93.550722
 21
192.078
 31
0.0
  0
LINE
  5
138
100
AcDbEntity
  8
LAY-2
  6
CONTINUOUS
 62
     2
100
AcDbLine
 10
94.528395
 20
192.078
 30
0.0
 11
98.897605
 21
192.078
 31
0.0
  0
LINE
  5
139
100
AcDbEntity
  8
LAY-2
  6
CONTINUOUS
 62
     2
100
AcDbLine
 10
99.875278
 20
192.078
 30
0.0
 11
101.796306
 21
192.078
 31
0.0
  0
LINE
  5
13A
100
AcDbEntity
  8
LAY-2
  6
CONTINUOUS
 62
     2
100
AcDbLine
 10
102.331167
 20
192.078
 30
0.0
 11
104.057754
 21
192.078
 31
0.0
  0
LINE
  5
13B
100
AcDbEntity
  8
LAY-2
  6
CONTINUOUS
 62
     2
100
AcDbLine
 10
108.063
 20
192.078
 30
0.0
 11
109.813
 21
192.078
 31
0.0
  0
LINE
  5
13C
100
AcDbEntity
  8
LAY-2
  6
CONTINUOUS
 62
     2
100
AcDbLine
 10
115.513
 20
192.078
 30
0.0
 11
117.213
 21
192.078
 31
0.0
  0
LINE
  5
13D
100
AcDbEntity
  8
LAY-2
  6
CONTINUOUS
 62
     2
100
AcDbLine
 10
119.232301
 20
192.078
 30
0.0
 11
120.667963
 21
192.078
 31
0.0
  0
LINE
  5
13E
100
AcDbEntity
  8
LAY-2
  6
CONTINUOUS
 62
     2
100
AcDbLine
 10
120.713
 20
192.078
 30
0.0
 11
122.413
 21
192.078
 31
0.0
  0
LINE
  5
13F
100
AcDbEntity
  8
LAY-2
  6
CONTINUOUS
 62
     2
100
AcDbLine
 10
87.713
 20
191.828
 30
0.0
 11
89.463
 21
191.828
 31
0.0
  0
LINE
  5
140
100
AcDbEntity
  8
LAY-2
  6
CONTINUOUS
 62
     2
100
AcDbLine
 10
91.710251
 20
191.828
 30
0.0
 11
93.681911
 21
191.828
 31
0.0
  0
LINE
  5
141
100
AcDbEntity
  8
LAY-2
  6
CONTINUOUS
 62
     2
100
AcDbLine
 10
94.723025
 20
191.828
 30
0.0
 11
98.702975
 21
191.828
 31
0.0
  0
LINE
  5
142
100
AcDbEntity
  8
LAY-2
  6
CONTINUOUS
 62
     2
100
AcDbLine
 10
99.744089
 20
191.828
 30
0.0
 11
101.715749
 21
191.828
 31
0.0
  0
LINE
  5
143
100
AcDbEntity
  8
LAY-2
  6
CONTINUOUS
 62
     2
100
AcDbLine
 10
102.258385
 20
191.828
 30
0.0
 11
103.832379
 21
191.828
 31
0.0
  0
LINE
  5
144
100
AcDbEntity
  8
LAY-2
  6
CONTINUOUS
 62
     2
100
AcDbLine
 10
108.063
 20
191.828
 30
0.0
 11
109.813
 21
191.828
 31
0.0
  0
LINE
  5
145
100
AcDbEntity
  8
LAY-2
  6
CONTINUOUS
 62
     2
100
AcDbLine
 10
115.513
 20
191.828
 30
0.0
 11
117.213
 21
191.828
 31
0.0
  0
LINE
  5
146
100
AcDbEntity
  8
LAY-2
  6
CONTINUOUS
 62
     2
100
AcDbLine
 10
119.396824
 20
191.828
 30
0.0
 11
122.413
 21
191.828
 31
0.0
  0
LINE
  5
147
100
AcDbEntity
  8
LAY-2
  6
CONTINUOUS
 62
     2
100
AcDbLine
 10
87.713
 20
191.578
 30
0.0
 11
89.463
 21
191.578
 31
0.0
  0
LINE
  5
148
100
AcDbEntity
  8
LAY-2
  6
CONTINUOUS
 62
     2
100
AcDbLine
 10
91.804844
 20
191.578
 30
0.0
 11
93.840719
 21
191.578
 31
0.0
  0
LINE
  5
149
100
AcDbEntity
  8
LAY-2
  6
CONTINUOUS
 62
     2
100
AcDbLine
 10
94.974466
 20
191.578
 30
0.0
 11
98.451534
 21
191.578
 31
0.0
  0
LINE
  5
14A
100
AcDbEntity
  8
LAY-2
  6
CONTINUOUS
 62
     2
100
AcDbLine
 10
99.585281
 20
191.578
 30
0.0
 11
101.621156
 21
191.578
 31
0.0
  0
LINE
  5
14B
100
AcDbEntity
  8
LAY-2
  6
CONTINUOUS
 62
     2
100
AcDbLine
 10
102.173201
 20
191.578
 30
0.0
 11
107.213
 21
191.578
 31
0.0
  0
LINE
  5
14C
100
AcDbEntity
  8
LAY-2
  6
CONTINUOUS
 62
     2
100
AcDbLine
 10
108.063
 20
191.578
 30
0.0
 11
114.763
 21
191.578
 31
0.0
  0
LINE
  5
14D
100
AcDbEntity
  8
LAY-2
  6
CONTINUOUS
 62
     2
100
AcDbLine
 10
115.513
 20
191.578
 30
0.0
 11
117.213
 21
191.578
 31
0.0
  0
LINE
  5
14E
100
AcDbEntity
  8
LAY-2
  6
CONTINUOUS
 62
     2
100
AcDbLine
 10
119.561346
 20
191.578
 30
0.0
 11
122.413
 21
191.578
 31
0.0
  0
LINE
  5
14F
100
AcDbEntity
  8
LAY-2
  6
CONTINUOUS
 62
     2
100
AcDbLine
 10
87.713
 20
191.328
 30
0.0
 11
89.463
 21
191.328
 31
0.0
  0
LINE
  5
150
100
AcDbEntity
  8
LAY-2
  6
CONTINUOUS
 62
     2
100
AcDbLine
 10
91.914302
 20
191.328
 30
0.0
 11
94.032049
 21
191.328
 31
0.0
  0
LINE
  5
151
100
AcDbEntity
  8
LAY-2
  6
CONTINUOUS
 62
     2
100
AcDbLine
 10
95.313
 20
191.328
 30
0.0
 11
98.113
 21
191.328
 31
0.0
  0
LINE
  5
152
100
AcDbEntity
  8
LAY-2
  6
CONTINUOUS
 62
     2
100
AcDbLine
 10
99.393951
 20
191.328
 30
0.0
 11
101.511698
 21
191.328
 31
0.0
  0
LINE
  5
153
100
AcDbEntity
  8
LAY-2
  6
CONTINUOUS
 62
     2
100
AcDbLine
 10
102.075024
 20
191.328
 30
0.0
 11
107.213
 21
191.328
 31
0.0
  0
LINE
  5
154
100
AcDbEntity
  8
LAY-2
  6
CONTINUOUS
 62
     2
100
AcDbLine
 10
108.063
 20
191.328
 30
0.0
 11
114.763
 21
191.328
 31
0.0
  0
LINE
  5
155
100
AcDbEntity
  8
LAY-2
  6
CONTINUOUS
 62
     2
100
AcDbLine
 10
115.513
 20
191.328
 30
0.0
 11
117.213
 21
191.328
 31
0.0
  0
LINE
  5
156
100
AcDbEntity
  8
LAY-2
  6
CONTINUOUS
 62
     2
100
AcDbLine
 10
119.725868
 20
191.328
 30
0.0
 11
122.413
 21
191.328
 31
0.0
  0
LINE
  5
157
100
AcDbEntity
  8
LAY-2
  6
CONTINUOUS
 62
     2
100
AcDbLine
 10
87.713
 20
191.078
 30
0.0
 11
89.463
 21
191.078
 31
0.0
  0
LINE
  5
158
100
AcDbEntity
  8
LAY-2
  6
CONTINUOUS
 62
     2
100
AcDbLine
 10
92.039671
 20
191.078
 30
0.0
 11
94.26351
 21
191.078
 31
0.0
  0
LINE
  5
159
100
AcDbEntity
  8
LAY-2
  6
CONTINUOUS
 62
     2
100
AcDbLine
 10
95.83408
 20
191.078
 30
0.0
 11
97.59192
 21
191.078
 31
0.0
  0
LINE
  5
15A
100
AcDbEntity
  8
LAY-2
  6
CONTINUOUS
 62
     2
100
AcDbLine
 10
99.16249
 20
191.078
 30
0.0
 11
101.386329
 21
191.078
 31
0.0
  0
LINE
  5
15B
100
AcDbEntity
  8
LAY-2
  6
CONTINUOUS
 62
     2
100
AcDbLine
 10
101.963124
 20
191.078
 30
0.0
 11
107.213
 21
191.078
 31
0.0
  0
LINE
  5
15C
100
AcDbEntity
  8
LAY-2
  6
CONTINUOUS
 62
     2
100
AcDbLine
 10
108.063
 20
191.078
 30
0.0
 11
114.763
 21
191.078
 31
0.0
  0
LINE
  5
15D
100
AcDbEntity
  8
LAY-2
  6
CONTINUOUS
 62
     2
100
AcDbLine
 10
115.513
 20
191.078
 30
0.0
 11
117.213
 21
191.078
 31
0.0
  0
LINE
  5
15E
100
AcDbEntity
  8
LAY-2
  6
CONTINUOUS
 62
     2
100
AcDbLine
 10
119.89039
 20
191.078
 30
0.0
 11
122.413
 21
191.078
 31
0.0
  0
LINE
  5
15F
100
AcDbEntity
  8
LAY-2
  6
CONTINUOUS
 62
     2
100
AcDbLine
 10
87.713
 20
190.828
 30
0.0
 11
89.463
 21
190.828
 31
0.0
  0
LINE
  5
160
100
AcDbEntity
  8
LAY-2
  6
CONTINUOUS
 62
     2
100
AcDbLine
 10
92.182272
 20
190.828
 30
0.0
 11
94.547936
 21
190.828
 31
0.0
  0
LINE
  5
161
100
AcDbEntity
  8
LAY-2
  6
CONTINUOUS
 62
     2
100
AcDbLine
 10
98.878064
 20
190.828
 30
0.0
 11
101.243728
 21
190.828
 31
0.0
  0
LINE
  5
162
100
AcDbEntity
  8
LAY-2
  6
CONTINUOUS
 62
     2
100
AcDbLine
 10
101.836602
 20
190.828
 30
0.0
 11
107.213
 21
190.828
 31
0.0
  0
LINE
  5
163
100
AcDbEntity
  8
LAY-2
  6
CONTINUOUS
 62
     2
100
AcDbLine
 10
108.063
 20
190.828
 30
0.0
 11
114.763
 21
190.828
 31
0.0
  0
LINE
  5
164
100
AcDbEntity
  8
LAY-2
  6
CONTINUOUS
 62
     2
100
AcDbLine
 10
115.513
 20
190.828
 30
0.0
 11
117.213
 21
190.828
 31
0.0
  0
LINE
  5
165
100
AcDbEntity
  8
LAY-2
  6
CONTINUOUS
 62
     2
100
AcDbLine
 10
120.054912
 20
190.828
 30
0.0
 11
122.413
 21
190.828
 31
0.0
  0
LINE
  5
166
100
AcDbEntity
  8
LAY-2
  6
CONTINUOUS
 62
     2
100
AcDbLine
 10
87.713
 20
190.578
 30
0.0
 11
89.463
 21
190.578
 31
0.0
  0
LINE
  5
167
100
AcDbEntity
  8
LAY-2
  6
CONTINUOUS
 62
     2
100
AcDbLine
 10
92.34379
 20
190.578
 30
0.0
 11
94.910224
 21
190.578
 31
0.0
  0
LINE
  5
168
100
AcDbEntity
  8
LAY-2
  6
CONTINUOUS
 62
     2
100
AcDbLine
 10
98.515776
 20
190.578
 30
0.0
 11
101.08221
 21
190.578
 31
0.0
  0
LINE
  5
169
100
AcDbEntity
  8
LAY-2
  6
CONTINUOUS
 62
     2
100
AcDbLine
 10
101.694345
 20
190.578
 30
0.0
 11
107.213
 21
190.578
 31
0.0
  0
LINE
  5
16A
100
AcDbEntity
  8
LAY-2
  6
CONTINUOUS
 62
     2
100
AcDbLine
 10
108.063
 20
190.578
 30
0.0
 11
114.763
 21
190.578
 31
0.0
  0
LINE
  5
16B
100
AcDbEntity
  8
LAY-2
  6
CONTINUOUS
 62
     2
100
AcDbLine
 10
115.513
 20
190.578
 30
0.0
 11
117.213
 21
190.578
 31
0.0
  0
LINE
  5
16C
100
AcDbEntity
  8
LAY-2
  6
CONTINUOUS
 62
     2
100
AcDbLine
 10
120.219434
 20
190.578
 30
0.0
 11
122.413
 21
190.578
 31
0.0
  0
LINE
  5
16D
100
AcDbEntity
  8
LAY-2
  6
CONTINUOUS
 62
     2
100
AcDbLine
 10
87.713
 20
190.328
 30
0.0
 11
89.463
 21
190.328
 31
0.0
  0
LINE
  5
16E
100
AcDbEntity
  8
LAY-2
  6
CONTINUOUS
 62
     2
100
AcDbLine
 10
92.526414
 20
190.328
 30
0.0
 11
95.413962
 21
190.328
 31
0.0
  0
LINE
  5
16F
100
AcDbEntity
  8
LAY-2
  6
CONTINUOUS
 62
     2
100
AcDbLine
 10
98.012038
 20
190.328
 30
0.0
 11
100.899586
 21
190.328
 31
0.0
  0
LINE
  5
170
100
AcDbEntity
  8
LAY-2
  6
CONTINUOUS
 62
     2
100
AcDbLine
 10
101.53496
 20
190.328
 30
0.0
 11
107.213
 21
190.328
 31
0.0
  0
LINE
  5
171
100
AcDbEntity
  8
LAY-2
  6
CONTINUOUS
 62
     2
100
AcDbLine
 10
108.063
 20
190.328
 30
0.0
 11
114.763
 21
190.328
 31
0.0
  0
LINE
  5
172
100
AcDbEntity
  8
LAY-2
  6
CONTINUOUS
 62
     2
100
AcDbLine
 10
115.513
 20
190.328
 30
0.0
 11
117.213
 21
190.328
 31
0.0
  0
LINE
  5
173
100
AcDbEntity
  8
LAY-2
  6
CONTINUOUS
 62
     2
100
AcDbLine
 10
120.383956
 20
190.328
 30
0.0
 11
122.413
 21
190.328
 31
0.0
  0
LINE
  5
174
100
AcDbEntity
  8
LAY-2
  6
CONTINUOUS
 62
     2
100
AcDbLine
 10
87.713
 20
190.078
 30
0.0
 11
89.463
 21
190.078
 31
0.0
  0
LINE
  5
175
100
AcDbEntity
  8
LAY-2
  6
CONTINUOUS
 62
     2
100
AcDbLine
 10
92.73305
 20
190.078
 30
0.0
 11
100.69295
 21
190.078
 31
0.0
  0
LINE
  5
176
100
AcDbEntity
  8
LAY-2
  6
CONTINUOUS
 62
     2
100
AcDbLine
 10
101.356684
 20
190.078
 30
0.0
 11
107.213
 21
190.078
 31
0.0
  0
LINE
  5
177
100
AcDbEntity
  8
LAY-2
  6
CONTINUOUS
 62
     2
100
AcDbLine
 10
108.063
 20
190.078
 30
0.0
 11
114.763
 21
190.078
 31
0.0
  0
LINE
  5
178
100
AcDbEntity
  8
LAY-2
  6
CONTINUOUS
 62
     2
100
AcDbLine
 10
115.513
 20
190.078
 30
0.0
 11
117.213
 21
190.078
 31
0.0
  0
LINE
  5
179
100
AcDbEntity
  8
LAY-2
  6
CONTINUOUS
 62
     2
100
AcDbLine
 10
120.548478
 20
190.078
 30
0.0
 11
122.413
 21
190.078
 31
0.0
  0
LINE
  5
17A
100
AcDbEntity
  8
LAY-2
  6
CONTINUOUS
 62
     2
100
AcDbLine
 10
92.96767
 20
189.828
 30
0.0
 11
100.45833
 21
189.828
 31
0.0
  0
LINE
  5
17B
100
AcDbEntity
  8
LAY-2
  6
CONTINUOUS
 62
     2
100
AcDbLine
 10
93.235932
 20
189.578
 30
0.0
 11
100.190068
 21
189.578
 31
0.0
  0
LINE
  5
17C
100
AcDbEntity
  8
LAY-2
  6
CONTINUOUS
 62
     2
100
AcDbLine
 10
93.546377
 20
189.328
 30
0.0
 11
99.879623
 21
189.328
 31
0.0
  0
LINE
  5
17D
100
AcDbEntity
  8
LAY-2
  6
CONTINUOUS
 62
     2
100
AcDbLine
 10
93.913
 20
189.078
 30
0.0
 11
99.513
 21
189.078
 31
0.0
  0
LINE
  5
17E
100
AcDbEntity
  8
LAY-2
  6
CONTINUOUS
 62
     2
100
AcDbLine
 10
94.361936
 20
188.828
 30
0.0
 11
99.064064
 21
188.828
 31
0.0
  0
LINE
  5
17F
100
AcDbEntity
  8
LAY-2
  6
CONTINUOUS
 62
     2
100
AcDbLine
 10
94.95516
 20
188.578
 30
0.0
 11
98.47084
 21
188.578
 31
0.0
  0
LINE
  5
180
100
AcDbEntity
  8
LAY-2
  6
CONTINUOUS
 62
     2
100
AcDbLine
 10
95.986708
 20
188.328
 30
0.0
 11
97.439292
 21
188.328
 31
0.0
  0
TEXT
  5
181
100
AcDbEntity
  8
LAY-2
  6
CONTINUOUS
 62
     7
100
AcDbText
 10
78.4
 20
171.9
 30
0.0
 40
5.0
  1
２０Ａ×１２０Ｌ
 41
0.7665
  7
EXCADSTD
 72
     5
 11
114.9
 21
171.9
 31
0.0
100
AcDbText
  0
TEXT
  5
182
100
AcDbEntity
  8
LAY-2
  6
CONTINUOUS
 62
     7
100
AcDbText
 10
125.1
 20
172.0
 30
0.0
 40
5.0
  1
２５Ａ×１２０Ｌ
 41
0.7665
  7
EXCADSTD
 72
     5
 11
161.6
 21
172.0
 31
0.0
100
AcDbText
  0
TEXT
  5
183
100
AcDbEntity
  8
LAY-2
  6
CONTINUOUS
 62
     7
100
AcDbText
 10
167.8
 20
171.9
 30
0.0
 40
5.0
  1
３２Ａ×１７５Ｌ
 41
0.7665
  7
EXCADSTD
 72
     5
 11
204.3
 21
171.9
 31
0.0
100
AcDbText
  0
TEXT
  5
184
100
AcDbEntity
  8
LAY-2
  6
CONTINUOUS
 62
     7
100
AcDbText
 10
213.2
 20
172.0
 30
0.0
 40
5.0
  1
４０Ａ×１７５Ｌ
 41
0.7665
  7
EXCADSTD
 72
     5
 11
249.7
 21
172.0
 31
0.0
100
AcDbText
  0
TEXT
  5
185
100
AcDbEntity
  8
LAY-2
  6
CONTINUOUS
 62
     7
100
AcDbText
 10
258.2
 20
172.0
 30
0.0
 40
5.0
  1
５０Ａ×１７５Ｌ
 41
0.7665
  7
EXCADSTD
 72
     5
 11
294.7
 21
172.0
 31
0.0
100
AcDbText
  0
TEXT
  5
186
100
AcDbEntity
  8
LAY-2
  6
CONTINUOUS
 62
     7
100
AcDbText
 10
33.4
 20
172.0
 30
0.0
 40
5.0
  1
１５Ａ×１２０Ｌ
 41
0.7665
  7
EXCADSTD
 72
     5
 11
69.9
 21
172.0
 31
0.0
100
AcDbText
  0
LINE
  5
187
100
AcDbEntity
  8
LAY-2
  6
CONTINUOUS
 62
     2
100
AcDbLine
 10
29.0
 20
207.778
 30
0.0
 11
299.013
 21
207.778
 31
0.0
  0
LINE
  5
188
100
AcDbEntity
  8
LAY-2
  6
CONTINUOUS
 62
     2
100
AcDbLine
 10
299.013
 20
207.778
 30
0.0
 11
299.013
 21
29.0
 31
0.0
  0
LINE
  5
189
100
AcDbEntity
  8
LAY-2
  6
CONTINUOUS
 62
     2
100
AcDbLine
 10
299.013
 20
29.0
 30
0.0
 11
29.0
 21
29.0
 31
0.0
  0
LINE
  5
18A
100
AcDbEntity
  8
LAY-2
  6
CONTINUOUS
 62
     2
100
AcDbLine
 10
29.0
 20
29.0
 30
0.0
 11
29.0
 21
207.778
 31
0.0
  0
LINE
  5
18B
100
AcDbEntity
  8
LAY-2
  6
CONTINUOUS
 62
     2
100
AcDbLine
 10
299.013
 20
71.6
 30
0.0
 11
29.0
 21
71.6
 31
0.0
  0
LINE
  5
18C
100
AcDbEntity
  8
LAY-2
  6
CONTINUOUS
 62
     2
100
AcDbLine
 10
299.013
 20
78.7
 30
0.0
 11
29.0
 21
78.7
 31
0.0
  0
LINE
  5
18D
100
AcDbEntity
  8
LAY-2
  6
CONTINUOUS
 62
     2
100
AcDbLine
 10
299.013
 20
121.3
 30
0.0
 11
29.0
 21
121.3
 31
0.0
  0
LINE
  5
18E
100
AcDbEntity
  8
LAY-2
  6
CONTINUOUS
 62
     2
100
AcDbLine
 10
299.013
 20
128.4
 30
0.0
 11
29.0
 21
128.4
 31
0.0
  0
LINE
  5
18F
100
AcDbEntity
  8
LAY-2
  6
CONTINUOUS
 62
     2
100
AcDbLine
 10
299.013
 20
171.0
 30
0.0
 11
29.0
 21
171.0
 31
0.0
  0
LINE
  5
190
100
AcDbEntity
  8
LAY-2
  6
CONTINUOUS
 62
     2
100
AcDbLine
 10
299.013
 20
178.1
 30
0.0
 11
29.0
 21
178.1
 31
0.0
  0
LINE
  5
191
100
AcDbEntity
  8
LAY-2
  6
CONTINUOUS
 62
     2
100
AcDbLine
 10
119.004333
 20
178.1
 30
0.0
 11
119.004333
 21
29.0
 31
0.0
  0
LINE
  5
192
100
AcDbEntity
  8
LAY-2
  6
CONTINUOUS
 62
     2
100
AcDbLine
 10
164.0065
 20
178.1
 30
0.0
 11
164.0065
 21
29.0
 31
0.0
  0
LINE
  5
193
100
AcDbEntity
  8
LAY-2
  6
CONTINUOUS
 62
     2
100
AcDbLine
 10
209.008667
 20
178.1
 30
0.0
 11
209.008667
 21
29.0
 31
0.0
  0
LINE
  5
194
100
AcDbEntity
  8
LAY-2
  6
CONTINUOUS
 62
     2
100
AcDbLine
 10
254.010833
 20
178.1
 30
0.0
 11
254.010833
 21
29.0
 31
0.0
  0
TEXT
  5
195
100
AcDbEntity
  8
LAY-2
  6
CONTINUOUS
 62
     7
100
AcDbText
 10
133.299999
 20
189.3
 30
0.0
 40
9.0
  1
ＰＴコネクタＳ
 41
0.8
  7
EXCADSTD
 72
     5
 11
193.299999
 21
189.3
 31
0.0
100
AcDbText
  0
LINE
  5
196
100
AcDbEntity
  8
LAY-2
  6
CONTINUOUS
 62
     2
100
AcDbLine
 10
87.713
 20
195.578
 30
0.0
 11
87.713
 21
189.828
 31
0.0
  0
LINE
  5
197
100
AcDbEntity
  8
LAY-2
  6
CONTINUOUS
 62
     2
100
AcDbLine
 10
89.463
 20
195.578
 30
0.0
 11
89.463
 21
189.828
 31
0.0
  0
CIRCLE
  5
198
100
AcDbEntity
  8
LAY-2
  6
CONTINUOUS
 62
     2
100
AcDbCircle
 10
96.713
 20
193.578
 30
0.0
 40
2.65
  0
CIRCLE
  5
199
100
AcDbEntity
  8
LAY-2
  6
CONTINUOUS
 62
     2
100
AcDbCircle
 10
96.713
 20
193.578
 30
0.0
 40
3.5
  0
CIRCLE
  5
19A
100
AcDbEntity
  8
LAY-2
  6
CONTINUOUS
 62
     2
100
AcDbCircle
 10
96.713
 20
193.578
 30
0.0
 40
5.3
  0
LINE
  5
19B
100
AcDbEntity
  8
LAY-2
  6
CONTINUOUS
 62
     2
100
AcDbLine
 10
84.213
 20
197.328
 30
0.0
 11
84.213
 21
195.578
 31
0.0
  0
LINE
  5
19C
100
AcDbEntity
  8
LAY-2
  6
CONTINUOUS
 62
     2
100
AcDbLine
 10
87.713
 20
189.828
 30
0.0
 11
89.463
 21
189.828
 31
0.0
  0
ARC
  5
19D
100
AcDbEntity
  8
LAY-2
  6
CONTINUOUS
 62
     2
100
AcDbCircle
 10
96.713
 20
193.578
 30
0.0
 40
5.814963
100
AcDbArc
 50
139.842723
 51
159.882882
  0
ARC
  5
19E
100
AcDbEntity
  8
LAY-2
  6
CONTINUOUS
 62
     2
100
AcDbCircle
 10
96.713
 20
193.578
 30
0.0
 40
5.814963
100
AcDbArc
 50
20.117118
 51
40.157277
  0
LINE
  5
19F
100
AcDbEntity
  8
LAY-2
  6
CONTINUOUS
 62
     2
100
AcDbLine
 10
107.213
 20
191.578
 30
0.0
 11
107.213
 21
189.828
 31
0.0
  0
LINE
  5
1A0
100
AcDbEntity
  8
LAY-2
  6
CONTINUOUS
 62
     2
100
AcDbLine
 10
107.213
 20
197.328
 30
0.0
 11
107.213
 21
195.578
 31
0.0
  0
ARC
  5
1A1
100
AcDbEntity
  8
LAY-2
  6
CONTINUOUS
 62
     2
100
AcDbCircle
 10
96.713
 20
193.578
 30
0.0
 40
5.814963
100
AcDbArc
 50
319.842723
 51
348.135428
  0
LINE
  5
1A2
100
AcDbEntity
  8
LAY-2
  6
CONTINUOUS
 62
     2
100
AcDbLine
 10
107.213
 20
195.578
 30
0.0
 11
103.607004
 21
191.578
 31
0.0
  0
LINE
  5
1A3
100
AcDbEntity
  8
LAY-2
  6
CONTINUOUS
 62
     2
100
AcDbLine
 10
105.28452
 20
195.578
 30
0.0
 11
102.403734
 21
192.382449
 31
0.0
  0
LINE
  5
1A4
100
AcDbEntity
  8
LAY-2
  6
CONTINUOUS
 62
     2
100
AcDbLine
 10
108.063
 20
197.328
 30
0.0
 11
108.063
 21
189.828
 31
0.0
  0
LINE
  5
1A5
100
AcDbEntity
  8
LAY-2
  6
CONTINUOUS
 62
     2
100
AcDbLine
 10
109.813
 20
194.328
 30
0.0
 11
114.763
 21
194.328
 31
0.0
  0
LINE
  5
1A6
100
AcDbEntity
  8
LAY-2
  6
CONTINUOUS
 62
     2
100
AcDbLine
 10
109.813
 20
192.828
 30
0.0
 11
114.763
 21
192.828
 31
0.0
  0
LINE
  5
1A7
100
AcDbEntity
  8
LAY-2
  6
CONTINUOUS
 62
     2
100
AcDbLine
 10
115.513
 20
197.328
 30
0.0
 11
115.513
 21
189.828
 31
0.0
  0
LINE
  5
1A8
100
AcDbEntity
  8
LAY-2
  6
CONTINUOUS
 62
     2
100
AcDbLine
 10
122.413
 20
197.328
 30
0.0
 11
122.413
 21
189.828
 31
0.0
  0
LINE
  5
1A9
100
AcDbEntity
  8
LAY-2
  6
CONTINUOUS
 62
     2
100
AcDbLine
 10
120.713
 20
189.828
 30
0.0
 11
117.213
 21
195.146436
 31
0.0
  0
LINE
  5
1AA
100
AcDbEntity
  8
LAY-2
  6
CONTINUOUS
 62
     2
100
AcDbLine
 10
117.213
 20
197.328
 30
0.0
 11
120.713
 21
192.009564
 31
0.0
  0
LINE
  5
1AB
100
AcDbEntity
  8
LAY-2
  6
CONTINUOUS
 62
     2
100
AcDbLine
 10
114.763
 20
197.328
 30
0.0
 11
114.763
 21
195.578
 31
0.0
  0
LINE
  5
1AC
100
AcDbEntity
  8
LAY-2
  6
CONTINUOUS
 62
     2
100
AcDbLine
 10
114.763
 20
194.328
 30
0.0
 11
114.763
 21
192.828
 31
0.0
  0
LINE
  5
1AD
100
AcDbEntity
  8
LAY-2
  6
CONTINUOUS
 62
     2
100
AcDbLine
 10
114.763
 20
191.578
 30
0.0
 11
114.763
 21
189.828
 31
0.0
  0
LINE
  5
1AE
100
AcDbEntity
  8
LAY-2
  6
CONTINUOUS
 62
     2
100
AcDbLine
 10
109.813
 20
195.578
 30
0.0
 11
114.763
 21
195.578
 31
0.0
  0
LINE
  5
1AF
100
AcDbEntity
  8
LAY-2
  6
CONTINUOUS
 62
     2
100
AcDbLine
 10
108.063
 20
197.328
 30
0.0
 11
114.763
 21
197.328
 31
0.0
  0
LINE
  5
1B0
100
AcDbEntity
  8
LAY-2
  6
CONTINUOUS
 62
     2
100
AcDbLine
 10
109.813
 20
192.828
 30
0.0
 11
109.813
 21
191.578
 31
0.0
  0
LINE
  5
1B1
100
AcDbEntity
  8
LAY-2
  6
CONTINUOUS
 62
     2
100
AcDbLine
 10
108.063
 20
189.828
 30
0.0
 11
114.763
 21
189.828
 31
0.0
  0
LINE
  5
1B2
100
AcDbEntity
  8
LAY-2
  6
CONTINUOUS
 62
     2
100
AcDbLine
 10
109.813
 20
191.578
 30
0.0
 11
114.763
 21
191.578
 31
0.0
  0
LINE
  5
1B3
100
AcDbEntity
  8
LAY-2
  6
CONTINUOUS
 62
     2
100
AcDbLine
 10
117.213
 20
195.146436
 30
0.0
 11
117.213
 21
189.828
 31
0.0
  0
LINE
  5
1B4
100
AcDbEntity
  8
LAY-2
  6
CONTINUOUS
 62
     2
100
AcDbLine
 10
115.513
 20
197.328
 30
0.0
 11
117.213
 21
197.328
 31
0.0
  0
LINE
  5
1B5
100
AcDbEntity
  8
LAY-2
  6
CONTINUOUS
 62
     2
100
AcDbLine
 10
120.713
 20
197.328
 30
0.0
 11
122.413
 21
197.328
 31
0.0
  0
LINE
  5
1B6
100
AcDbEntity
  8
LAY-2
  6
CONTINUOUS
 62
     2
100
AcDbLine
 10
115.513
 20
189.828
 30
0.0
 11
117.213
 21
189.828
 31
0.0
  0
LINE
  5
1B7
100
AcDbEntity
  8
LAY-2
  6
CONTINUOUS
 62
     2
100
AcDbLine
 10
120.713
 20
189.828
 30
0.0
 11
122.413
 21
189.828
 31
0.0
  0
LINE
  5
1B8
100
AcDbEntity
  8
LAY-2
  6
CONTINUOUS
 62
     2
100
AcDbLine
 10
120.713
 20
197.328
 30
0.0
 11
120.713
 21
192.009564
 31
0.0
  0
LINE
  5
1B9
100
AcDbEntity
  8
LAY-2
  6
CONTINUOUS
 62
     2
100
AcDbLine
 10
84.213
 20
195.578
 30
0.0
 11
87.713
 21
195.578
 31
0.0
  0
LINE
  5
1BA
100
AcDbEntity
  8
LAY-2
  6
CONTINUOUS
 62
     2
100
AcDbLine
 10
89.463
 20
195.578
 30
0.0
 11
91.252799
 21
195.578
 31
0.0
  0
LINE
  5
1BB
100
AcDbEntity
  8
LAY-2
  6
CONTINUOUS
 62
     2
100
AcDbLine
 10
84.213
 20
197.328
 30
0.0
 11
92.268757
 21
197.328
 31
0.0
  0
LINE
  5
1BC
100
AcDbEntity
  8
LAY-2
  6
CONTINUOUS
 62
     2
100
AcDbLine
 10
101.157243
 20
197.328
 30
0.0
 11
107.213
 21
197.328
 31
0.0
  0
LINE
  5
1BD
100
AcDbEntity
  8
LAY-2
  6
CONTINUOUS
 62
     2
100
AcDbLine
 10
102.173201
 20
195.578
 30
0.0
 11
105.28452
 21
195.578
 31
0.0
  0
LINE
  5
1BE
100
AcDbEntity
  8
LAY-2
  6
CONTINUOUS
 62
     2
100
AcDbLine
 10
101.157243
 20
189.828
 30
0.0
 11
107.213
 21
189.828
 31
0.0
  0
LINE
  5
1BF
100
AcDbEntity
  8
LAY-2
  6
CONTINUOUS
 62
     2
100
AcDbLine
 10
103.607004
 20
191.578
 30
0.0
 11
107.213
 21
191.578
 31
0.0
  0
LINE
  5
1C0
100
AcDbEntity
  8
LAY-2
  6
CONTINUOUS
 62
     2
100
AcDbLine
 10
109.813
 20
195.578
 30
0.0
 11
109.813
 21
194.328
 31
0.0
  0
LINE
  5
1C1
100
AcDbEntity
  8
LAY-2
  6
CONTINUOUS
 62
     3
100
AcDbLine
 10
44.981413
 20
154.628
 30
0.0
 11
46.381413
 21
154.628
 31
0.0
  0
LINE
  5
1C2
100
AcDbEntity
  8
LAY-2
  6
CONTINUOUS
 62
     3
100
AcDbLine
 10
44.981413
 20
153.278
 30
0.0
 11
46.381413
 21
153.278
 31
0.0
  0
LINE
  5
1C3
100
AcDbEntity
  8
LAY-2
  6
CONTINUOUS
 62
     3
100
AcDbLine
 10
282.86
 20
152.978
 30
0.0
 11
282.86
 21
146.978
 31
0.0
  0
LINE
  5
1C4
100
AcDbEntity
  8
LAY-2
  6
CONTINUOUS
 62
     3
100
AcDbLine
 10
44.781413
 20
154.628
 30
0.0
 11
44.781413
 21
146.478
 31
0.0
  0
LINE
  5
1C5
100
AcDbEntity
  8
LAY-2
  6
CONTINUOUS
 62
     3
100
AcDbLine
 10
44.981413
 20
154.628
 30
0.0
 11
44.981413
 21
146.478
 31
0.0
  0
LINE
  5
1C6
100
AcDbEntity
  8
LAY-2
  6
CONTINUOUS
 62
     3
100
AcDbLine
 10
43.781413
 20
154.628
 30
0.0
 11
44.781413
 21
154.628
 31
0.0
  0
LINE
  5
1C7
100
AcDbEntity
  8
LAY-2
  6
CONTINUOUS
 62
     3
100
AcDbLine
 10
43.781413
 20
153.278
 30
0.0
 11
44.781413
 21
153.278
 31
0.0
  0
LINE
  5
1C8
100
AcDbEntity
  8
LAY-2
  6
EXLTYPE3
 62
     1
100
AcDbLine
 10
39.444754
 20
149.978
 30
0.0
 11
61.314754
 21
149.978
 31
0.0
  0
LINE
  5
1C9
100
AcDbEntity
  8
LAY-2
  6
CONTINUOUS
 62
     3
100
AcDbLine
 10
43.781413
 20
154.628
 30
0.0
 11
43.781413
 21
146.478
 31
0.0
  0
LINE
  5
1CA
100
AcDbEntity
  8
LAY-2
  6
CONTINUOUS
 62
     3
100
AcDbLine
 10
41.781413
 20
152.196904
 30
0.0
 11
41.781413
 21
147.759096
 31
0.0
  0
LINE
  5
1CB
100
AcDbEntity
  8
LAY-2
  6
CONTINUOUS
 62
     3
100
AcDbLine
 10
56.581413
 20
154.628
 30
0.0
 11
55.181413
 21
154.628
 31
0.0
  0
LINE
  5
1CC
100
AcDbEntity
  8
LAY-2
  6
CONTINUOUS
 62
     3
100
AcDbLine
 10
56.581413
 20
153.278
 30
0.0
 11
55.181413
 21
153.278
 31
0.0
  0
LINE
  5
1CD
100
AcDbEntity
  8
LAY-2
  6
CONTINUOUS
 62
     3
100
AcDbLine
 10
56.781413
 20
154.628
 30
0.0
 11
56.781413
 21
146.478
 31
0.0
  0
LINE
  5
1CE
100
AcDbEntity
  8
LAY-2
  6
CONTINUOUS
 62
     3
100
AcDbLine
 10
56.581413
 20
154.628
 30
0.0
 11
56.581413
 21
146.478
 31
0.0
  0
LINE
  5
1CF
100
AcDbEntity
  8
LAY-2
  6
CONTINUOUS
 62
     3
100
AcDbLine
 10
55.181413
 20
154.628
 30
0.0
 11
55.181413
 21
146.478
 31
0.0
  0
LINE
  5
1D0
100
AcDbEntity
  8
LAY-2
  6
CONTINUOUS
 62
     3
100
AcDbLine
 10
57.781413
 20
154.628
 30
0.0
 11
56.781413
 21
154.628
 31
0.0
  0
LINE
  5
1D1
100
AcDbEntity
  8
LAY-2
  6
CONTINUOUS
 62
     3
100
AcDbLine
 10
57.781413
 20
153.278
 30
0.0
 11
56.781413
 21
153.278
 31
0.0
  0
LINE
  5
1D2
100
AcDbEntity
  8
LAY-2
  6
CONTINUOUS
 62
     3
100
AcDbLine
 10
57.781413
 20
154.628
 30
0.0
 11
57.781413
 21
146.478
 31
0.0
  0
LINE
  5
1D3
100
AcDbEntity
  8
LAY-2
  6
CONTINUOUS
 62
     3
100
AcDbLine
 10
59.781413
 20
152.196904
 30
0.0
 11
59.781413
 21
147.759096
 31
0.0
  0
LINE
  5
1D4
100
AcDbEntity
  8
LAY-2
  6
CONTINUOUS
 62
     3
100
AcDbLine
 10
178.7665
 20
152.678
 30
0.0
 11
178.7665
 21
149.978
 31
0.0
  0
LINE
  5
1D5
100
AcDbEntity
  8
LAY-2
  6
CONTINUOUS
 62
     3
100
AcDbLine
 10
178.7665
 20
155.978
 30
0.0
 11
178.7665
 21
152.678
 31
0.0
  0
LINE
  5
1D6
100
AcDbEntity
  8
LAY-2
  6
CONTINUOUS
 62
     3
100
AcDbLine
 10
178.7665
 20
149.978
 30
0.0
 11
178.7665
 21
145.228
 31
0.0
  0
LINE
  5
1D7
100
AcDbEntity
  8
LAY-2
  6
CONTINUOUS
 62
     3
100
AcDbLine
 10
177.0665
 20
155.978
 30
0.0
 11
177.0665
 21
145.228
 31
0.0
  0
LINE
  5
1D8
100
AcDbEntity
  8
LAY-2
  6
CONTINUOUS
 62
     3
100
AcDbLine
 10
177.2665
 20
155.978
 30
0.0
 11
177.2665
 21
145.228
 31
0.0
  0
LINE
  5
1D9
100
AcDbEntity
  8
LAY-2
  6
CONTINUOUS
 62
     3
100
AcDbLine
 10
175.8665
 20
155.978
 30
0.0
 11
175.8665
 21
145.228
 31
0.0
  0
LINE
  5
1DA
100
AcDbEntity
  8
LAY-2
  6
CONTINUOUS
 62
     3
100
AcDbLine
 10
173.5665
 20
152.683981
 30
0.0
 11
173.5665
 21
147.272019
 31
0.0
  0
LINE
  5
1DB
100
AcDbEntity
  8
LAY-2
  6
CONTINUOUS
 62
     3
100
AcDbLine
 10
192.8665
 20
152.678
 30
0.0
 11
192.8665
 21
149.978
 31
0.0
  0
LINE
  5
1DC
100
AcDbEntity
  8
LAY-2
  6
CONTINUOUS
 62
     3
100
AcDbLine
 10
192.8665
 20
155.978
 30
0.0
 11
192.8665
 21
152.678
 31
0.0
  0
LINE
  5
1DD
100
AcDbEntity
  8
LAY-2
  6
CONTINUOUS
 62
     3
100
AcDbLine
 10
192.8665
 20
149.978
 30
0.0
 11
192.8665
 21
145.228
 31
0.0
  0
LINE
  5
1DE
100
AcDbEntity
  8
LAY-2
  6
CONTINUOUS
 62
     3
100
AcDbLine
 10
194.5665
 20
155.978
 30
0.0
 11
194.5665
 21
145.228
 31
0.0
  0
LINE
  5
1DF
100
AcDbEntity
  8
LAY-2
  6
CONTINUOUS
 62
     3
100
AcDbLine
 10
194.3665
 20
155.978
 30
0.0
 11
194.3665
 21
145.228
 31
0.0
  0
LINE
  5
1E0
100
AcDbEntity
  8
LAY-2
  6
CONTINUOUS
 62
     3
100
AcDbLine
 10
195.7665
 20
155.978
 30
0.0
 11
195.7665
 21
145.228
 31
0.0
  0
LINE
  5
1E1
100
AcDbEntity
  8
LAY-2
  6
CONTINUOUS
 62
     3
100
AcDbLine
 10
198.0665
 20
152.683981
 30
0.0
 11
198.0665
 21
147.272019
 31
0.0
  0
LINE
  5
1E2
100
AcDbEntity
  8
LAY-2
  6
EXLTYPE3
 62
     1
100
AcDbLine
 10
282.86
 20
149.978
 30
0.0
 11
289.773342
 21
149.978
 31
0.0
  0
LINE
  5
1E3
100
AcDbEntity
  8
LAY-2
  6
CONTINUOUS
 62
     3
100
AcDbLine
 10
282.86
 20
149.978
 30
0.0
 11
282.86
 21
156.728
 31
0.0
  0
LINE
  5
1E4
100
AcDbEntity
  8
LAY-2
  6
CONTINUOUS
 62
     3
100
AcDbLine
 10
282.86
 20
144.478
 30
0.0
 11
282.86
 21
147.278
 31
0.0
  0
LINE
  5
1E5
100
AcDbEntity
  8
LAY-2
  6
CONTINUOUS
 62
     3
100
AcDbLine
 10
286.06
 20
144.478
 30
0.0
 11
286.06
 21
156.728
 31
0.0
  0
LINE
  5
1E6
100
AcDbEntity
  8
LAY-2
  6
CONTINUOUS
 62
     3
100
AcDbLine
 10
284.66
 20
144.478
 30
0.0
 11
284.66
 21
156.728
 31
0.0
  0
LINE
  5
1E7
100
AcDbEntity
  8
LAY-2
  6
CONTINUOUS
 62
     3
100
AcDbLine
 10
284.46
 20
144.478
 30
0.0
 11
284.46
 21
156.728
 31
0.0
  0
LINE
  5
1E8
100
AcDbEntity
  8
LAY-2
  6
CONTINUOUS
 62
     3
100
AcDbLine
 10
288.66
 20
146.243747
 30
0.0
 11
288.66
 21
153.712253
 31
0.0
  0
LINE
  5
1E9
100
AcDbEntity
  8
LAY-2
  6
CONTINUOUS
 62
     3
100
AcDbLine
 10
268.96
 20
152.978
 30
0.0
 11
268.96
 21
146.978
 31
0.0
  0
LINE
  5
1EA
100
AcDbEntity
  8
LAY-2
  6
CONTINUOUS
 62
     3
100
AcDbLine
 10
268.96
 20
149.978
 30
0.0
 11
268.96
 21
156.728
 31
0.0
  0
LINE
  5
1EB
100
AcDbEntity
  8
LAY-2
  6
CONTINUOUS
 62
     3
100
AcDbLine
 10
268.96
 20
144.478
 30
0.0
 11
268.96
 21
147.278
 31
0.0
  0
LINE
  5
1EC
100
AcDbEntity
  8
LAY-2
  6
CONTINUOUS
 62
     3
100
AcDbLine
 10
265.76
 20
144.478
 30
0.0
 11
265.76
 21
156.728
 31
0.0
  0
LINE
  5
1ED
100
AcDbEntity
  8
LAY-2
  6
CONTINUOUS
 62
     3
100
AcDbLine
 10
267.16
 20
144.478
 30
0.0
 11
267.16
 21
156.728
 31
0.0
  0
LINE
  5
1EE
100
AcDbEntity
  8
LAY-2
  6
CONTINUOUS
 62
     3
100
AcDbLine
 10
267.36
 20
144.478
 30
0.0
 11
267.36
 21
156.728
 31
0.0
  0
LINE
  5
1EF
100
AcDbEntity
  8
LAY-2
  6
CONTINUOUS
 62
     3
100
AcDbLine
 10
263.16
 20
146.243747
 30
0.0
 11
263.16
 21
153.712253
 31
0.0
  0
LINE
  5
1F0
100
AcDbEntity
  8
LAY-2
  6
CONTINUOUS
 62
     3
100
AcDbLine
 10
44.981413
 20
149.304862
 30
0.0
 11
46.381413
 21
149.304862
 31
0.0
  0
LINE
  5
1F1
100
AcDbEntity
  8
LAY-2
  6
CONTINUOUS
 62
     3
100
AcDbLine
 10
44.981413
 20
147.078
 30
0.0
 11
46.381413
 21
147.078
 31
0.0
  0
LINE
  5
1F2
100
AcDbEntity
  8
LAY-2
  6
CONTINUOUS
 62
     3
100
AcDbLine
 10
44.981413
 20
146.478
 30
0.0
 11
46.381413
 21
146.478
 31
0.0
  0
LINE
  5
1F3
100
AcDbEntity
  8
LAY-2
  6
CONTINUOUS
 62
     3
100
AcDbLine
 10
44.781413
 20
152.878
 30
0.0
 11
44.981413
 21
152.878
 31
0.0
  0
LINE
  5
1F4
100
AcDbEntity
  8
LAY-2
  6
CONTINUOUS
 62
     3
100
AcDbLine
 10
44.781413
 20
147.078
 30
0.0
 11
44.981413
 21
147.078
 31
0.0
  0
LINE
  5
1F5
100
AcDbEntity
  8
LAY-2
  6
CONTINUOUS
 62
     3
100
AcDbLine
 10
43.781413
 20
149.304862
 30
0.0
 11
44.781413
 21
149.304862
 31
0.0
  0
LINE
  5
1F6
100
AcDbEntity
  8
LAY-2
  6
CONTINUOUS
 62
     3
100
AcDbLine
 10
43.781413
 20
147.078
 30
0.0
 11
44.781413
 21
147.078
 31
0.0
  0
LINE
  5
1F7
100
AcDbEntity
  8
LAY-2
  6
CONTINUOUS
 62
     3
100
AcDbLine
 10
43.781413
 20
146.478
 30
0.0
 11
44.781413
 21
146.478
 31
0.0
  0
LINE
  5
1F8
100
AcDbEntity
  8
LAY-2
  6
CONTINUOUS
 62
     3
100
AcDbLine
 10
41.781413
 20
152.196904
 30
0.0
 11
43.781413
 21
152.196904
 31
0.0
  0
LINE
  5
1F9
100
AcDbEntity
  8
LAY-2
  6
CONTINUOUS
 62
     3
100
AcDbLine
 10
41.781413
 20
151.547002
 30
0.0
 11
43.781413
 21
151.547002
 31
0.0
  0
LINE
  5
1FA
100
AcDbEntity
  8
LAY-2
  6
CONTINUOUS
 62
     3
100
AcDbLine
 10
41.781413
 20
148.408998
 30
0.0
 11
43.781413
 21
148.408998
 31
0.0
  0
LINE
  5
1FB
100
AcDbEntity
  8
LAY-2
  6
CONTINUOUS
 62
     3
100
AcDbLine
 10
41.781413
 20
147.759096
 30
0.0
 11
43.781413
 21
147.759096
 31
0.0
  0
LINE
  5
1FC
100
AcDbEntity
  8
LAY-2
  6
CONTINUOUS
 62
     3
100
AcDbLine
 10
41.781413
 20
149.978
 30
0.0
 11
43.781413
 21
149.978
 31
0.0
  0
LINE
  5
1FD
100
AcDbEntity
  8
LAY-2
  6
CONTINUOUS
 62
     3
100
AcDbLine
 10
56.581413
 20
149.304862
 30
0.0
 11
55.181413
 21
149.304862
 31
0.0
  0
LINE
  5
1FE
100
AcDbEntity
  8
LAY-2
  6
CONTINUOUS
 62
     3
100
AcDbLine
 10
56.581413
 20
147.078
 30
0.0
 11
55.181413
 21
147.078
 31
0.0
  0
LINE
  5
1FF
100
AcDbEntity
  8
LAY-2
  6
CONTINUOUS
 62
     3
100
AcDbLine
 10
56.581413
 20
146.478
 30
0.0
 11
55.181413
 21
146.478
 31
0.0
  0
LINE
  5
200
100
AcDbEntity
  8
LAY-2
  6
CONTINUOUS
 62
     3
100
AcDbLine
 10
56.781413
 20
152.878
 30
0.0
 11
56.581413
 21
152.878
 31
0.0
  0
LINE
  5
201
100
AcDbEntity
  8
LAY-2
  6
CONTINUOUS
 62
     3
100
AcDbLine
 10
56.781413
 20
147.078
 30
0.0
 11
56.581413
 21
147.078
 31
0.0
  0
LINE
  5
202
100
AcDbEntity
  8
LAY-2
  6
CONTINUOUS
 62
     3
100
AcDbLine
 10
57.781413
 20
149.304862
 30
0.0
 11
56.781413
 21
149.304862
 31
0.0
  0
LINE
  5
203
100
AcDbEntity
  8
LAY-2
  6
CONTINUOUS
 62
     3
100
AcDbLine
 10
57.781413
 20
147.078
 30
0.0
 11
56.781413
 21
147.078
 31
0.0
  0
LINE
  5
204
100
AcDbEntity
  8
LAY-2
  6
CONTINUOUS
 62
     3
100
AcDbLine
 10
57.781413
 20
146.478
 30
0.0
 11
56.781413
 21
146.478
 31
0.0
  0
LINE
  5
205
100
AcDbEntity
  8
LAY-2
  6
CONTINUOUS
 62
     3
100
AcDbLine
 10
59.781413
 20
152.196904
 30
0.0
 11
57.781413
 21
152.196904
 31
0.0
  0
LINE
  5
206
100
AcDbEntity
  8
LAY-2
  6
CONTINUOUS
 62
     3
100
AcDbLine
 10
59.781413
 20
151.547002
 30
0.0
 11
57.781413
 21
151.547002
 31
0.0
  0
LINE
  5
207
100
AcDbEntity
  8
LAY-2
  6
CONTINUOUS
 62
     3
100
AcDbLine
 10
59.781413
 20
148.408998
 30
0.0
 11
57.781413
 21
148.408998
 31
0.0
  0
LINE
  5
208
100
AcDbEntity
  8
LAY-2
  6
CONTINUOUS
 62
     3
100
AcDbLine
 10
59.781413
 20
147.759096
 30
0.0
 11
57.781413
 21
147.759096
 31
0.0
  0
LINE
  5
209
100
AcDbEntity
  8
LAY-2
  6
CONTINUOUS
 62
     3
100
AcDbLine
 10
59.781413
 20
149.978
 30
0.0
 11
57.781413
 21
149.978
 31
0.0
  0
LINE
  5
20A
100
AcDbEntity
  8
LAY-2
  6
CONTINUOUS
 62
     3
100
AcDbLine
 10
175.8665
 20
155.978
 30
0.0
 11
177.0665
 21
155.978
 31
0.0
  0
LINE
  5
20B
100
AcDbEntity
  8
LAY-2
  6
CONTINUOUS
 62
     3
100
AcDbLine
 10
177.2665
 20
155.978
 30
0.0
 11
178.7665
 21
155.978
 31
0.0
  0
LINE
  5
20C
100
AcDbEntity
  8
LAY-2
  6
CONTINUOUS
 62
     3
100
AcDbLine
 10
175.8665
 20
154.563526
 30
0.0
 11
177.0665
 21
154.563526
 31
0.0
  0
LINE
  5
20D
100
AcDbEntity
  8
LAY-2
  6
CONTINUOUS
 62
     3
100
AcDbLine
 10
177.2665
 20
154.563526
 30
0.0
 11
178.7665
 21
154.563526
 31
0.0
  0
LINE
  5
20E
100
AcDbEntity
  8
LAY-2
  6
CONTINUOUS
 62
     3
100
AcDbLine
 10
175.8665
 20
148.758357
 30
0.0
 11
177.0665
 21
148.758357
 31
0.0
  0
LINE
  5
20F
100
AcDbEntity
  8
LAY-2
  6
CONTINUOUS
 62
     3
100
AcDbLine
 10
177.2665
 20
148.758357
 30
0.0
 11
178.7665
 21
148.758357
 31
0.0
  0
LINE
  5
210
100
AcDbEntity
  8
LAY-2
  6
CONTINUOUS
 62
     3
100
AcDbLine
 10
175.8665
 20
146.353
 30
0.0
 11
177.0665
 21
146.353
 31
0.0
  0
LINE
  5
211
100
AcDbEntity
  8
LAY-2
  6
CONTINUOUS
 62
     3
100
AcDbLine
 10
177.2665
 20
146.353
 30
0.0
 11
178.7665
 21
146.353
 31
0.0
  0
LINE
  5
212
100
AcDbEntity
  8
LAY-2
  6
CONTINUOUS
 62
     3
100
AcDbLine
 10
175.8665
 20
145.228
 30
0.0
 11
177.0665
 21
145.228
 31
0.0
  0
LINE
  5
213
100
AcDbEntity
  8
LAY-2
  6
CONTINUOUS
 62
     3
100
AcDbLine
 10
177.2665
 20
145.228
 30
0.0
 11
178.7665
 21
145.228
 31
0.0
  0
LINE
  5
214
100
AcDbEntity
  8
LAY-2
  6
CONTINUOUS
 62
     3
100
AcDbLine
 10
177.2665
 20
153.978
 30
0.0
 11
177.0665
 21
153.978
 31
0.0
  0
LINE
  5
215
100
AcDbEntity
  8
LAY-2
  6
CONTINUOUS
 62
     3
100
AcDbLine
 10
177.2665
 20
145.978
 30
0.0
 11
177.0665
 21
145.978
 31
0.0
  0
LINE
  5
216
100
AcDbEntity
  8
LAY-2
  6
CONTINUOUS
 62
     3
100
AcDbLine
 10
173.5665
 20
149.978
 30
0.0
 11
175.8665
 21
149.978
 31
0.0
  0
LINE
  5
217
100
AcDbEntity
  8
LAY-2
  6
CONTINUOUS
 62
     3
100
AcDbLine
 10
173.5665
 20
147.272019
 30
0.0
 11
175.8665
 21
147.272019
 31
0.0
  0
LINE
  5
218
100
AcDbEntity
  8
LAY-2
  6
CONTINUOUS
 62
     3
100
AcDbLine
 10
173.5665
 20
148.064583
 30
0.0
 11
175.8665
 21
148.064583
 31
0.0
  0
LINE
  5
219
100
AcDbEntity
  8
LAY-2
  6
CONTINUOUS
 62
     3
100
AcDbLine
 10
173.5665
 20
151.891417
 30
0.0
 11
175.8665
 21
151.891417
 31
0.0
  0
LINE
  5
21A
100
AcDbEntity
  8
LAY-2
  6
CONTINUOUS
 62
     3
100
AcDbLine
 10
173.5665
 20
152.683981
 30
0.0
 11
175.8665
 21
152.683981
 31
0.0
  0
LINE
  5
21B
100
AcDbEntity
  8
LAY-2
  6
CONTINUOUS
 62
     3
100
AcDbLine
 10
195.7665
 20
155.978
 30
0.0
 11
194.5665
 21
155.978
 31
0.0
  0
LINE
  5
21C
100
AcDbEntity
  8
LAY-2
  6
CONTINUOUS
 62
     3
100
AcDbLine
 10
194.3665
 20
155.978
 30
0.0
 11
192.8665
 21
155.978
 31
0.0
  0
LINE
  5
21D
100
AcDbEntity
  8
LAY-2
  6
CONTINUOUS
 62
     3
100
AcDbLine
 10
195.7665
 20
154.563526
 30
0.0
 11
194.5665
 21
154.563526
 31
0.0
  0
LINE
  5
21E
100
AcDbEntity
  8
LAY-2
  6
CONTINUOUS
 62
     3
100
AcDbLine
 10
194.3665
 20
154.563526
 30
0.0
 11
192.8665
 21
154.563526
 31
0.0
  0
LINE
  5
21F
100
AcDbEntity
  8
LAY-2
  6
CONTINUOUS
 62
     3
100
AcDbLine
 10
195.7665
 20
148.758357
 30
0.0
 11
194.5665
 21
148.758357
 31
0.0
  0
LINE
  5
220
100
AcDbEntity
  8
LAY-2
  6
CONTINUOUS
 62
     3
100
AcDbLine
 10
194.3665
 20
148.758357
 30
0.0
 11
192.8665
 21
148.758357
 31
0.0
  0
LINE
  5
221
100
AcDbEntity
  8
LAY-2
  6
CONTINUOUS
 62
     3
100
AcDbLine
 10
195.7665
 20
146.353
 30
0.0
 11
194.5665
 21
146.353
 31
0.0
  0
LINE
  5
222
100
AcDbEntity
  8
LAY-2
  6
CONTINUOUS
 62
     3
100
AcDbLine
 10
194.3665
 20
146.353
 30
0.0
 11
192.8665
 21
146.353
 31
0.0
  0
LINE
  5
223
100
AcDbEntity
  8
LAY-2
  6
CONTINUOUS
 62
     3
100
AcDbLine
 10
195.7665
 20
145.228
 30
0.0
 11
194.5665
 21
145.228
 31
0.0
  0
LINE
  5
224
100
AcDbEntity
  8
LAY-2
  6
CONTINUOUS
 62
     3
100
AcDbLine
 10
194.3665
 20
145.228
 30
0.0
 11
192.8665
 21
145.228
 31
0.0
  0
LINE
  5
225
100
AcDbEntity
  8
LAY-2
  6
CONTINUOUS
 62
     3
100
AcDbLine
 10
194.3665
 20
153.978
 30
0.0
 11
194.5665
 21
153.978
 31
0.0
  0
LINE
  5
226
100
AcDbEntity
  8
LAY-2
  6
CONTINUOUS
 62
     3
100
AcDbLine
 10
194.3665
 20
145.978
 30
0.0
 11
194.5665
 21
145.978
 31
0.0
  0
LINE
  5
227
100
AcDbEntity
  8
LAY-2
  6
CONTINUOUS
 62
     3
100
AcDbLine
 10
198.0665
 20
149.978
 30
0.0
 11
195.7665
 21
149.978
 31
0.0
  0
LINE
  5
228
100
AcDbEntity
  8
LAY-2
  6
CONTINUOUS
 62
     3
100
AcDbLine
 10
198.0665
 20
147.272019
 30
0.0
 11
195.7665
 21
147.272019
 31
0.0
  0
LINE
  5
229
100
AcDbEntity
  8
LAY-2
  6
CONTINUOUS
 62
     3
100
AcDbLine
 10
198.0665
 20
148.064583
 30
0.0
 11
195.7665
 21
148.064583
 31
0.0
  0
LINE
  5
22A
100
AcDbEntity
  8
LAY-2
  6
CONTINUOUS
 62
     3
100
AcDbLine
 10
198.0665
 20
151.891417
 30
0.0
 11
195.7665
 21
151.891417
 31
0.0
  0
LINE
  5
22B
100
AcDbEntity
  8
LAY-2
  6
CONTINUOUS
 62
     3
100
AcDbLine
 10
198.0665
 20
152.683981
 30
0.0
 11
195.7665
 21
152.683981
 31
0.0
  0
LINE
  5
22C
100
AcDbEntity
  8
LAY-2
  6
CONTINUOUS
 62
     3
100
AcDbLine
 10
284.46
 20
156.728
 30
0.0
 11
282.86
 21
156.728
 31
0.0
  0
LINE
  5
22D
100
AcDbEntity
  8
LAY-2
  6
CONTINUOUS
 62
     3
100
AcDbLine
 10
286.06
 20
156.728
 30
0.0
 11
284.66
 21
156.728
 31
0.0
  0
LINE
  5
22E
100
AcDbEntity
  8
LAY-2
  6
CONTINUOUS
 62
     3
100
AcDbLine
 10
286.06
 20
148.374542
 30
0.0
 11
284.66
 21
148.374542
 31
0.0
  0
LINE
  5
22F
100
AcDbEntity
  8
LAY-2
  6
CONTINUOUS
 62
     3
100
AcDbLine
 10
284.46
 20
148.374542
 30
0.0
 11
282.86
 21
148.374542
 31
0.0
  0
LINE
  5
230
100
AcDbEntity
  8
LAY-2
  6
CONTINUOUS
 62
     3
100
AcDbLine
 10
286.06
 20
145.978
 30
0.0
 11
284.66
 21
145.978
 31
0.0
  0
LINE
  5
231
100
AcDbEntity
  8
LAY-2
  6
CONTINUOUS
 62
     3
100
AcDbLine
 10
284.46
 20
145.978
 30
0.0
 11
282.86
 21
145.978
 31
0.0
  0
LINE
  5
232
100
AcDbEntity
  8
LAY-2
  6
CONTINUOUS
 62
     3
100
AcDbLine
 10
286.06
 20
155.335955
 30
0.0
 11
284.66
 21
155.335955
 31
0.0
  0
LINE
  5
233
100
AcDbEntity
  8
LAY-2
  6
CONTINUOUS
 62
     3
100
AcDbLine
 10
284.46
 20
155.335955
 30
0.0
 11
282.86
 21
155.335955
 31
0.0
  0
LINE
  5
234
100
AcDbEntity
  8
LAY-2
  6
CONTINUOUS
 62
     3
100
AcDbLine
 10
286.06
 20
144.478
 30
0.0
 11
284.66
 21
144.478
 31
0.0
  0
LINE
  5
235
100
AcDbEntity
  8
LAY-2
  6
CONTINUOUS
 62
     3
100
AcDbLine
 10
284.46
 20
144.478
 30
0.0
 11
282.86
 21
144.478
 31
0.0
  0
LINE
  5
236
100
AcDbEntity
  8
LAY-2
  6
CONTINUOUS
 62
     3
100
AcDbLine
 10
288.66
 20
149.978
 30
0.0
 11
286.06
 21
149.978
 31
0.0
  0
LINE
  5
237
100
AcDbEntity
  8
LAY-2
  6
CONTINUOUS
 62
     3
100
AcDbLine
 10
288.66
 20
153.712253
 30
0.0
 11
286.06
 21
153.712253
 31
0.0
  0
LINE
  5
238
100
AcDbEntity
  8
LAY-2
  6
CONTINUOUS
 62
     3
100
AcDbLine
 10
288.66
 20
152.618516
 30
0.0
 11
286.06
 21
152.618516
 31
0.0
  0
LINE
  5
239
100
AcDbEntity
  8
LAY-2
  6
CONTINUOUS
 62
     3
100
AcDbLine
 10
288.66
 20
147.337484
 30
0.0
 11
286.06
 21
147.337484
 31
0.0
  0
LINE
  5
23A
100
AcDbEntity
  8
LAY-2
  6
CONTINUOUS
 62
     3
100
AcDbLine
 10
288.66
 20
146.243747
 30
0.0
 11
286.06
 21
146.243747
 31
0.0
  0
LINE
  5
23B
100
AcDbEntity
  8
LAY-2
  6
CONTINUOUS
 62
     3
100
AcDbLine
 10
267.36
 20
156.728
 30
0.0
 11
268.96
 21
156.728
 31
0.0
  0
LINE
  5
23C
100
AcDbEntity
  8
LAY-2
  6
CONTINUOUS
 62
     3
100
AcDbLine
 10
265.76
 20
156.728
 30
0.0
 11
267.16
 21
156.728
 31
0.0
  0
LINE
  5
23D
100
AcDbEntity
  8
LAY-2
  6
CONTINUOUS
 62
     3
100
AcDbLine
 10
265.76
 20
148.374542
 30
0.0
 11
267.16
 21
148.374542
 31
0.0
  0
LINE
  5
23E
100
AcDbEntity
  8
LAY-2
  6
CONTINUOUS
 62
     3
100
AcDbLine
 10
267.36
 20
148.374542
 30
0.0
 11
268.96
 21
148.374542
 31
0.0
  0
LINE
  5
23F
100
AcDbEntity
  8
LAY-2
  6
CONTINUOUS
 62
     3
100
AcDbLine
 10
265.76
 20
145.978
 30
0.0
 11
267.16
 21
145.978
 31
0.0
  0
LINE
  5
240
100
AcDbEntity
  8
LAY-2
  6
CONTINUOUS
 62
     3
100
AcDbLine
 10
267.36
 20
145.978
 30
0.0
 11
268.96
 21
145.978
 31
0.0
  0
LINE
  5
241
100
AcDbEntity
  8
LAY-2
  6
CONTINUOUS
 62
     3
100
AcDbLine
 10
265.76
 20
155.335955
 30
0.0
 11
267.16
 21
155.335955
 31
0.0
  0
LINE
  5
242
100
AcDbEntity
  8
LAY-2
  6
CONTINUOUS
 62
     3
100
AcDbLine
 10
267.36
 20
155.335955
 30
0.0
 11
268.96
 21
155.335955
 31
0.0
  0
LINE
  5
243
100
AcDbEntity
  8
LAY-2
  6
CONTINUOUS
 62
     3
100
AcDbLine
 10
265.76
 20
144.478
 30
0.0
 11
267.16
 21
144.478
 31
0.0
  0
LINE
  5
244
100
AcDbEntity
  8
LAY-2
  6
CONTINUOUS
 62
     3
100
AcDbLine
 10
267.36
 20
144.478
 30
0.0
 11
268.96
 21
144.478
 31
0.0
  0
LINE
  5
245
100
AcDbEntity
  8
LAY-2
  6
CONTINUOUS
 62
     3
100
AcDbLine
 10
263.16
 20
149.978
 30
0.0
 11
265.76
 21
149.978
 31
0.0
  0
LINE
  5
246
100
AcDbEntity
  8
LAY-2
  6
CONTINUOUS
 62
     3
100
AcDbLine
 10
263.16
 20
153.712253
 30
0.0
 11
265.76
 21
153.712253
 31
0.0
  0
LINE
  5
247
100
AcDbEntity
  8
LAY-2
  6
CONTINUOUS
 62
     3
100
AcDbLine
 10
263.16
 20
152.618516
 30
0.0
 11
265.76
 21
152.618516
 31
0.0
  0
LINE
  5
248
100
AcDbEntity
  8
LAY-2
  6
CONTINUOUS
 62
     3
100
AcDbLine
 10
263.16
 20
147.337484
 30
0.0
 11
265.76
 21
147.337484
 31
0.0
  0
LINE
  5
249
100
AcDbEntity
  8
LAY-2
  6
CONTINUOUS
 62
     3
100
AcDbLine
 10
263.16
 20
146.243747
 30
0.0
 11
265.76
 21
146.243747
 31
0.0
  0
LINE
  5
24A
100
AcDbEntity
  8
LAY-2
  6
CONTINUOUS
 62
     3
100
AcDbLine
 10
267.16
 20
154.778
 30
0.0
 11
267.36
 21
154.778
 31
0.0
  0
LINE
  5
24B
100
AcDbEntity
  8
LAY-2
  6
CONTINUOUS
 62
     3
100
AcDbLine
 10
267.16
 20
145.178
 30
0.0
 11
267.36
 21
145.178
 31
0.0
  0
LINE
  5
24C
100
AcDbEntity
  8
LAY-2
  6
CONTINUOUS
 62
     3
100
AcDbLine
 10
284.46
 20
154.778
 30
0.0
 11
284.66
 21
154.778
 31
0.0
  0
LINE
  5
24D
100
AcDbEntity
  8
LAY-2
  6
CONTINUOUS
 62
     3
100
AcDbLine
 10
284.46
 20
145.178
 30
0.0
 11
284.66
 21
145.178
 31
0.0
  0
LINE
  5
24E
100
AcDbEntity
  8
LAY-2
  6
CONTINUOUS
 62
     3
100
AcDbLine
 10
46.381413
 20
151.928
 30
0.0
 11
47.543369
 21
151.928
 31
0.0
  0
ARC
  5
24F
100
AcDbEntity
  8
LAY-2
  6
CONTINUOUS
 62
     3
100
AcDbCircle
 10
47.543369
 20
152.628
 30
0.0
 40
0.7
100
AcDbArc
 50
270.0
 51
314.736082
  0
ARC
  5
250
100
AcDbEntity
  8
LAY-2
  6
CONTINUOUS
 62
     3
100
AcDbCircle
 10
49.025687
 20
151.131964
 30
0.0
 40
1.406036
100
AcDbArc
 50
45.263918
 51
134.736082
  0
ARC
  5
251
100
AcDbEntity
  8
LAY-2
  6
CONTINUOUS
 62
     3
100
AcDbCircle
 10
50.508004
 20
152.628
 30
0.0
 40
0.7
100
AcDbArc
 50
225.263918
 51
270.0
  0
LINE
  5
252
100
AcDbEntity
  8
LAY-2
  6
CONTINUOUS
 62
     3
100
AcDbLine
 10
50.508004
 20
151.928
 30
0.0
 11
51.054822
 21
151.928
 31
0.0
  0
ARC
  5
253
100
AcDbEntity
  8
LAY-2
  6
CONTINUOUS
 62
     3
100
AcDbCircle
 10
51.054822
 20
152.628
 30
0.0
 40
0.7
100
AcDbArc
 50
270.0
 51
314.736082
  0
LINE
  5
254
100
AcDbEntity
  8
LAY-2
  6
CONTINUOUS
 62
     3
100
AcDbLine
 10
55.181413
 20
151.928
 30
0.0
 11
54.019456
 21
151.928
 31
0.0
  0
ARC
  5
255
100
AcDbEntity
  8
LAY-2
  6
CONTINUOUS
 62
     3
100
AcDbCircle
 10
54.019456
 20
152.628
 30
0.0
 40
0.7
100
AcDbArc
 50
225.263918
 51
270.0
  0
ARC
  5
256
100
AcDbEntity
  8
LAY-2
  6
CONTINUOUS
 62
     3
100
AcDbCircle
 10
52.537139
 20
151.131964
 30
0.0
 40
1.406036
100
AcDbArc
 50
45.263918
 51
134.736082
  0
LINE
  5
257
100
AcDbEntity
  8
LAY-2
  6
CONTINUOUS
 62
     3
100
AcDbLine
 10
46.381413
 20
154.628
 30
0.0
 11
46.381413
 21
146.478
 31
0.0
  0
LINE
  5
258
100
AcDbEntity
  8
LAY-2
  6
CONTINUOUS
 62
     3
100
AcDbLine
 10
46.381413
 20
148.028
 30
0.0
 11
47.543369
 21
148.028
 31
0.0
  0
ARC
  5
259
100
AcDbEntity
  8
LAY-2
  6
CONTINUOUS
 62
     3
100
AcDbCircle
 10
47.543369
 20
147.328
 30
0.0
 40
0.7
100
AcDbArc
 50
45.263918
 51
90.0
  0
ARC
  5
25A
100
AcDbEntity
  8
LAY-2
  6
CONTINUOUS
 62
     3
100
AcDbCircle
 10
49.025687
 20
148.824036
 30
0.0
 40
1.406036
100
AcDbArc
 50
225.263918
 51
314.736082
  0
ARC
  5
25B
100
AcDbEntity
  8
LAY-2
  6
CONTINUOUS
 62
     3
100
AcDbCircle
 10
50.508004
 20
147.328
 30
0.0
 40
0.7
100
AcDbArc
 50
90.0
 51
134.736082
  0
LINE
  5
25C
100
AcDbEntity
  8
LAY-2
  6
CONTINUOUS
 62
     3
100
AcDbLine
 10
50.508004
 20
148.028
 30
0.0
 11
51.054822
 21
148.028
 31
0.0
  0
ARC
  5
25D
100
AcDbEntity
  8
LAY-2
  6
CONTINUOUS
 62
     3
100
AcDbCircle
 10
51.054822
 20
147.328
 30
0.0
 40
0.7
100
AcDbArc
 50
45.263918
 51
90.0
  0
LINE
  5
25E
100
AcDbEntity
  8
LAY-2
  6
CONTINUOUS
 62
     3
100
AcDbLine
 10
55.181413
 20
148.028
 30
0.0
 11
54.019456
 21
148.028
 31
0.0
  0
ARC
  5
25F
100
AcDbEntity
  8
LAY-2
  6
CONTINUOUS
 62
     3
100
AcDbCircle
 10
54.019456
 20
147.328
 30
0.0
 40
0.7
100
AcDbArc
 50
90.0
 51
134.736082
  0
ARC
  5
260
100
AcDbEntity
  8
LAY-2
  6
CONTINUOUS
 62
     3
100
AcDbCircle
 10
52.537139
 20
148.824036
 30
0.0
 40
1.406036
100
AcDbArc
 50
225.263918
 51
314.736082
  0
LINE
  5
261
100
AcDbEntity
  8
LAY-2
  6
CONTINUOUS
 62
     3
100
AcDbLine
 10
90.2
 20
154.628
 30
0.0
 11
91.6
 21
154.628
 31
0.0
  0
LINE
  5
262
100
AcDbEntity
  8
LAY-2
  6
CONTINUOUS
 62
     3
100
AcDbLine
 10
90.2
 20
153.278
 30
0.0
 11
91.6
 21
153.278
 31
0.0
  0
LINE
  5
263
100
AcDbEntity
  8
LAY-2
  6
CONTINUOUS
 62
     3
100
AcDbLine
 10
90.0
 20
154.628
 30
0.0
 11
90.0
 21
146.478
 31
0.0
  0
LINE
  5
264
100
AcDbEntity
  8
LAY-2
  6
CONTINUOUS
 62
     3
100
AcDbLine
 10
90.2
 20
154.628
 30
0.0
 11
90.2
 21
146.478
 31
0.0
  0
LINE
  5
265
100
AcDbEntity
  8
LAY-2
  6
CONTINUOUS
 62
     3
100
AcDbLine
 10
89.0
 20
154.628
 30
0.0
 11
90.0
 21
154.628
 31
0.0
  0
LINE
  5
266
100
AcDbEntity
  8
LAY-2
  6
CONTINUOUS
 62
     3
100
AcDbLine
 10
89.0
 20
153.278
 30
0.0
 11
90.0
 21
153.278
 31
0.0
  0
LINE
  5
267
100
AcDbEntity
  8
LAY-2
  6
EXLTYPE3
 62
     1
100
AcDbLine
 10
84.663342
 20
149.978
 30
0.0
 11
106.533342
 21
149.978
 31
0.0
  0
LINE
  5
268
100
AcDbEntity
  8
LAY-2
  6
CONTINUOUS
 62
     3
100
AcDbLine
 10
89.0
 20
154.628
 30
0.0
 11
89.0
 21
146.478
 31
0.0
  0
LINE
  5
269
100
AcDbEntity
  8
LAY-2
  6
CONTINUOUS
 62
     3
100
AcDbLine
 10
87.0
 20
152.196904
 30
0.0
 11
87.0
 21
147.759096
 31
0.0
  0
LINE
  5
26A
100
AcDbEntity
  8
LAY-2
  6
CONTINUOUS
 62
     3
100
AcDbLine
 10
101.8
 20
154.628
 30
0.0
 11
100.4
 21
154.628
 31
0.0
  0
LINE
  5
26B
100
AcDbEntity
  8
LAY-2
  6
CONTINUOUS
 62
     3
100
AcDbLine
 10
101.8
 20
153.278
 30
0.0
 11
100.4
 21
153.278
 31
0.0
  0
LINE
  5
26C
100
AcDbEntity
  8
LAY-2
  6
CONTINUOUS
 62
     3
100
AcDbLine
 10
102.0
 20
154.628
 30
0.0
 11
102.0
 21
146.478
 31
0.0
  0
LINE
  5
26D
100
AcDbEntity
  8
LAY-2
  6
CONTINUOUS
 62
     3
100
AcDbLine
 10
101.8
 20
154.628
 30
0.0
 11
101.8
 21
146.478
 31
0.0
  0
LINE
  5
26E
100
AcDbEntity
  8
LAY-2
  6
CONTINUOUS
 62
     3
100
AcDbLine
 10
100.4
 20
154.628
 30
0.0
 11
100.4
 21
146.478
 31
0.0
  0
LINE
  5
26F
100
AcDbEntity
  8
LAY-2
  6
CONTINUOUS
 62
     3
100
AcDbLine
 10
103.0
 20
154.628
 30
0.0
 11
102.0
 21
154.628
 31
0.0
  0
LINE
  5
270
100
AcDbEntity
  8
LAY-2
  6
CONTINUOUS
 62
     3
100
AcDbLine
 10
103.0
 20
153.278
 30
0.0
 11
102.0
 21
153.278
 31
0.0
  0
LINE
  5
271
100
AcDbEntity
  8
LAY-2
  6
CONTINUOUS
 62
     3
100
AcDbLine
 10
103.0
 20
154.628
 30
0.0
 11
103.0
 21
146.478
 31
0.0
  0
LINE
  5
272
100
AcDbEntity
  8
LAY-2
  6
CONTINUOUS
 62
     3
100
AcDbLine
 10
105.0
 20
152.196904
 30
0.0
 11
105.0
 21
147.759096
 31
0.0
  0
LINE
  5
273
100
AcDbEntity
  8
LAY-2
  6
CONTINUOUS
 62
     3
100
AcDbLine
 10
90.2
 20
149.304862
 30
0.0
 11
91.6
 21
149.304862
 31
0.0
  0
LINE
  5
274
100
AcDbEntity
  8
LAY-2
  6
CONTINUOUS
 62
     3
100
AcDbLine
 10
90.2
 20
147.078
 30
0.0
 11
91.6
 21
147.078
 31
0.0
  0
LINE
  5
275
100
AcDbEntity
  8
LAY-2
  6
CONTINUOUS
 62
     3
100
AcDbLine
 10
90.2
 20
146.478
 30
0.0
 11
91.6
 21
146.478
 31
0.0
  0
LINE
  5
276
100
AcDbEntity
  8
LAY-2
  6
CONTINUOUS
 62
     3
100
AcDbLine
 10
90.0
 20
152.878
 30
0.0
 11
90.2
 21
152.878
 31
0.0
  0
LINE
  5
277
100
AcDbEntity
  8
LAY-2
  6
CONTINUOUS
 62
     3
100
AcDbLine
 10
90.0
 20
147.078
 30
0.0
 11
90.2
 21
147.078
 31
0.0
  0
LINE
  5
278
100
AcDbEntity
  8
LAY-2
  6
CONTINUOUS
 62
     3
100
AcDbLine
 10
89.0
 20
149.304862
 30
0.0
 11
90.0
 21
149.304862
 31
0.0
  0
LINE
  5
279
100
AcDbEntity
  8
LAY-2
  6
CONTINUOUS
 62
     3
100
AcDbLine
 10
89.0
 20
147.078
 30
0.0
 11
90.0
 21
147.078
 31
0.0
  0
LINE
  5
27A
100
AcDbEntity
  8
LAY-2
  6
CONTINUOUS
 62
     3
100
AcDbLine
 10
89.0
 20
146.478
 30
0.0
 11
90.0
 21
146.478
 31
0.0
  0
LINE
  5
27B
100
AcDbEntity
  8
LAY-2
  6
CONTINUOUS
 62
     3
100
AcDbLine
 10
87.0
 20
152.196904
 30
0.0
 11
89.0
 21
152.196904
 31
0.0
  0
LINE
  5
27C
100
AcDbEntity
  8
LAY-2
  6
CONTINUOUS
 62
     3
100
AcDbLine
 10
87.0
 20
151.547002
 30
0.0
 11
89.0
 21
151.547002
 31
0.0
  0
LINE
  5
27D
100
AcDbEntity
  8
LAY-2
  6
CONTINUOUS
 62
     3
100
AcDbLine
 10
87.0
 20
148.408998
 30
0.0
 11
89.0
 21
148.408998
 31
0.0
  0
LINE
  5
27E
100
AcDbEntity
  8
LAY-2
  6
CONTINUOUS
 62
     3
100
AcDbLine
 10
87.0
 20
147.759096
 30
0.0
 11
89.0
 21
147.759096
 31
0.0
  0
LINE
  5
27F
100
AcDbEntity
  8
LAY-2
  6
CONTINUOUS
 62
     3
100
AcDbLine
 10
87.0
 20
149.978
 30
0.0
 11
89.0
 21
149.978
 31
0.0
  0
LINE
  5
280
100
AcDbEntity
  8
LAY-2
  6
CONTINUOUS
 62
     3
100
AcDbLine
 10
101.8
 20
149.304862
 30
0.0
 11
100.4
 21
149.304862
 31
0.0
  0
LINE
  5
281
100
AcDbEntity
  8
LAY-2
  6
CONTINUOUS
 62
     3
100
AcDbLine
 10
101.8
 20
147.078
 30
0.0
 11
100.4
 21
147.078
 31
0.0
  0
LINE
  5
282
100
AcDbEntity
  8
LAY-2
  6
CONTINUOUS
 62
     3
100
AcDbLine
 10
101.8
 20
146.478
 30
0.0
 11
100.4
 21
146.478
 31
0.0
  0
LINE
  5
283
100
AcDbEntity
  8
LAY-2
  6
CONTINUOUS
 62
     3
100
AcDbLine
 10
102.0
 20
152.878
 30
0.0
 11
101.8
 21
152.878
 31
0.0
  0
LINE
  5
284
100
AcDbEntity
  8
LAY-2
  6
CONTINUOUS
 62
     3
100
AcDbLine
 10
102.0
 20
147.078
 30
0.0
 11
101.8
 21
147.078
 31
0.0
  0
LINE
  5
285
100
AcDbEntity
  8
LAY-2
  6
CONTINUOUS
 62
     3
100
AcDbLine
 10
103.0
 20
149.304862
 30
0.0
 11
102.0
 21
149.304862
 31
0.0
  0
LINE
  5
286
100
AcDbEntity
  8
LAY-2
  6
CONTINUOUS
 62
     3
100
AcDbLine
 10
103.0
 20
147.078
 30
0.0
 11
102.0
 21
147.078
 31
0.0
  0
LINE
  5
287
100
AcDbEntity
  8
LAY-2
  6
CONTINUOUS
 62
     3
100
AcDbLine
 10
103.0
 20
146.478
 30
0.0
 11
102.0
 21
146.478
 31
0.0
  0
LINE
  5
288
100
AcDbEntity
  8
LAY-2
  6
CONTINUOUS
 62
     3
100
AcDbLine
 10
105.0
 20
152.196904
 30
0.0
 11
103.0
 21
152.196904
 31
0.0
  0
LINE
  5
289
100
AcDbEntity
  8
LAY-2
  6
CONTINUOUS
 62
     3
100
AcDbLine
 10
105.0
 20
151.547002
 30
0.0
 11
103.0
 21
151.547002
 31
0.0
  0
LINE
  5
28A
100
AcDbEntity
  8
LAY-2
  6
CONTINUOUS
 62
     3
100
AcDbLine
 10
105.0
 20
148.408998
 30
0.0
 11
103.0
 21
148.408998
 31
0.0
  0
LINE
  5
28B
100
AcDbEntity
  8
LAY-2
  6
CONTINUOUS
 62
     3
100
AcDbLine
 10
105.0
 20
147.759096
 30
0.0
 11
103.0
 21
147.759096
 31
0.0
  0
LINE
  5
28C
100
AcDbEntity
  8
LAY-2
  6
CONTINUOUS
 62
     3
100
AcDbLine
 10
105.0
 20
149.978
 30
0.0
 11
103.0
 21
149.978
 31
0.0
  0
LINE
  5
28D
100
AcDbEntity
  8
LAY-2
  6
CONTINUOUS
 62
     3
100
AcDbLine
 10
91.6
 20
151.928
 30
0.0
 11
92.761957
 21
151.928
 31
0.0
  0
ARC
  5
28E
100
AcDbEntity
  8
LAY-2
  6
CONTINUOUS
 62
     3
100
AcDbCircle
 10
92.761957
 20
152.628
 30
0.0
 40
0.7
100
AcDbArc
 50
270.0
 51
314.736082
  0
ARC
  5
28F
100
AcDbEntity
  8
LAY-2
  6
CONTINUOUS
 62
     3
100
AcDbCircle
 10
94.244274
 20
151.131964
 30
0.0
 40
1.406036
100
AcDbArc
 50
45.263918
 51
134.736082
  0
ARC
  5
290
100
AcDbEntity
  8
LAY-2
  6
CONTINUOUS
 62
     3
100
AcDbCircle
 10
95.726591
 20
152.628
 30
0.0
 40
0.7
100
AcDbArc
 50
225.263918
 51
270.0
  0
LINE
  5
291
100
AcDbEntity
  8
LAY-2
  6
CONTINUOUS
 62
     3
100
AcDbLine
 10
95.726591
 20
151.928
 30
0.0
 11
96.273409
 21
151.928
 31
0.0
  0
ARC
  5
292
100
AcDbEntity
  8
LAY-2
  6
CONTINUOUS
 62
     3
100
AcDbCircle
 10
96.273409
 20
152.628
 30
0.0
 40
0.7
100
AcDbArc
 50
270.0
 51
314.736082
  0
LINE
  5
293
100
AcDbEntity
  8
LAY-2
  6
CONTINUOUS
 62
     3
100
AcDbLine
 10
100.4
 20
151.928
 30
0.0
 11
99.238043
 21
151.928
 31
0.0
  0
ARC
  5
294
100
AcDbEntity
  8
LAY-2
  6
CONTINUOUS
 62
     3
100
AcDbCircle
 10
99.238043
 20
152.628
 30
0.0
 40
0.7
100
AcDbArc
 50
225.263918
 51
270.0
  0
ARC
  5
295
100
AcDbEntity
  8
LAY-2
  6
CONTINUOUS
 62
     3
100
AcDbCircle
 10
97.755726
 20
151.131964
 30
0.0
 40
1.406036
100
AcDbArc
 50
45.263918
 51
134.736082
  0
LINE
  5
296
100
AcDbEntity
  8
LAY-2
  6
CONTINUOUS
 62
     3
100
AcDbLine
 10
91.6
 20
154.628
 30
0.0
 11
91.6
 21
146.478
 31
0.0
  0
LINE
  5
297
100
AcDbEntity
  8
LAY-2
  6
CONTINUOUS
 62
     3
100
AcDbLine
 10
91.6
 20
148.028
 30
0.0
 11
92.761957
 21
148.028
 31
0.0
  0
ARC
  5
298
100
AcDbEntity
  8
LAY-2
  6
CONTINUOUS
 62
     3
100
AcDbCircle
 10
92.761957
 20
147.328
 30
0.0
 40
0.7
100
AcDbArc
 50
45.263918
 51
90.0
  0
ARC
  5
299
100
AcDbEntity
  8
LAY-2
  6
CONTINUOUS
 62
     3
100
AcDbCircle
 10
94.244274
 20
148.824036
 30
0.0
 40
1.406036
100
AcDbArc
 50
225.263918
 51
314.736082
  0
ARC
  5
29A
100
AcDbEntity
  8
LAY-2
  6
CONTINUOUS
 62
     3
100
AcDbCircle
 10
95.726591
 20
147.328
 30
0.0
 40
0.7
100
AcDbArc
 50
90.0
 51
134.736082
  0
LINE
  5
29B
100
AcDbEntity
  8
LAY-2
  6
CONTINUOUS
 62
     3
100
AcDbLine
 10
95.726591
 20
148.028
 30
0.0
 11
96.273409
 21
148.028
 31
0.0
  0
ARC
  5
29C
100
AcDbEntity
  8
LAY-2
  6
CONTINUOUS
 62
     3
100
AcDbCircle
 10
96.273409
 20
147.328
 30
0.0
 40
0.7
100
AcDbArc
 50
45.263918
 51
90.0
  0
LINE
  5
29D
100
AcDbEntity
  8
LAY-2
  6
CONTINUOUS
 62
     3
100
AcDbLine
 10
100.4
 20
148.028
 30
0.0
 11
99.238043
 21
148.028
 31
0.0
  0
ARC
  5
29E
100
AcDbEntity
  8
LAY-2
  6
CONTINUOUS
 62
     3
100
AcDbCircle
 10
99.238043
 20
147.328
 30
0.0
 40
0.7
100
AcDbArc
 50
90.0
 51
134.736082
  0
ARC
  5
29F
100
AcDbEntity
  8
LAY-2
  6
CONTINUOUS
 62
     3
100
AcDbCircle
 10
97.755726
 20
148.824036
 30
0.0
 40
1.406036
100
AcDbArc
 50
225.263918
 51
314.736082
  0
LINE
  5
2A0
100
AcDbEntity
  8
LAY-2
  6
CONTINUOUS
 62
     3
100
AcDbLine
 10
135.402167
 20
154.628
 30
0.0
 11
136.802167
 21
154.628
 31
0.0
  0
LINE
  5
2A1
100
AcDbEntity
  8
LAY-2
  6
CONTINUOUS
 62
     3
100
AcDbLine
 10
135.402167
 20
153.278
 30
0.0
 11
136.802167
 21
153.278
 31
0.0
  0
LINE
  5
2A2
100
AcDbEntity
  8
LAY-2
  6
CONTINUOUS
 62
     3
100
AcDbLine
 10
135.202167
 20
154.628
 30
0.0
 11
135.202167
 21
146.478
 31
0.0
  0
LINE
  5
2A3
100
AcDbEntity
  8
LAY-2
  6
CONTINUOUS
 62
     3
100
AcDbLine
 10
135.402167
 20
154.628
 30
0.0
 11
135.402167
 21
146.478
 31
0.0
  0
LINE
  5
2A4
100
AcDbEntity
  8
LAY-2
  6
CONTINUOUS
 62
     3
100
AcDbLine
 10
134.202167
 20
154.628
 30
0.0
 11
135.202167
 21
154.628
 31
0.0
  0
LINE
  5
2A5
100
AcDbEntity
  8
LAY-2
  6
CONTINUOUS
 62
     3
100
AcDbLine
 10
134.202167
 20
153.278
 30
0.0
 11
135.202167
 21
153.278
 31
0.0
  0
LINE
  5
2A6
100
AcDbEntity
  8
LAY-2
  6
EXLTYPE3
 62
     1
100
AcDbLine
 10
129.865508
 20
149.978
 30
0.0
 11
151.735508
 21
149.978
 31
0.0
  0
LINE
  5
2A7
100
AcDbEntity
  8
LAY-2
  6
CONTINUOUS
 62
     3
100
AcDbLine
 10
134.202167
 20
154.628
 30
0.0
 11
134.202167
 21
146.478
 31
0.0
  0
LINE
  5
2A8
100
AcDbEntity
  8
LAY-2
  6
CONTINUOUS
 62
     3
100
AcDbLine
 10
132.202167
 20
152.196904
 30
0.0
 11
132.202167
 21
147.759096
 31
0.0
  0
LINE
  5
2A9
100
AcDbEntity
  8
LAY-2
  6
CONTINUOUS
 62
     3
100
AcDbLine
 10
147.002167
 20
154.628
 30
0.0
 11
145.602167
 21
154.628
 31
0.0
  0
LINE
  5
2AA
100
AcDbEntity
  8
LAY-2
  6
CONTINUOUS
 62
     3
100
AcDbLine
 10
147.002167
 20
153.278
 30
0.0
 11
145.602167
 21
153.278
 31
0.0
  0
LINE
  5
2AB
100
AcDbEntity
  8
LAY-2
  6
CONTINUOUS
 62
     3
100
AcDbLine
 10
147.202167
 20
154.628
 30
0.0
 11
147.202167
 21
146.478
 31
0.0
  0
LINE
  5
2AC
100
AcDbEntity
  8
LAY-2
  6
CONTINUOUS
 62
     3
100
AcDbLine
 10
147.002167
 20
154.628
 30
0.0
 11
147.002167
 21
146.478
 31
0.0
  0
LINE
  5
2AD
100
AcDbEntity
  8
LAY-2
  6
CONTINUOUS
 62
     3
100
AcDbLine
 10
145.602167
 20
154.628
 30
0.0
 11
145.602167
 21
146.478
 31
0.0
  0
LINE
  5
2AE
100
AcDbEntity
  8
LAY-2
  6
CONTINUOUS
 62
     3
100
AcDbLine
 10
148.202167
 20
154.628
 30
0.0
 11
147.202167
 21
154.628
 31
0.0
  0
LINE
  5
2AF
100
AcDbEntity
  8
LAY-2
  6
CONTINUOUS
 62
     3
100
AcDbLine
 10
148.202167
 20
153.278
 30
0.0
 11
147.202167
 21
153.278
 31
0.0
  0
LINE
  5
2B0
100
AcDbEntity
  8
LAY-2
  6
CONTINUOUS
 62
     3
100
AcDbLine
 10
148.202167
 20
154.628
 30
0.0
 11
148.202167
 21
146.478
 31
0.0
  0
LINE
  5
2B1
100
AcDbEntity
  8
LAY-2
  6
CONTINUOUS
 62
     3
100
AcDbLine
 10
150.202167
 20
152.196904
 30
0.0
 11
150.202167
 21
147.759096
 31
0.0
  0
LINE
  5
2B2
100
AcDbEntity
  8
LAY-2
  6
CONTINUOUS
 62
     3
100
AcDbLine
 10
135.402167
 20
149.304862
 30
0.0
 11
136.802167
 21
149.304862
 31
0.0
  0
LINE
  5
2B3
100
AcDbEntity
  8
LAY-2
  6
CONTINUOUS
 62
     3
100
AcDbLine
 10
135.402167
 20
147.078
 30
0.0
 11
136.802167
 21
147.078
 31
0.0
  0
LINE
  5
2B4
100
AcDbEntity
  8
LAY-2
  6
CONTINUOUS
 62
     3
100
AcDbLine
 10
135.402167
 20
146.478
 30
0.0
 11
136.802167
 21
146.478
 31
0.0
  0
LINE
  5
2B5
100
AcDbEntity
  8
LAY-2
  6
CONTINUOUS
 62
     3
100
AcDbLine
 10
135.202167
 20
152.878
 30
0.0
 11
135.402167
 21
152.878
 31
0.0
  0
LINE
  5
2B6
100
AcDbEntity
  8
LAY-2
  6
CONTINUOUS
 62
     3
100
AcDbLine
 10
135.202167
 20
147.078
 30
0.0
 11
135.402167
 21
147.078
 31
0.0
  0
LINE
  5
2B7
100
AcDbEntity
  8
LAY-2
  6
CONTINUOUS
 62
     3
100
AcDbLine
 10
134.202167
 20
149.304862
 30
0.0
 11
135.202167
 21
149.304862
 31
0.0
  0
LINE
  5
2B8
100
AcDbEntity
  8
LAY-2
  6
CONTINUOUS
 62
     3
100
AcDbLine
 10
134.202167
 20
147.078
 30
0.0
 11
135.202167
 21
147.078
 31
0.0
  0
LINE
  5
2B9
100
AcDbEntity
  8
LAY-2
  6
CONTINUOUS
 62
     3
100
AcDbLine
 10
134.202167
 20
146.478
 30
0.0
 11
135.202167
 21
146.478
 31
0.0
  0
LINE
  5
2BA
100
AcDbEntity
  8
LAY-2
  6
CONTINUOUS
 62
     3
100
AcDbLine
 10
132.202167
 20
152.196904
 30
0.0
 11
134.202167
 21
152.196904
 31
0.0
  0
LINE
  5
2BB
100
AcDbEntity
  8
LAY-2
  6
CONTINUOUS
 62
     3
100
AcDbLine
 10
132.202167
 20
151.547002
 30
0.0
 11
134.202167
 21
151.547002
 31
0.0
  0
LINE
  5
2BC
100
AcDbEntity
  8
LAY-2
  6
CONTINUOUS
 62
     3
100
AcDbLine
 10
132.202167
 20
148.408998
 30
0.0
 11
134.202167
 21
148.408998
 31
0.0
  0
LINE
  5
2BD
100
AcDbEntity
  8
LAY-2
  6
CONTINUOUS
 62
     3
100
AcDbLine
 10
132.202167
 20
147.759096
 30
0.0
 11
134.202167
 21
147.759096
 31
0.0
  0
LINE
  5
2BE
100
AcDbEntity
  8
LAY-2
  6
CONTINUOUS
 62
     3
100
AcDbLine
 10
132.202167
 20
149.978
 30
0.0
 11
134.202167
 21
149.978
 31
0.0
  0
LINE
  5
2BF
100
AcDbEntity
  8
LAY-2
  6
CONTINUOUS
 62
     3
100
AcDbLine
 10
147.002167
 20
149.304862
 30
0.0
 11
145.602167
 21
149.304862
 31
0.0
  0
LINE
  5
2C0
100
AcDbEntity
  8
LAY-2
  6
CONTINUOUS
 62
     3
100
AcDbLine
 10
147.002167
 20
147.078
 30
0.0
 11
145.602167
 21
147.078
 31
0.0
  0
LINE
  5
2C1
100
AcDbEntity
  8
LAY-2
  6
CONTINUOUS
 62
     3
100
AcDbLine
 10
147.002167
 20
146.478
 30
0.0
 11
145.602167
 21
146.478
 31
0.0
  0
LINE
  5
2C2
100
AcDbEntity
  8
LAY-2
  6
CONTINUOUS
 62
     3
100
AcDbLine
 10
147.202167
 20
152.878
 30
0.0
 11
147.002167
 21
152.878
 31
0.0
  0
LINE
  5
2C3
100
AcDbEntity
  8
LAY-2
  6
CONTINUOUS
 62
     3
100
AcDbLine
 10
147.202167
 20
147.078
 30
0.0
 11
147.002167
 21
147.078
 31
0.0
  0
LINE
  5
2C4
100
AcDbEntity
  8
LAY-2
  6
CONTINUOUS
 62
     3
100
AcDbLine
 10
148.202167
 20
149.304862
 30
0.0
 11
147.202167
 21
149.304862
 31
0.0
  0
LINE
  5
2C5
100
AcDbEntity
  8
LAY-2
  6
CONTINUOUS
 62
     3
100
AcDbLine
 10
148.202167
 20
147.078
 30
0.0
 11
147.202167
 21
147.078
 31
0.0
  0
LINE
  5
2C6
100
AcDbEntity
  8
LAY-2
  6
CONTINUOUS
 62
     3
100
AcDbLine
 10
148.202167
 20
146.478
 30
0.0
 11
147.202167
 21
146.478
 31
0.0
  0
LINE
  5
2C7
100
AcDbEntity
  8
LAY-2
  6
CONTINUOUS
 62
     3
100
AcDbLine
 10
150.202167
 20
152.196904
 30
0.0
 11
148.202167
 21
152.196904
 31
0.0
  0
LINE
  5
2C8
100
AcDbEntity
  8
LAY-2
  6
CONTINUOUS
 62
     3
100
AcDbLine
 10
150.202167
 20
151.547002
 30
0.0
 11
148.202167
 21
151.547002
 31
0.0
  0
LINE
  5
2C9
100
AcDbEntity
  8
LAY-2
  6
CONTINUOUS
 62
     3
100
AcDbLine
 10
150.202167
 20
148.408998
 30
0.0
 11
148.202167
 21
148.408998
 31
0.0
  0
LINE
  5
2CA
100
AcDbEntity
  8
LAY-2
  6
CONTINUOUS
 62
     3
100
AcDbLine
 10
150.202167
 20
147.759096
 30
0.0
 11
148.202167
 21
147.759096
 31
0.0
  0
LINE
  5
2CB
100
AcDbEntity
  8
LAY-2
  6
CONTINUOUS
 62
     3
100
AcDbLine
 10
150.202167
 20
149.978
 30
0.0
 11
148.202167
 21
149.978
 31
0.0
  0
LINE
  5
2CC
100
AcDbEntity
  8
LAY-2
  6
CONTINUOUS
 62
     3
100
AcDbLine
 10
136.802167
 20
151.928
 30
0.0
 11
137.964123
 21
151.928
 31
0.0
  0
ARC
  5
2CD
100
AcDbEntity
  8
LAY-2
  6
CONTINUOUS
 62
     3
100
AcDbCircle
 10
137.964123
 20
152.628
 30
0.0
 40
0.7
100
AcDbArc
 50
270.0
 51
314.736082
  0
ARC
  5
2CE
100
AcDbEntity
  8
LAY-2
  6
CONTINUOUS
 62
     3
100
AcDbCircle
 10
139.446441
 20
151.131964
 30
0.0
 40
1.406036
100
AcDbArc
 50
45.263918
 51
134.736082
  0
ARC
  5
2CF
100
AcDbEntity
  8
LAY-2
  6
CONTINUOUS
 62
     3
100
AcDbCircle
 10
140.928758
 20
152.628
 30
0.0
 40
0.7
100
AcDbArc
 50
225.263918
 51
270.0
  0
LINE
  5
2D0
100
AcDbEntity
  8
LAY-2
  6
CONTINUOUS
 62
     3
100
AcDbLine
 10
140.928758
 20
151.928
 30
0.0
 11
141.475576
 21
151.928
 31
0.0
  0
ARC
  5
2D1
100
AcDbEntity
  8
LAY-2
  6
CONTINUOUS
 62
     3
100
AcDbCircle
 10
141.475576
 20
152.628
 30
0.0
 40
0.7
100
AcDbArc
 50
270.0
 51
314.736082
  0
LINE
  5
2D2
100
AcDbEntity
  8
LAY-2
  6
CONTINUOUS
 62
     3
100
AcDbLine
 10
145.602167
 20
151.928
 30
0.0
 11
144.44021
 21
151.928
 31
0.0
  0
ARC
  5
2D3
100
AcDbEntity
  8
LAY-2
  6
CONTINUOUS
 62
     3
100
AcDbCircle
 10
144.44021
 20
152.628
 30
0.0
 40
0.7
100
AcDbArc
 50
225.263918
 51
270.0
  0
ARC
  5
2D4
100
AcDbEntity
  8
LAY-2
  6
CONTINUOUS
 62
     3
100
AcDbCircle
 10
142.957893
 20
151.131964
 30
0.0
 40
1.406036
100
AcDbArc
 50
45.263918
 51
134.736082
  0
LINE
  5
2D5
100
AcDbEntity
  8
LAY-2
  6
CONTINUOUS
 62
     3
100
AcDbLine
 10
136.802167
 20
154.628
 30
0.0
 11
136.802167
 21
146.478
 31
0.0
  0
LINE
  5
2D6
100
AcDbEntity
  8
LAY-2
  6
CONTINUOUS
 62
     3
100
AcDbLine
 10
136.802167
 20
148.028
 30
0.0
 11
137.964123
 21
148.028
 31
0.0
  0
ARC
  5
2D7
100
AcDbEntity
  8
LAY-2
  6
CONTINUOUS
 62
     3
100
AcDbCircle
 10
137.964123
 20
147.328
 30
0.0
 40
0.7
100
AcDbArc
 50
45.263918
 51
90.0
  0
ARC
  5
2D8
100
AcDbEntity
  8
LAY-2
  6
CONTINUOUS
 62
     3
100
AcDbCircle
 10
139.446441
 20
148.824036
 30
0.0
 40
1.406036
100
AcDbArc
 50
225.263918
 51
314.736082
  0
ARC
  5
2D9
100
AcDbEntity
  8
LAY-2
  6
CONTINUOUS
 62
     3
100
AcDbCircle
 10
140.928758
 20
147.328
 30
0.0
 40
0.7
100
AcDbArc
 50
90.0
 51
134.736082
  0
LINE
  5
2DA
100
AcDbEntity
  8
LAY-2
  6
CONTINUOUS
 62
     3
100
AcDbLine
 10
140.928758
 20
148.028
 30
0.0
 11
141.475576
 21
148.028
 31
0.0
  0
ARC
  5
2DB
100
AcDbEntity
  8
LAY-2
  6
CONTINUOUS
 62
     3
100
AcDbCircle
 10
141.475576
 20
147.328
 30
0.0
 40
0.7
100
AcDbArc
 50
45.263918
 51
90.0
  0
LINE
  5
2DC
100
AcDbEntity
  8
LAY-2
  6
CONTINUOUS
 62
     3
100
AcDbLine
 10
145.602167
 20
148.028
 30
0.0
 11
144.44021
 21
148.028
 31
0.0
  0
ARC
  5
2DD
100
AcDbEntity
  8
LAY-2
  6
CONTINUOUS
 62
     3
100
AcDbCircle
 10
144.44021
 20
147.328
 30
0.0
 40
0.7
100
AcDbArc
 50
90.0
 51
134.736082
  0
ARC
  5
2DE
100
AcDbEntity
  8
LAY-2
  6
CONTINUOUS
 62
     3
100
AcDbCircle
 10
142.957893
 20
148.824036
 30
0.0
 40
1.406036
100
AcDbArc
 50
225.263918
 51
314.736082
  0
LINE
  5
2DF
100
AcDbEntity
  8
LAY-2
  6
EXLTYPE3
 62
     1
100
AcDbLine
 10
170.439842
 20
149.978
 30
0.0
 11
201.939842
 21
149.978
 31
0.0
  0
LINE
  5
2E0
100
AcDbEntity
  8
LAY-2
  6
CONTINUOUS
 62
     3
100
AcDbLine
 10
184.023073
 20
153.64269
 30
0.0
 11
185.009927
 21
153.01331
 31
0.0
  0
ARC
  5
2E1
100
AcDbEntity
  8
LAY-2
  6
CONTINUOUS
 62
     3
100
AcDbCircle
 10
185.8165
 20
154.278
 30
0.0
 40
1.5
100
AcDbArc
 50
237.47176
 51
270.0
  0
LINE
  5
2E2
100
AcDbEntity
  8
LAY-2
  6
CONTINUOUS
 62
     3
100
AcDbLine
 10
187.609927
 20
153.64269
 30
0.0
 11
186.623073
 21
153.01331
 31
0.0
  0
ARC
  5
2E3
100
AcDbEntity
  8
LAY-2
  6
CONTINUOUS
 62
     3
100
AcDbCircle
 10
185.8165
 20
154.278
 30
0.0
 40
1.5
100
AcDbArc
 50
270.0
 51
302.52824
  0
ARC
  5
2E4
100
AcDbEntity
  8
LAY-2
  6
CONTINUOUS
 62
     3
100
AcDbCircle
 10
188.4165
 20
152.378
 30
0.0
 40
1.5
100
AcDbArc
 50
39.29648
 51
122.52824
  0
ARC
  5
2E5
100
AcDbEntity
  8
LAY-2
  6
CONTINUOUS
 62
     3
100
AcDbCircle
 10
190.738137
 20
154.278
 30
0.0
 40
1.5
100
AcDbArc
 50
219.29648
 51
270.0
  0
LINE
  5
2E6
100
AcDbEntity
  8
LAY-2
  6
CONTINUOUS
 62
     3
100
AcDbLine
 10
190.738137
 20
152.778
 30
0.0
 11
192.8665
 21
152.778
 31
0.0
  0
ARC
  5
2E7
100
AcDbEntity
  8
LAY-2
  6
CONTINUOUS
 62
     3
100
AcDbCircle
 10
180.6165
 20
154.278
 30
0.0
 40
1.5
100
AcDbArc
 50
270.0
 51
302.52824
  0
LINE
  5
2E8
100
AcDbEntity
  8
LAY-2
  6
CONTINUOUS
 62
     3
100
AcDbLine
 10
178.7665
 20
152.778
 30
0.0
 11
180.6165
 21
152.778
 31
0.0
  0
LINE
  5
2E9
100
AcDbEntity
  8
LAY-2
  6
CONTINUOUS
 62
     3
100
AcDbLine
 10
182.409927
 20
153.64269
 30
0.0
 11
181.423073
 21
153.01331
 31
0.0
  0
ARC
  5
2EA
100
AcDbEntity
  8
LAY-2
  6
CONTINUOUS
 62
     3
100
AcDbCircle
 10
183.2165
 20
152.378
 30
0.0
 40
1.5
100
AcDbArc
 50
57.47176
 51
122.52824
  0
LINE
  5
2EB
100
AcDbEntity
  8
LAY-2
  6
CONTINUOUS
 62
     3
100
AcDbLine
 10
184.023073
 20
146.31331
 30
0.0
 11
185.009927
 21
146.94269
 31
0.0
  0
ARC
  5
2EC
100
AcDbEntity
  8
LAY-2
  6
CONTINUOUS
 62
     3
100
AcDbCircle
 10
185.8165
 20
145.678
 30
0.0
 40
1.5
100
AcDbArc
 50
90.0
 51
122.52824
  0
LINE
  5
2ED
100
AcDbEntity
  8
LAY-2
  6
CONTINUOUS
 62
     3
100
AcDbLine
 10
187.609927
 20
146.31331
 30
0.0
 11
186.623073
 21
146.94269
 31
0.0
  0
ARC
  5
2EE
100
AcDbEntity
  8
LAY-2
  6
CONTINUOUS
 62
     3
100
AcDbCircle
 10
185.8165
 20
145.678
 30
0.0
 40
1.5
100
AcDbArc
 50
57.47176
 51
90.0
  0
ARC
  5
2EF
100
AcDbEntity
  8
LAY-2
  6
CONTINUOUS
 62
     3
100
AcDbCircle
 10
188.4165
 20
147.578
 30
0.0
 40
1.5
100
AcDbArc
 50
237.47176
 51
320.70352
  0
ARC
  5
2F0
100
AcDbEntity
  8
LAY-2
  6
CONTINUOUS
 62
     3
100
AcDbCircle
 10
190.738137
 20
145.678
 30
0.0
 40
1.5
100
AcDbArc
 50
90.0
 51
140.70352
  0
LINE
  5
2F1
100
AcDbEntity
  8
LAY-2
  6
CONTINUOUS
 62
     3
100
AcDbLine
 10
190.738137
 20
147.178
 30
0.0
 11
192.8665
 21
147.178
 31
0.0
  0
ARC
  5
2F2
100
AcDbEntity
  8
LAY-2
  6
CONTINUOUS
 62
     3
100
AcDbCircle
 10
180.6165
 20
145.678
 30
0.0
 40
1.5
100
AcDbArc
 50
57.47176
 51
90.0
  0
LINE
  5
2F3
100
AcDbEntity
  8
LAY-2
  6
CONTINUOUS
 62
     3
100
AcDbLine
 10
178.7665
 20
147.178
 30
0.0
 11
180.6165
 21
147.178
 31
0.0
  0
LINE
  5
2F4
100
AcDbEntity
  8
LAY-2
  6
CONTINUOUS
 62
     3
100
AcDbLine
 10
182.409927
 20
146.31331
 30
0.0
 11
181.423073
 21
146.94269
 31
0.0
  0
ARC
  5
2F5
100
AcDbEntity
  8
LAY-2
  6
CONTINUOUS
 62
     3
100
AcDbCircle
 10
183.2165
 20
147.578
 30
0.0
 40
1.5
100
AcDbArc
 50
237.47176
 51
302.52824
  0
LINE
  5
2F6
100
AcDbEntity
  8
LAY-2
  6
CONTINUOUS
 62
     3
100
AcDbLine
 10
224.82
 20
152.678
 30
0.0
 11
224.82
 21
149.978
 31
0.0
  0
LINE
  5
2F7
100
AcDbEntity
  8
LAY-2
  6
CONTINUOUS
 62
     3
100
AcDbLine
 10
224.82
 20
155.978
 30
0.0
 11
224.82
 21
152.678
 31
0.0
  0
LINE
  5
2F8
100
AcDbEntity
  8
LAY-2
  6
CONTINUOUS
 62
     3
100
AcDbLine
 10
224.82
 20
149.978
 30
0.0
 11
224.82
 21
145.228
 31
0.0
  0
LINE
  5
2F9
100
AcDbEntity
  8
LAY-2
  6
CONTINUOUS
 62
     3
100
AcDbLine
 10
223.12
 20
155.978
 30
0.0
 11
223.12
 21
145.228
 31
0.0
  0
LINE
  5
2FA
100
AcDbEntity
  8
LAY-2
  6
CONTINUOUS
 62
     3
100
AcDbLine
 10
223.32
 20
155.978
 30
0.0
 11
223.32
 21
145.228
 31
0.0
  0
LINE
  5
2FB
100
AcDbEntity
  8
LAY-2
  6
CONTINUOUS
 62
     3
100
AcDbLine
 10
221.92
 20
155.978
 30
0.0
 11
221.92
 21
145.228
 31
0.0
  0
LINE
  5
2FC
100
AcDbEntity
  8
LAY-2
  6
CONTINUOUS
 62
     3
100
AcDbLine
 10
219.62
 20
152.683981
 30
0.0
 11
219.62
 21
147.272019
 31
0.0
  0
LINE
  5
2FD
100
AcDbEntity
  8
LAY-2
  6
CONTINUOUS
 62
     3
100
AcDbLine
 10
238.92
 20
152.678
 30
0.0
 11
238.92
 21
149.978
 31
0.0
  0
LINE
  5
2FE
100
AcDbEntity
  8
LAY-2
  6
CONTINUOUS
 62
     3
100
AcDbLine
 10
238.92
 20
155.978
 30
0.0
 11
238.92
 21
152.678
 31
0.0
  0
LINE
  5
2FF
100
AcDbEntity
  8
LAY-2
  6
CONTINUOUS
 62
     3
100
AcDbLine
 10
238.92
 20
149.978
 30
0.0
 11
238.92
 21
145.228
 31
0.0
  0
LINE
  5
300
100
AcDbEntity
  8
LAY-2
  6
CONTINUOUS
 62
     3
100
AcDbLine
 10
240.62
 20
155.978
 30
0.0
 11
240.62
 21
145.228
 31
0.0
  0
LINE
  5
301
100
AcDbEntity
  8
LAY-2
  6
CONTINUOUS
 62
     3
100
AcDbLine
 10
240.42
 20
155.978
 30
0.0
 11
240.42
 21
145.228
 31
0.0
  0
LINE
  5
302
100
AcDbEntity
  8
LAY-2
  6
CONTINUOUS
 62
     3
100
AcDbLine
 10
241.82
 20
155.978
 30
0.0
 11
241.82
 21
145.228
 31
0.0
  0
LINE
  5
303
100
AcDbEntity
  8
LAY-2
  6
CONTINUOUS
 62
     3
100
AcDbLine
 10
244.12
 20
152.683981
 30
0.0
 11
244.12
 21
147.272019
 31
0.0
  0
LINE
  5
304
100
AcDbEntity
  8
LAY-2
  6
CONTINUOUS
 62
     3
100
AcDbLine
 10
221.92
 20
155.978
 30
0.0
 11
223.12
 21
155.978
 31
0.0
  0
LINE
  5
305
100
AcDbEntity
  8
LAY-2
  6
CONTINUOUS
 62
     3
100
AcDbLine
 10
223.32
 20
155.978
 30
0.0
 11
224.82
 21
155.978
 31
0.0
  0
LINE
  5
306
100
AcDbEntity
  8
LAY-2
  6
CONTINUOUS
 62
     3
100
AcDbLine
 10
221.92
 20
154.563526
 30
0.0
 11
223.12
 21
154.563526
 31
0.0
  0
LINE
  5
307
100
AcDbEntity
  8
LAY-2
  6
CONTINUOUS
 62
     3
100
AcDbLine
 10
223.32
 20
154.563526
 30
0.0
 11
224.82
 21
154.563526
 31
0.0
  0
LINE
  5
308
100
AcDbEntity
  8
LAY-2
  6
CONTINUOUS
 62
     3
100
AcDbLine
 10
221.92
 20
148.758357
 30
0.0
 11
223.12
 21
148.758357
 31
0.0
  0
LINE
  5
309
100
AcDbEntity
  8
LAY-2
  6
CONTINUOUS
 62
     3
100
AcDbLine
 10
223.32
 20
148.758357
 30
0.0
 11
224.82
 21
148.758357
 31
0.0
  0
LINE
  5
30A
100
AcDbEntity
  8
LAY-2
  6
CONTINUOUS
 62
     3
100
AcDbLine
 10
221.92
 20
146.353
 30
0.0
 11
223.12
 21
146.353
 31
0.0
  0
LINE
  5
30B
100
AcDbEntity
  8
LAY-2
  6
CONTINUOUS
 62
     3
100
AcDbLine
 10
223.32
 20
146.353
 30
0.0
 11
224.82
 21
146.353
 31
0.0
  0
LINE
  5
30C
100
AcDbEntity
  8
LAY-2
  6
CONTINUOUS
 62
     3
100
AcDbLine
 10
221.92
 20
145.228
 30
0.0
 11
223.12
 21
145.228
 31
0.0
  0
LINE
  5
30D
100
AcDbEntity
  8
LAY-2
  6
CONTINUOUS
 62
     3
100
AcDbLine
 10
223.32
 20
145.228
 30
0.0
 11
224.82
 21
145.228
 31
0.0
  0
LINE
  5
30E
100
AcDbEntity
  8
LAY-2
  6
CONTINUOUS
 62
     3
100
AcDbLine
 10
223.32
 20
153.978
 30
0.0
 11
223.12
 21
153.978
 31
0.0
  0
LINE
  5
30F
100
AcDbEntity
  8
LAY-2
  6
CONTINUOUS
 62
     3
100
AcDbLine
 10
223.32
 20
145.978
 30
0.0
 11
223.12
 21
145.978
 31
0.0
  0
LINE
  5
310
100
AcDbEntity
  8
LAY-2
  6
CONTINUOUS
 62
     3
100
AcDbLine
 10
219.62
 20
149.978
 30
0.0
 11
221.92
 21
149.978
 31
0.0
  0
LINE
  5
311
100
AcDbEntity
  8
LAY-2
  6
CONTINUOUS
 62
     3
100
AcDbLine
 10
219.62
 20
147.272019
 30
0.0
 11
221.92
 21
147.272019
 31
0.0
  0
LINE
  5
312
100
AcDbEntity
  8
LAY-2
  6
CONTINUOUS
 62
     3
100
AcDbLine
 10
219.62
 20
148.064583
 30
0.0
 11
221.92
 21
148.064583
 31
0.0
  0
LINE
  5
313
100
AcDbEntity
  8
LAY-2
  6
CONTINUOUS
 62
     3
100
AcDbLine
 10
219.62
 20
151.891417
 30
0.0
 11
221.92
 21
151.891417
 31
0.0
  0
LINE
  5
314
100
AcDbEntity
  8
LAY-2
  6
CONTINUOUS
 62
     3
100
AcDbLine
 10
219.62
 20
152.683981
 30
0.0
 11
221.92
 21
152.683981
 31
0.0
  0
LINE
  5
315
100
AcDbEntity
  8
LAY-2
  6
CONTINUOUS
 62
     3
100
AcDbLine
 10
241.82
 20
155.978
 30
0.0
 11
240.62
 21
155.978
 31
0.0
  0
LINE
  5
316
100
AcDbEntity
  8
LAY-2
  6
CONTINUOUS
 62
     3
100
AcDbLine
 10
240.42
 20
155.978
 30
0.0
 11
238.92
 21
155.978
 31
0.0
  0
LINE
  5
317
100
AcDbEntity
  8
LAY-2
  6
CONTINUOUS
 62
     3
100
AcDbLine
 10
241.82
 20
154.563526
 30
0.0
 11
240.62
 21
154.563526
 31
0.0
  0
LINE
  5
318
100
AcDbEntity
  8
LAY-2
  6
CONTINUOUS
 62
     3
100
AcDbLine
 10
240.42
 20
154.563526
 30
0.0
 11
238.92
 21
154.563526
 31
0.0
  0
LINE
  5
319
100
AcDbEntity
  8
LAY-2
  6
CONTINUOUS
 62
     3
100
AcDbLine
 10
241.82
 20
148.758357
 30
0.0
 11
240.62
 21
148.758357
 31
0.0
  0
LINE
  5
31A
100
AcDbEntity
  8
LAY-2
  6
CONTINUOUS
 62
     3
100
AcDbLine
 10
240.42
 20
148.758357
 30
0.0
 11
238.92
 21
148.758357
 31
0.0
  0
LINE
  5
31B
100
AcDbEntity
  8
LAY-2
  6
CONTINUOUS
 62
     3
100
AcDbLine
 10
241.82
 20
146.353
 30
0.0
 11
240.62
 21
146.353
 31
0.0
  0
LINE
  5
31C
100
AcDbEntity
  8
LAY-2
  6
CONTINUOUS
 62
     3
100
AcDbLine
 10
240.42
 20
146.353
 30
0.0
 11
238.92
 21
146.353
 31
0.0
  0
LINE
  5
31D
100
AcDbEntity
  8
LAY-2
  6
CONTINUOUS
 62
     3
100
AcDbLine
 10
241.82
 20
145.228
 30
0.0
 11
240.62
 21
145.228
 31
0.0
  0
LINE
  5
31E
100
AcDbEntity
  8
LAY-2
  6
CONTINUOUS
 62
     3
100
AcDbLine
 10
240.42
 20
145.228
 30
0.0
 11
238.92
 21
145.228
 31
0.0
  0
LINE
  5
31F
100
AcDbEntity
  8
LAY-2
  6
CONTINUOUS
 62
     3
100
AcDbLine
 10
240.42
 20
153.978
 30
0.0
 11
240.62
 21
153.978
 31
0.0
  0
LINE
  5
320
100
AcDbEntity
  8
LAY-2
  6
CONTINUOUS
 62
     3
100
AcDbLine
 10
240.42
 20
145.978
 30
0.0
 11
240.62
 21
145.978
 31
0.0
  0
LINE
  5
321
100
AcDbEntity
  8
LAY-2
  6
CONTINUOUS
 62
     3
100
AcDbLine
 10
244.12
 20
149.978
 30
0.0
 11
241.82
 21
149.978
 31
0.0
  0
LINE
  5
322
100
AcDbEntity
  8
LAY-2
  6
CONTINUOUS
 62
     3
100
AcDbLine
 10
244.12
 20
147.272019
 30
0.0
 11
241.82
 21
147.272019
 31
0.0
  0
LINE
  5
323
100
AcDbEntity
  8
LAY-2
  6
CONTINUOUS
 62
     3
100
AcDbLine
 10
244.12
 20
148.064583
 30
0.0
 11
241.82
 21
148.064583
 31
0.0
  0
LINE
  5
324
100
AcDbEntity
  8
LAY-2
  6
CONTINUOUS
 62
     3
100
AcDbLine
 10
244.12
 20
151.891417
 30
0.0
 11
241.82
 21
151.891417
 31
0.0
  0
LINE
  5
325
100
AcDbEntity
  8
LAY-2
  6
CONTINUOUS
 62
     3
100
AcDbLine
 10
244.12
 20
152.683981
 30
0.0
 11
241.82
 21
152.683981
 31
0.0
  0
LINE
  5
326
100
AcDbEntity
  8
LAY-2
  6
EXLTYPE3
 62
     1
100
AcDbLine
 10
216.493342
 20
149.978
 30
0.0
 11
247.993342
 21
149.978
 31
0.0
  0
LINE
  5
327
100
AcDbEntity
  8
LAY-2
  6
CONTINUOUS
 62
     3
100
AcDbLine
 10
230.076573
 20
153.64269
 30
0.0
 11
231.063427
 21
153.01331
 31
0.0
  0
ARC
  5
328
100
AcDbEntity
  8
LAY-2
  6
CONTINUOUS
 62
     3
100
AcDbCircle
 10
231.87
 20
154.278
 30
0.0
 40
1.5
100
AcDbArc
 50
237.47176
 51
270.0
  0
LINE
  5
329
100
AcDbEntity
  8
LAY-2
  6
CONTINUOUS
 62
     3
100
AcDbLine
 10
233.663427
 20
153.64269
 30
0.0
 11
232.676573
 21
153.01331
 31
0.0
  0
ARC
  5
32A
100
AcDbEntity
  8
LAY-2
  6
CONTINUOUS
 62
     3
100
AcDbCircle
 10
231.87
 20
154.278
 30
0.0
 40
1.5
100
AcDbArc
 50
270.0
 51
302.52824
  0
ARC
  5
32B
100
AcDbEntity
  8
LAY-2
  6
CONTINUOUS
 62
     3
100
AcDbCircle
 10
234.47
 20
152.378
 30
0.0
 40
1.5
100
AcDbArc
 50
39.29648
 51
122.52824
  0
ARC
  5
32C
100
AcDbEntity
  8
LAY-2
  6
CONTINUOUS
 62
     3
100
AcDbCircle
 10
236.791637
 20
154.278
 30
0.0
 40
1.5
100
AcDbArc
 50
219.29648
 51
270.0
  0
LINE
  5
32D
100
AcDbEntity
  8
LAY-2
  6
CONTINUOUS
 62
     3
100
AcDbLine
 10
236.791637
 20
152.778
 30
0.0
 11
238.92
 21
152.778
 31
0.0
  0
ARC
  5
32E
100
AcDbEntity
  8
LAY-2
  6
CONTINUOUS
 62
     3
100
AcDbCircle
 10
226.67
 20
154.278
 30
0.0
 40
1.5
100
AcDbArc
 50
270.0
 51
302.52824
  0
LINE
  5
32F
100
AcDbEntity
  8
LAY-2
  6
CONTINUOUS
 62
     3
100
AcDbLine
 10
224.82
 20
152.778
 30
0.0
 11
226.67
 21
152.778
 31
0.0
  0
LINE
  5
330
100
AcDbEntity
  8
LAY-2
  6
CONTINUOUS
 62
     3
100
AcDbLine
 10
228.463427
 20
153.64269
 30
0.0
 11
227.476573
 21
153.01331
 31
0.0
  0
ARC
  5
331
100
AcDbEntity
  8
LAY-2
  6
CONTINUOUS
 62
     3
100
AcDbCircle
 10
229.27
 20
152.378
 30
0.0
 40
1.5
100
AcDbArc
 50
57.47176
 51
122.52824
  0
LINE
  5
332
100
AcDbEntity
  8
LAY-2
  6
CONTINUOUS
 62
     3
100
AcDbLine
 10
230.076573
 20
146.31331
 30
0.0
 11
231.063427
 21
146.94269
 31
0.0
  0
ARC
  5
333
100
AcDbEntity
  8
LAY-2
  6
CONTINUOUS
 62
     3
100
AcDbCircle
 10
231.87
 20
145.678
 30
0.0
 40
1.5
100
AcDbArc
 50
90.0
 51
122.52824
  0
LINE
  5
334
100
AcDbEntity
  8
LAY-2
  6
CONTINUOUS
 62
     3
100
AcDbLine
 10
233.663427
 20
146.31331
 30
0.0
 11
232.676573
 21
146.94269
 31
0.0
  0
ARC
  5
335
100
AcDbEntity
  8
LAY-2
  6
CONTINUOUS
 62
     3
100
AcDbCircle
 10
231.87
 20
145.678
 30
0.0
 40
1.5
100
AcDbArc
 50
57.47176
 51
90.0
  0
ARC
  5
336
100
AcDbEntity
  8
LAY-2
  6
CONTINUOUS
 62
     3
100
AcDbCircle
 10
234.47
 20
147.578
 30
0.0
 40
1.5
100
AcDbArc
 50
237.47176
 51
320.70352
  0
ARC
  5
337
100
AcDbEntity
  8
LAY-2
  6
CONTINUOUS
 62
     3
100
AcDbCircle
 10
236.791637
 20
145.678
 30
0.0
 40
1.5
100
AcDbArc
 50
90.0
 51
140.70352
  0
LINE
  5
338
100
AcDbEntity
  8
LAY-2
  6
CONTINUOUS
 62
     3
100
AcDbLine
 10
236.791637
 20
147.178
 30
0.0
 11
238.92
 21
147.178
 31
0.0
  0
ARC
  5
339
100
AcDbEntity
  8
LAY-2
  6
CONTINUOUS
 62
     3
100
AcDbCircle
 10
226.67
 20
145.678
 30
0.0
 40
1.5
100
AcDbArc
 50
57.47176
 51
90.0
  0
LINE
  5
33A
100
AcDbEntity
  8
LAY-2
  6
CONTINUOUS
 62
     3
100
AcDbLine
 10
224.82
 20
147.178
 30
0.0
 11
226.67
 21
147.178
 31
0.0
  0
LINE
  5
33B
100
AcDbEntity
  8
LAY-2
  6
CONTINUOUS
 62
     3
100
AcDbLine
 10
228.463427
 20
146.31331
 30
0.0
 11
227.476573
 21
146.94269
 31
0.0
  0
ARC
  5
33C
100
AcDbEntity
  8
LAY-2
  6
CONTINUOUS
 62
     3
100
AcDbCircle
 10
229.27
 20
147.578
 30
0.0
 40
1.5
100
AcDbArc
 50
237.47176
 51
302.52824
  0
LINE
  5
33D
100
AcDbEntity
  8
LAY-2
  6
EXLTYPE3
 62
     1
100
AcDbLine
 10
282.86
 20
149.978
 30
0.0
 11
262.003342
 21
149.978
 31
0.0
  0
LINE
  5
33E
100
AcDbEntity
  8
LAY-2
  6
CONTINUOUS
 62
     3
100
AcDbLine
 10
268.96
 20
153.178
 30
0.0
 11
270.229089
 21
153.178
 31
0.0
  0
LINE
  5
33F
100
AcDbEntity
  8
LAY-2
  6
CONTINUOUS
 62
     3
100
AcDbLine
 10
274.980174
 20
153.946201
 30
0.0
 11
275.261592
 21
153.653847
 31
0.0
  0
ARC
  5
340
100
AcDbEntity
  8
LAY-2
  6
CONTINUOUS
 62
     3
100
AcDbCircle
 10
275.91
 20
154.278
 30
0.0
 40
0.9
100
AcDbArc
 50
223.908092
 51
316.091908
  0
ARC
  5
341
100
AcDbEntity
  8
LAY-2
  6
CONTINUOUS
 62
     3
100
AcDbCircle
 10
273.26
 20
152.290372
 30
0.0
 40
2.387628
100
AcDbArc
 50
43.908092
 51
136.091908
  0
LINE
  5
342
100
AcDbEntity
  8
LAY-2
  6
CONTINUOUS
 62
     3
100
AcDbLine
 10
271.539826
 20
153.946201
 30
0.0
 11
271.258408
 21
153.653847
 31
0.0
  0
LINE
  5
343
100
AcDbEntity
  8
LAY-2
  6
CONTINUOUS
 62
     3
100
AcDbLine
 10
270.992801
 20
153.463467
 30
0.0
 11
270.526823
 21
153.244475
 31
0.0
  0
ARC
  5
344
100
AcDbEntity
  8
LAY-2
  6
CONTINUOUS
 62
     3
100
AcDbCircle
 10
270.61
 20
154.278
 30
0.0
 40
0.9
100
AcDbArc
 50
295.171813
 51
316.091908
  0
ARC
  5
345
100
AcDbEntity
  8
LAY-2
  6
CONTINUOUS
 62
     3
100
AcDbCircle
 10
270.229089
 20
153.878
 30
0.0
 40
0.7
100
AcDbArc
 50
270.0
 51
295.171813
  0
LINE
  5
346
100
AcDbEntity
  8
LAY-2
  6
CONTINUOUS
 62
     3
100
AcDbLine
 10
282.86
 20
153.178
 30
0.0
 11
281.590911
 21
153.178
 31
0.0
  0
LINE
  5
347
100
AcDbEntity
  8
LAY-2
  6
CONTINUOUS
 62
     3
100
AcDbLine
 10
276.839826
 20
153.946201
 30
0.0
 11
276.558408
 21
153.653847
 31
0.0
  0
ARC
  5
348
100
AcDbEntity
  8
LAY-2
  6
CONTINUOUS
 62
     3
100
AcDbCircle
 10
278.56
 20
152.290372
 30
0.0
 40
2.387628
100
AcDbArc
 50
43.908092
 51
136.091908
  0
LINE
  5
349
100
AcDbEntity
  8
LAY-2
  6
CONTINUOUS
 62
     3
100
AcDbLine
 10
280.280174
 20
153.946201
 30
0.0
 11
280.561592
 21
153.653847
 31
0.0
  0
LINE
  5
34A
100
AcDbEntity
  8
LAY-2
  6
CONTINUOUS
 62
     3
100
AcDbLine
 10
280.827199
 20
153.463467
 30
0.0
 11
281.293177
 21
153.244475
 31
0.0
  0
ARC
  5
34B
100
AcDbEntity
  8
LAY-2
  6
CONTINUOUS
 62
     3
100
AcDbCircle
 10
281.21
 20
154.278
 30
0.0
 40
0.9
100
AcDbArc
 50
223.908092
 51
244.828187
  0
ARC
  5
34C
100
AcDbEntity
  8
LAY-2
  6
CONTINUOUS
 62
     3
100
AcDbCircle
 10
281.590911
 20
153.878
 30
0.0
 40
0.7
100
AcDbArc
 50
244.828187
 51
270.0
  0
LINE
  5
34D
100
AcDbEntity
  8
LAY-2
  6
CONTINUOUS
 62
     3
100
AcDbLine
 10
268.96
 20
146.778
 30
0.0
 11
270.229089
 21
146.778
 31
0.0
  0
LINE
  5
34E
100
AcDbEntity
  8
LAY-2
  6
CONTINUOUS
 62
     3
100
AcDbLine
 10
274.980174
 20
146.009799
 30
0.0
 11
275.261592
 21
146.302153
 31
0.0
  0
ARC
  5
34F
100
AcDbEntity
  8
LAY-2
  6
CONTINUOUS
 62
     3
100
AcDbCircle
 10
275.91
 20
145.678
 30
0.0
 40
0.9
100
AcDbArc
 50
43.908092
 51
136.091908
  0
ARC
  5
350
100
AcDbEntity
  8
LAY-2
  6
CONTINUOUS
 62
     3
100
AcDbCircle
 10
273.26
 20
147.665628
 30
0.0
 40
2.387628
100
AcDbArc
 50
223.908092
 51
316.091908
  0
LINE
  5
351
100
AcDbEntity
  8
LAY-2
  6
CONTINUOUS
 62
     3
100
AcDbLine
 10
271.539826
 20
146.009799
 30
0.0
 11
271.258408
 21
146.302153
 31
0.0
  0
LINE
  5
352
100
AcDbEntity
  8
LAY-2
  6
CONTINUOUS
 62
     3
100
AcDbLine
 10
270.992801
 20
146.492533
 30
0.0
 11
270.526823
 21
146.711525
 31
0.0
  0
ARC
  5
353
100
AcDbEntity
  8
LAY-2
  6
CONTINUOUS
 62
     3
100
AcDbCircle
 10
270.61
 20
145.678
 30
0.0
 40
0.9
100
AcDbArc
 50
43.908092
 51
64.828187
  0
ARC
  5
354
100
AcDbEntity
  8
LAY-2
  6
CONTINUOUS
 62
     3
100
AcDbCircle
 10
270.229089
 20
146.078
 30
0.0
 40
0.7
100
AcDbArc
 50
64.828187
 51
90.0
  0
LINE
  5
355
100
AcDbEntity
  8
LAY-2
  6
CONTINUOUS
 62
     3
100
AcDbLine
 10
282.86
 20
146.778
 30
0.0
 11
281.590911
 21
146.778
 31
0.0
  0
LINE
  5
356
100
AcDbEntity
  8
LAY-2
  6
CONTINUOUS
 62
     3
100
AcDbLine
 10
276.839826
 20
146.009799
 30
0.0
 11
276.558408
 21
146.302153
 31
0.0
  0
ARC
  5
357
100
AcDbEntity
  8
LAY-2
  6
CONTINUOUS
 62
     3
100
AcDbCircle
 10
278.56
 20
147.665628
 30
0.0
 40
2.387628
100
AcDbArc
 50
223.908092
 51
316.091908
  0
LINE
  5
358
100
AcDbEntity
  8
LAY-2
  6
CONTINUOUS
 62
     3
100
AcDbLine
 10
280.280174
 20
146.009799
 30
0.0
 11
280.561592
 21
146.302153
 31
0.0
  0
LINE
  5
359
100
AcDbEntity
  8
LAY-2
  6
CONTINUOUS
 62
     3
100
AcDbLine
 10
280.827199
 20
146.492533
 30
0.0
 11
281.293177
 21
146.711525
 31
0.0
  0
ARC
  5
35A
100
AcDbEntity
  8
LAY-2
  6
CONTINUOUS
 62
     3
100
AcDbCircle
 10
281.21
 20
145.678
 30
0.0
 40
0.9
100
AcDbArc
 50
115.171813
 51
136.091908
  0
ARC
  5
35B
100
AcDbEntity
  8
LAY-2
  6
CONTINUOUS
 62
     3
100
AcDbCircle
 10
281.590911
 20
146.078
 30
0.0
 40
0.7
100
AcDbArc
 50
90.0
 51
115.171813
  0
LINE
  5
35C
100
AcDbEntity
  8
LAY-2
  6
CONTINUOUS
 62
     2
100
AcDbLine
 10
74.002167
 20
178.1
 30
0.0
 11
74.002167
 21
29.0
 31
0.0
  0
TEXT
  5
35E
100
AcDbEntity
  8
LAY-2
  6
CONTINUOUS
 62
     1
100
AcDbText
 10
-111.749998
 20
-9.3
 30
0.0
 40
11.25
  1
スケールは１／１０となっています。必要に応じてサイズを１０倍して下さい。
 41
0.966667
  7
EXCADTTF1
 72
     5
 11
410.750002
 21
-9.3
 31
0.0
100
AcDbText
  0
ENDSEC
  0
SECTION
  2
OBJECTS
  0
DICTIONARY
  5
19
100
AcDbDictionary
  3
ACAD_GROUP
350
1A
  3
ACAD_MLINESTYLE
350
1B
  0
DICTIONARY
  5
1A
102
{ACAD_REACTORS
330
19
102
}
100
AcDbDictionary
  0
DICTIONARY
  5
1B
102
{ACAD_REACTORS
330
19
102
}
100
AcDbDictionary
  3
STANDARD
350
1C
  0
MLINESTYLE
  5
1C
102
{ACAD_REACTORS
330
1B
102
}
100
AcDbMlineStyle
  2
Standard
 70
     0
  3

 62
     0
 51
90.0
 52
90.0
 71
     2
 49
0.5
 62
   256
  6
ByLayer
 49
-0.5
 62
   256
  6
ByLayer
  0
ENDSEC
  0
EOF
