  0
SECTION
  2
HEADER
  9
$ACADVER
  1
AC1014
  9
$ACADMAINTVER
 70
     0
  9
$DWGCODEPAGE
  3
DOS932
  9
$INSBASE
 10
0.0
 20
0.0
 30
0.0
  9
$EXTMIN
 10
28.9
 20
-29.6
 30
0.0
  9
$EXTMAX
 10
809.0
 20
558.0
 30
0.0
  9
$LIMMIN
 10
0.0
 20
0.0
  9
$LIMMAX
 10
841.0
 20
594.0
  9
$ORTHOMODE
 70
     0
  9
$REGENMODE
 70
     1
  9
$FILLMODE
 70
     1
  9
$QTEXTMODE
 70
     0
  9
$MIRRTEXT
 70
     1
  9
$DRAGMODE
 70
     2
  9
$LTSCALE
 40
1.0
  9
$OSMODE
 70
     0
  9
$ATTMODE
 70
     1
  9
$TEXTSIZE
 40
0.2
  9
$TRACEWID
 40
0.05
  9
$TEXTSTYLE
  7
STANDARD
  9
$CLAYER
  8
LAY-2
  9
$CELTYPE
  6
CONTINUOUS
  9
$CECOLOR
 62
   256
  9
$CELTSCALE
 40
1.0
  9
$DELOBJ
 70
     1
  9
$DISPSILH
 70
     0
  9
$DIMSCALE
 40
1.0
  9
$DIMASZ
 40
0.18
  9
$DIMEXO
 40
0.0625
  9
$DIMDLI
 40
0.38
  9
$DIMRND
 40
0.0
  9
$DIMDLE
 40
0.0
  9
$DIMEXE
 40
0.18
  9
$DIMTP
 40
0.0
  9
$DIMTM
 40
0.0
  9
$DIMTXT
 40
0.18
  9
$DIMCEN
 40
0.09
  9
$DIMTSZ
 40
0.0
  9
$DIMTOL
 70
     0
  9
$DIMLIM
 70
     0
  9
$DIMTIH
 70
     1
  9
$DIMTOH
 70
     1
  9
$DIMSE1
 70
     0
  9
$DIMSE2
 70
     0
  9
$DIMTAD
 70
     0
  9
$DIMZIN
 70
     0
  9
$DIMBLK
  1

  9
$DIMASO
 70
     1
  9
$DIMSHO
 70
     1
  9
$DIMPOST
  1

  9
$DIMAPOST
  1

  9
$DIMALT
 70
     0
  9
$DIMALTD
 70
     2
  9
$DIMALTF
 40
25.4
  9
$DIMLFAC
 40
1.0
  9
$DIMTOFL
 70
     0
  9
$DIMTVP
 40
0.0
  9
$DIMTIX
 70
     0
  9
$DIMSOXD
 70
     0
  9
$DIMSAH
 70
     0
  9
$DIMBLK1
  1

  9
$DIMBLK2
  1

  9
$DIMSTYLE
  2
STANDARD
  9
$DIMCLRD
 70
     0
  9
$DIMCLRE
 70
     0
  9
$DIMCLRT
 70
     0
  9
$DIMTFAC
 40
1.0
  9
$DIMGAP
 40
0.09
  9
$DIMJUST
 70
     0
  9
$DIMSD1
 70
     0
  9
$DIMSD2
 70
     0
  9
$DIMTOLJ
 70
     1
  9
$DIMTZIN
 70
     0
  9
$DIMALTZ
 70
     0
  9
$DIMALTTZ
 70
     0
  9
$DIMFIT
 70
     3
  9
$DIMUPT
 70
     0
  9
$DIMUNIT
 70
     2
  9
$DIMDEC
 70
     4
  9
$DIMTDEC
 70
     4
  9
$DIMALTU
 70
     2
  9
$DIMALTTD
 70
     2
  9
$DIMTXSTY
  7
STANDARD
  9
$DIMAUNIT
 70
     0
  9
$LUNITS
 70
     2
  9
$LUPREC
 70
     4
  9
$SKETCHINC
 40
0.1
  9
$FILLETRAD
 40
0.0
  9
$AUNITS
 70
     0
  9
$AUPREC
 70
     0
  9
$MENU
  1
acad
  9
$ELEVATION
 40
0.0
  9
$PELEVATION
 40
0.0
  9
$THICKNESS
 40
0.0
  9
$LIMCHECK
 70
     0
  9
$BLIPMODE
 70
     1
  9
$CHAMFERA
 40
0.0
  9
$CHAMFERB
 40
0.0
  9
$CHAMFERC
 40
0.0
  9
$CHAMFERD
 40
0.0
  9
$SKPOLY
 70
     0
  9
$TDCREATE
 40
2453499.037741019
  9
$TDUPDATE
 40
2453499.037741019
  9
$TDINDWG
 40
0.0000000000
  9
$TDUSRTIMER
 40
0.0000000000
  9
$USRTIMER
 70
     1
  9
$ANGBASE
 50
0.0
  9
$ANGDIR
 70
     0
  9
$PDMODE
 70
     0
  9
$PDSIZE
 40
0.0
  9
$PLINEWID
 40
0.0
  9
$COORDS
 70
     1
  9
$SPLFRAME
 70
     0
  9
$SPLINETYPE
 70
     6
  9
$SPLINESEGS
 70
     8
  9
$ATTDIA
 70
     0
  9
$ATTREQ
 70
     1
  9
$HANDLING
 70
     1
  9
$HANDSEED
  5
5A1
  9
$SURFTAB1
 70
     6
  9
$SURFTAB2
 70
     6
  9
$SURFTYPE
 70
     6
  9
$SURFU
 70
     6
  9
$SURFV
 70
     6
  9
$UCSNAME
  2

  9
$UCSORG
 10
0.0
 20
0.0
 30
0.0
  9
$UCSXDIR
 10
1.0
 20
0.0
 30
0.0
  9
$UCSYDIR
 10
0.0
 20
1.0
 30
0.0
  9
$PUCSNAME
  2

  9
$PUCSORG
 10
0.0
 20
0.0
 30
0.0
  9
$PUCSXDIR
 10
1.0
 20
0.0
 30
0.0
  9
$PUCSYDIR
 10
0.0
 20
1.0
 30
0.0
  9
$USERI1
 70
     0
  9
$USERI2
 70
     0
  9
$USERI3
 70
     0
  9
$USERI4
 70
     0
  9
$USERI5
 70
     0
  9
$USERR1
 40
0.0
  9
$USERR2
 40
0.0
  9
$USERR3
 40
0.0
  9
$USERR4
 40
0.0
  9
$USERR5
 40
0.0
  9
$WORLDVIEW
 70
     1
  9
$SHADEDGE
 70
     3
  9
$SHADEDIF
 70
    70
  9
$TILEMODE
 70
     1
  9
$MAXACTVP
 70
    16
  9
$PINSBASE
 10
0.0
 20
0.0
 30
0.0
  9
$PLIMCHECK
 70
     0
  9
$PEXTMIN
 10
1.000000E+20
 20
1.000000E+20
 30
1.000000E+20
  9
$PEXTMAX
 10
-1.000000E+20
 20
-1.000000E+20
 30
-1.000000E+20
  9
$PLIMMIN
 10
0.0
 20
0.0
  9
$PLIMMAX
 10
12.0
 20
9.0
  9
$UNITMODE
 70
     0
  9
$VISRETAIN
 70
     0
  9
$PLINEGEN
 70
     1
  9
$PSLTSCALE
 70
     0
  9
$TREEDEPTH
 70
  3020
  9
$PICKSTYLE
 70
     1
  9
$CMLSTYLE
  2
Standard
  9
$CMLJUST
 70
     0
  9
$CMLSCALE
 40
1.0
  9
$PROXYGRAPHICS
 70
     0
  9
$MEASUREMENT
 70
     0
  0
ENDSEC
  0
SECTION
  2
CLASSES
  0
CLASS
  1
LWPOLYLINE
  2
AcDbPolyline
  3
"AutoCAD"
 90
        0
280
     0
281
     1
  0
CLASS
  1
IMAGE
  2
AcDbRasterImage
  3
ISM
 90
      127
280
     0
281
     1
  0
CLASS
  1
OLE2FRAME
  2
AcDbOle2Frame
  3
""
 90
        0
280
     0
281
     1
  0
CLASS
  1
HATCH
  2
AcDbHatch
  3
"ACAD_SEDONA"
 90
        0
280
     0
281
     1
  0
CLASS
  1
DICTIONARYVAR
  2
AcDbDictionaryVar
  3
"AutoCAD"
 90
        0
280
     0
281
     0
  0
CLASS
  1
RASTERVARIABLES
  2
AcDbRasterVariables
  3
ISM
 90
        0
280
     0
281
     0
  0
CLASS
  1
IMAGEDEF
  2
AcDbRasterImageDef
  3
ISM
 90
        0
280
     0
281
     0
  0
CLASS
  1
IMAGEDEF_REACTOR
  2
AcDbRasterImageDefReactor
  3
ISM
 90
        1
280
     0
281
     0
  0
CLASS
  1
IDBUFFER
  2
AcDbIdBuffer
  3
"Acad"
 90
        0
280
     0
281
     0
  0
CLASS
  1
SPATIAL_FILTER
  2
AcDbSpatialFilter
  3
"Acad"
 90
        0
280
     0
281
     0
  0
CLASS
  1
XRECORD
  2
AcDbXrecord
  3
"<Built In>"
 90
        0
280
     0
281
     0
  0
CLASS
  1
SORTENTSTABLE
  2
AcDbSortentsTable
  3
"AutoCAD"
 90
        0
280
     0
281
     0
  0
CLASS
  1
LAYER_INDEX
  2
AcDbLayerIndex
  3
"Acad"
 90
        0
280
     0
281
     0
  0
CLASS
  1
SPATIAL_INDEX
  2
AcDbSpatialIndex
  3
"Acad"
 90
        0
280
     0
281
     0
  0
CLASS
  1
OBJECT_PTR
  2
CAseDLPNTableRecord
  3
"ASE-LPNTableRecord"
 90
        1
280
     0
281
     0
  0
CLASS
  1
LAYOUT
  2
AcDbLayout
  3
"AutoCAD 2000"
 90
        1
280
     0
281
     0
  0
CLASS
  1
PLOTSETTINGS
  2
AcDbPlotSettings
  3
"AutoCAD 2000"
 90
        1
280
     0
281
     0
  0
CLASS
  1
ACDBDICTIONARYWDFLT
  2
AcDbDictionaryWithDefault
  3
"AutoCAD 2000"
 90
        1
280
     0
281
     0
  0
CLASS
  1
ACDBPLACEHOLDER
  2
AcDbPlaceHolder
  3
"AutoCAD 2000"
 90
        1
280
     0
281
     0
  0
CLASS
  1
VBA_PROJECT
  2
AcDbVbaProject
  3
"acadvba"
 90
        1
280
     0
281
     0
  0
CLASS
  1
WIPEOUT
  2
AcDbWipeout
  3
WipeOut|AutoCAD Express Tool|expresstools@autodesk.com
 90
      127
280
     0
281
     1
  0
CLASS
  1
WIPEOUTVARIABLES
  2
AcDbWipeoutVariables
  3
WipeOut|AutoCAD Express Tool|expresstools@autodesk.com
 90
        0
280
     0
281
     0
  0
CLASS
  1
RTEXT
  2
RText
  3
RText|AutoCAD Express Tool|expresstools@autodesk.com
 90
        0
280
     0
281
     1
  0
CLASS
  1
ARCALIGNEDTEXT
  2
AcDbArcAlignedText
  3
ATEXT|AutoCAD Express Tool|expresstools@autodesk.com
 90
        0
280
     0
281
     1
  0
ENDSEC
  0
SECTION
  2
TABLES
  0
TABLE
  2
VPORT
  5
7
100
AcDbSymbolTable
 70
     1
  0
VPORT
  5
15
100
AcDbSymbolTableRecord
100
AcDbViewportTableRecord
  2
*ACTIVE
 70
     0
 10
0.0
 20
0.0
 11
1.0
 21
1.0
 12
418.95
 22
264.2
 13
0.0
 23
0.0
 14
1.0
 24
1.0
 15
0.0
 25
0.0
 16
0.0
 26
0.0
 36
1.0
 17
0.0
 27
0.0
 37
0.0
 40
587.6
 41
1.722533
 42
50.0
 43
0.0
 44
0.0
 50
0.0
 51
0.0
 71
     0
 72
   100
 73
     1
 74
     1
 75
     0
 76
     0
 77
     0
 78
     0
  0
ENDTAB
  0
TABLE
  2
LTYPE
  5
4
100
AcDbSymbolTable
 70
     9
  0
LTYPE
  5
11
100
AcDbSymbolTableRecord
100
AcDbLinetypeTableRecord
  2
BYBLOCK
 70
    64
  3

 72
    65
 73
     0
 40
0.0
  0
LTYPE
  5
12
100
AcDbSymbolTableRecord
100
AcDbLinetypeTableRecord
  2
BYLAYER
 70
    64
  3

 72
    65
 73
     0
 40
0.0
  0
LTYPE
  5
13
100
AcDbSymbolTableRecord
100
AcDbLinetypeTableRecord
  2
CONTINUOUS
 70
    64
  3
実線
 72
    65
 73
     0
 40
0.0
  0
LTYPE
  5
1D
100
AcDbSymbolTableRecord
100
AcDbLinetypeTableRecord
  2
EXLTYPE1
 70
    64
  3
破線
 72
    65
 73
     2
 40
4.0
 49
3.0
 74
     0
 49
-1.0
 74
     0
  0
LTYPE
  5
1E
100
AcDbSymbolTableRecord
100
AcDbLinetypeTableRecord
  2
EXLTYPE2
 70
    64
  3
点線
 72
    65
 73
     2
 40
2.0
 49
1.0
 74
     0
 49
-1.0
 74
     0
  0
LTYPE
  5
1F
100
AcDbSymbolTableRecord
100
AcDbLinetypeTableRecord
  2
EXLTYPE3
 70
    64
  3
一点鎖線
 72
    65
 73
     4
 40
33.0
 49
30.0
 74
     0
 49
-1.0
 74
     0
 49
1.0
 74
     0
 49
-1.0
 74
     0
  0
LTYPE
  5
20
100
AcDbSymbolTableRecord
100
AcDbLinetypeTableRecord
  2
EXLTYPE4
 70
    64
  3
二点鎖線
 72
    65
 73
     6
 40
35.0
 49
30.0
 74
     0
 49
-1.0
 74
     0
 49
1.0
 74
     0
 49
-1.0
 74
     0
 49
1.0
 74
     0
 49
-1.0
 74
     0
  0
LTYPE
  5
21
100
AcDbSymbolTableRecord
100
AcDbLinetypeTableRecord
  2
EXLTYPE5
 70
    64
  3
三点鎖線
 72
    65
 73
     8
 40
37.0
 49
30.0
 74
     0
 49
-1.0
 74
     0
 49
1.0
 74
     0
 49
-1.0
 74
     0
 49
1.0
 74
     0
 49
-1.0
 74
     0
 49
1.0
 74
     0
 49
-1.0
 74
     0
  0
LTYPE
  5
22
100
AcDbSymbolTableRecord
100
AcDbLinetypeTableRecord
  2
EXLTYPE6
 70
    64
  3
四点鎖線
 72
    65
 73
    10
 40
39.0
 49
30.0
 74
     0
 49
-1.0
 74
     0
 49
1.0
 74
     0
 49
-1.0
 74
     0
 49
1.0
 74
     0
 49
-1.0
 74
     0
 49
1.0
 74
     0
 49
-1.0
 74
     0
 49
1.0
 74
     0
 49
-1.0
 74
     0
  0
ENDTAB
  0
TABLE
  2
LAYER
  5
2
100
AcDbSymbolTable
 70
     3
  0
LAYER
  5
14
100
AcDbSymbolTableRecord
100
AcDbLayerTableRecord
  2
0
 70
     0
 62
     7
  6
CONTINUOUS
  0
LAYER
  5
25
100
AcDbSymbolTableRecord
100
AcDbLayerTableRecord
  2
LAY-1
 70
    64
 62
     7
  6
CONTINUOUS
  0
LAYER
  5
26
100
AcDbSymbolTableRecord
100
AcDbLayerTableRecord
  2
LAY-2
 70
    64
 62
     7
  6
CONTINUOUS
  0
ENDTAB
  0
TABLE
  2
STYLE
  5
3
100
AcDbSymbolTable
 70
     4
  0
STYLE
  5
17
100
AcDbSymbolTableRecord
100
AcDbTextStyleTableRecord
  2
STANDARD
 70
     0
 40
0.0
 41
1.0
 50
0.0
 71
     0
 42
0.0
  3
monotxt
  4
extfont
  0
STYLE
  5
23
100
AcDbSymbolTableRecord
100
AcDbTextStyleTableRecord
  2
EXCADSTD
 70
    64
 40
0.0
 41
1.0
 50
0.0
 71
     0
 42
0.2
  3
monotxt
  4
extfont
  0
STYLE
  5
24
100
AcDbSymbolTableRecord
100
AcDbTextStyleTableRecord
  2
EXCADVERT
 70
    68
 40
0.0
 41
1.0
 50
0.0
 71
     0
 42
0.286885
  3
monotxt
  4
extfont
  0
STYLE
  5
59F
100
AcDbSymbolTableRecord
100
AcDbTextStyleTableRecord
  2
EXCADTTF1
 70
    64
 40
0.0
 41
1.0
 50
0.0
 71
     0
 42
0.2
  3
MS Gothic.ttf
  4

1001
ACAD
1000
MS Gothic
1071
    32817
  0
ENDTAB
  0
TABLE
  2
VIEW
  5
5
100
AcDbSymbolTable
 70
     0
  0
ENDTAB
  0
TABLE
  2
UCS
  5
6
100
AcDbSymbolTable
 70
     0
  0
ENDTAB
  0
TABLE
  2
APPID
  5
8
100
AcDbSymbolTable
 70
     1
  0
APPID
  5
16
100
AcDbSymbolTableRecord
100
AcDbRegAppTableRecord
  2
ACAD
 70
     0
  0
ENDTAB
  0
TABLE
  2
DIMSTYLE
  5
9
100
AcDbSymbolTable
 70
     1
  0
DIMSTYLE
105
18
100
AcDbSymbolTableRecord
100
AcDbDimStyleTableRecord
  2
STANDARD
 70
     0
  3

  4

  5

  6

  7

 40
1.0
 41
0.18
 42
0.0625
 43
0.38
 44
0.18
 45
0.0
 46
0.0
 47
0.0
 48
0.0
 71
     0
 72
     0
 73
     1
 74
     1
 75
     0
 76
     0
 77
     0
 78
     0
140
0.18
141
0.09
142
0.0
143
25.4
144
1.0
145
0.0
146
1.0
147
0.09
170
     0
171
     2
172
     0
173
     0
174
     0
175
     0
176
     0
177
     0
178
     0
270
     2
271
     4
272
     4
273
     2
274
     2
275
     0
280
     0
281
     0
282
     0
283
     1
284
     0
285
     0
286
     0
287
     0
288
     0
340
17
  0
ENDTAB
  0
TABLE
  2
BLOCK_RECORD
  5
1
100
AcDbSymbolTable
 70
    14
  0
BLOCK_RECORD
  5
A
100
AcDbSymbolTableRecord
100
AcDbBlockTableRecord
  2
*MODEL_SPACE
  0
BLOCK_RECORD
  5
B
100
AcDbSymbolTableRecord
100
AcDbBlockTableRecord
  2
*PAPER_SPACE
  0
BLOCK_RECORD
  5
27
100
AcDbSymbolTableRecord
100
AcDbBlockTableRecord
  2
_EX_NORM
  0
BLOCK_RECORD
  5
28
100
AcDbSymbolTableRecord
100
AcDbBlockTableRecord
  2
_EX_BNORM
  0
BLOCK_RECORD
  5
29
100
AcDbSymbolTableRecord
100
AcDbBlockTableRecord
  2
_EX_BCIR
  0
BLOCK_RECORD
  5
2A
100
AcDbSymbolTableRecord
100
AcDbBlockTableRecord
  2
_EX_RCIVIL
  0
BLOCK_RECORD
  5
2B
100
AcDbSymbolTableRecord
100
AcDbBlockTableRecord
  2
_EX_SLANT
  0
BLOCK_RECORD
  5
2C
100
AcDbSymbolTableRecord
100
AcDbBlockTableRecord
  2
_EX_NONE
  0
BLOCK_RECORD
  5
2D
100
AcDbSymbolTableRecord
100
AcDbBlockTableRecord
  2
_EX_CIVIL
  0
BLOCK_RECORD
  5
2E
100
AcDbSymbolTableRecord
100
AcDbBlockTableRecord
  2
_EX_WCIR
  0
BLOCK_RECORD
  5
2F
100
AcDbSymbolTableRecord
100
AcDbBlockTableRecord
  2
_EX_WCIR2
  0
BLOCK_RECORD
  5
30
100
AcDbSymbolTableRecord
100
AcDbBlockTableRecord
  2
_EX_WNORM
  0
BLOCK_RECORD
  5
31
100
AcDbSymbolTableRecord
100
AcDbBlockTableRecord
  2
_EX_NNORM
  0
BLOCK_RECORD
  5
32
100
AcDbSymbolTableRecord
100
AcDbBlockTableRecord
  2
_EX_BBOX
  0
BLOCK_RECORD
  5
33
100
AcDbSymbolTableRecord
100
AcDbBlockTableRecord
  2
_EX_WBOX
  0
BLOCK_RECORD
  5
34
100
AcDbSymbolTableRecord
100
AcDbBlockTableRecord
  2
_EX_INTEGRAL
  0
ENDTAB
  0
ENDSEC
  0
SECTION
  2
BLOCKS
  0
BLOCK
  5
D
100
AcDbEntity
  8
0
100
AcDbBlockBegin
  2
*MODEL_SPACE
 70
     0
 10
0.0
 20
0.0
 30
0.0
  3
*MODEL_SPACE
  1

  0
ENDBLK
  5
E
100
AcDbEntity
  8
0
100
AcDbBlockEnd
  0
BLOCK
  5
F
100
AcDbEntity
 67
     1
  8
0
100
AcDbBlockBegin
  2
*PAPER_SPACE
 70
     0
 10
0.0
 20
0.0
 30
0.0
  3
*PAPER_SPACE
  1

  0
ENDBLK
  5
10
100
AcDbEntity
 67
     1
  8
0
100
AcDbBlockEnd
  0
BLOCK
  5
35
100
AcDbEntity
  8
0
100
AcDbBlockBegin
  2
_EX_NORM
 70
     0
 10
0.0
 20
0.0
 30
0.0
  3
_EX_NORM
  1

  0
LINE
  5
36
100
AcDbEntity
  8
0
  6
CONTINUOUS
 62
     0
100
AcDbLine
 10
0.0
 20
0.0
 30
0.0
 11
-1.0
 21
0.0
 31
0.0
  0
LINE
  5
37
100
AcDbEntity
  8
0
  6
CONTINUOUS
 62
     0
100
AcDbLine
 10
0.0
 20
0.0
 30
0.0
 11
-1.0
 21
0.166667
 31
0.0
  0
LINE
  5
38
100
AcDbEntity
  8
0
  6
CONTINUOUS
 62
     0
100
AcDbLine
 10
0.0
 20
0.0
 30
0.0
 11
-1.0
 21
-0.166667
 31
0.0
  0
ENDBLK
  5
39
100
AcDbEntity
  8
0
100
AcDbBlockEnd
  0
BLOCK
  5
3A
100
AcDbEntity
  8
0
100
AcDbBlockBegin
  2
_EX_BNORM
 70
     0
 10
0.0
 20
0.0
 30
0.0
  3
_EX_BNORM
  1

  0
LINE
  5
3B
100
AcDbEntity
  8
0
  6
CONTINUOUS
 62
     0
100
AcDbLine
 10
0.0
 20
0.0
 30
0.0
 11
-1.0
 21
0.0
 31
0.0
  0
LINE
  5
3C
100
AcDbEntity
  8
0
  6
CONTINUOUS
 62
     0
100
AcDbLine
 10
0.0
 20
0.0
 30
0.0
 11
-1.0
 21
0.166667
 31
0.0
  0
LINE
  5
3D
100
AcDbEntity
  8
0
  6
CONTINUOUS
 62
     0
100
AcDbLine
 10
0.0
 20
0.0
 30
0.0
 11
-1.0
 21
-0.166667
 31
0.0
  0
LINE
  5
3E
100
AcDbEntity
  8
0
  6
CONTINUOUS
 62
     0
100
AcDbLine
 10
0.0
 20
0.0
 30
0.0
 11
-1.0
 21
0.083333
 31
0.0
  0
LINE
  5
3F
100
AcDbEntity
  8
0
  6
CONTINUOUS
 62
     0
100
AcDbLine
 10
0.0
 20
0.0
 30
0.0
 11
-1.0
 21
-0.083333
 31
0.0
  0
LINE
  5
40
100
AcDbEntity
  8
0
  6
CONTINUOUS
 62
     0
100
AcDbLine
 10
-1.0
 20
0.166667
 30
0.0
 11
-1.0
 21
-0.166667
 31
0.0
  0
ENDBLK
  5
41
100
AcDbEntity
  8
0
100
AcDbBlockEnd
  0
BLOCK
  5
42
100
AcDbEntity
  8
0
100
AcDbBlockBegin
  2
_EX_BCIR
 70
     0
 10
0.0
 20
0.0
 30
0.0
  3
_EX_BCIR
  1

  0
LINE
  5
43
100
AcDbEntity
  8
0
  6
CONTINUOUS
 62
     0
100
AcDbLine
 10
0.0
 20
0.0
 30
0.0
 11
-1.0
 21
0.0
 31
0.0
  0
CIRCLE
  5
44
100
AcDbEntity
  8
0
  6
CONTINUOUS
 62
     0
100
AcDbCircle
 10
0.0
 20
0.0
 30
0.0
 40
0.5
  0
CIRCLE
  5
45
100
AcDbEntity
  8
0
  6
CONTINUOUS
 62
     0
100
AcDbCircle
 10
0.0
 20
0.0
 30
0.0
 40
0.25
  0
ENDBLK
  5
46
100
AcDbEntity
  8
0
100
AcDbBlockEnd
  0
BLOCK
  5
47
100
AcDbEntity
  8
0
100
AcDbBlockBegin
  2
_EX_RCIVIL
 70
     0
 10
0.0
 20
0.0
 30
0.0
  3
_EX_RCIVIL
  1

  0
LINE
  5
48
100
AcDbEntity
  8
0
  6
CONTINUOUS
 62
     0
100
AcDbLine
 10
0.0
 20
0.0
 30
0.0
 11
-1.0
 21
0.0
 31
0.0
  0
LINE
  5
49
100
AcDbEntity
  8
0
  6
CONTINUOUS
 62
     0
100
AcDbLine
 10
-1.0
 20
-0.25
 30
0.0
 11
0.0
 21
-0.25
 31
0.0
  0
LINE
  5
4A
100
AcDbEntity
  8
0
  6
CONTINUOUS
 62
     0
100
AcDbLine
 10
-1.0
 20
-0.125
 30
0.0
 11
0.0
 21
-0.125
 31
0.0
  0
ENDBLK
  5
4B
100
AcDbEntity
  8
0
100
AcDbBlockEnd
  0
BLOCK
  5
4C
100
AcDbEntity
  8
0
100
AcDbBlockBegin
  2
_EX_SLANT
 70
     0
 10
0.0
 20
0.0
 30
0.0
  3
_EX_SLANT
  1

  0
LINE
  5
4D
100
AcDbEntity
  8
0
  6
CONTINUOUS
 62
     0
100
AcDbLine
 10
0.0
 20
0.0
 30
0.0
 11
-1.0
 21
0.0
 31
0.0
  0
LINE
  5
4E
100
AcDbEntity
  8
0
  6
CONTINUOUS
 62
     0
100
AcDbLine
 10
0.707107
 20
0.707107
 30
0.0
 11
-0.707107
 21
-0.707107
 31
0.0
  0
ENDBLK
  5
4F
100
AcDbEntity
  8
0
100
AcDbBlockEnd
  0
BLOCK
  5
50
100
AcDbEntity
  8
0
100
AcDbBlockBegin
  2
_EX_NONE
 70
     0
 10
0.0
 20
0.0
 30
0.0
  3
_EX_NONE
  1

  0
LINE
  5
51
100
AcDbEntity
  8
0
  6
CONTINUOUS
 62
     0
100
AcDbLine
 10
0.0
 20
0.0
 30
0.0
 11
-1.0
 21
0.0
 31
0.0
  0
ENDBLK
  5
52
100
AcDbEntity
  8
0
100
AcDbBlockEnd
  0
BLOCK
  5
53
100
AcDbEntity
  8
0
100
AcDbBlockBegin
  2
_EX_CIVIL
 70
     0
 10
0.0
 20
0.0
 30
0.0
  3
_EX_CIVIL
  1

  0
LINE
  5
54
100
AcDbEntity
  8
0
  6
CONTINUOUS
 62
     0
100
AcDbLine
 10
0.0
 20
0.0
 30
0.0
 11
-1.0
 21
0.0
 31
0.0
  0
LINE
  5
55
100
AcDbEntity
  8
0
  6
CONTINUOUS
 62
     0
100
AcDbLine
 10
-1.0
 20
0.25
 30
0.0
 11
0.0
 21
0.25
 31
0.0
  0
LINE
  5
56
100
AcDbEntity
  8
0
  6
CONTINUOUS
 62
     0
100
AcDbLine
 10
-1.0
 20
0.125
 30
0.0
 11
0.0
 21
0.125
 31
0.0
  0
ENDBLK
  5
57
100
AcDbEntity
  8
0
100
AcDbBlockEnd
  0
BLOCK
  5
58
100
AcDbEntity
  8
0
100
AcDbBlockBegin
  2
_EX_WCIR
 70
     0
 10
0.0
 20
0.0
 30
0.0
  3
_EX_WCIR
  1

  0
LINE
  5
59
100
AcDbEntity
  8
0
  6
CONTINUOUS
 62
     0
100
AcDbLine
 10
0.0
 20
0.0
 30
0.0
 11
-1.0
 21
0.0
 31
0.0
  0
CIRCLE
  5
5A
100
AcDbEntity
  8
0
  6
CONTINUOUS
 62
     0
100
AcDbCircle
 10
0.0
 20
0.0
 30
0.0
 40
0.5
  0
ENDBLK
  5
5B
100
AcDbEntity
  8
0
100
AcDbBlockEnd
  0
BLOCK
  5
5C
100
AcDbEntity
  8
0
100
AcDbBlockBegin
  2
_EX_WCIR2
 70
     0
 10
0.0
 20
0.0
 30
0.0
  3
_EX_WCIR2
  1

  0
LINE
  5
5D
100
AcDbEntity
  8
0
  6
CONTINUOUS
 62
     0
100
AcDbLine
 10
-0.5
 20
0.0
 30
0.0
 11
-1.0
 21
0.0
 31
0.0
  0
CIRCLE
  5
5E
100
AcDbEntity
  8
0
  6
CONTINUOUS
 62
     0
100
AcDbCircle
 10
0.0
 20
0.0
 30
0.0
 40
0.5
  0
ENDBLK
  5
5F
100
AcDbEntity
  8
0
100
AcDbBlockEnd
  0
BLOCK
  5
60
100
AcDbEntity
  8
0
100
AcDbBlockBegin
  2
_EX_WNORM
 70
     0
 10
0.0
 20
0.0
 30
0.0
  3
_EX_WNORM
  1

  0
LINE
  5
61
100
AcDbEntity
  8
0
  6
CONTINUOUS
 62
     0
100
AcDbLine
 10
-1.0
 20
0.0
 30
0.0
 11
-1.0
 21
0.0
 31
0.0
  0
LINE
  5
62
100
AcDbEntity
  8
0
  6
CONTINUOUS
 62
     0
100
AcDbLine
 10
0.0
 20
0.0
 30
0.0
 11
-1.0
 21
0.166667
 31
0.0
  0
LINE
  5
63
100
AcDbEntity
  8
0
  6
CONTINUOUS
 62
     0
100
AcDbLine
 10
0.0
 20
0.0
 30
0.0
 11
-1.0
 21
-0.166667
 31
0.0
  0
LINE
  5
64
100
AcDbEntity
  8
0
  6
CONTINUOUS
 62
     0
100
AcDbLine
 10
-1.0
 20
0.166667
 30
0.0
 11
-1.0
 21
-0.166667
 31
0.0
  0
ENDBLK
  5
65
100
AcDbEntity
  8
0
100
AcDbBlockEnd
  0
BLOCK
  5
66
100
AcDbEntity
  8
0
100
AcDbBlockBegin
  2
_EX_NNORM
 70
     0
 10
0.0
 20
0.0
 30
0.0
  3
_EX_NNORM
  1

  0
LINE
  5
67
100
AcDbEntity
  8
0
  6
CONTINUOUS
 62
     0
100
AcDbLine
 10
0.0
 20
0.0
 30
0.0
 11
-1.0
 21
0.0
 31
0.0
  0
LINE
  5
68
100
AcDbEntity
  8
0
  6
CONTINUOUS
 62
     0
100
AcDbLine
 10
0.0
 20
0.0
 30
0.0
 11
-1.0
 21
0.166667
 31
0.0
  0
LINE
  5
69
100
AcDbEntity
  8
0
  6
CONTINUOUS
 62
     0
100
AcDbLine
 10
0.0
 20
0.0
 30
0.0
 11
-1.0
 21
-0.166667
 31
0.0
  0
LINE
  5
6A
100
AcDbEntity
  8
0
  6
CONTINUOUS
 62
     0
100
AcDbLine
 10
-1.0
 20
0.166667
 30
0.0
 11
-1.0
 21
-0.166667
 31
0.0
  0
ENDBLK
  5
6B
100
AcDbEntity
  8
0
100
AcDbBlockEnd
  0
BLOCK
  5
6C
100
AcDbEntity
  8
0
100
AcDbBlockBegin
  2
_EX_BBOX
 70
     0
 10
0.0
 20
0.0
 30
0.0
  3
_EX_BBOX
  1

  0
LINE
  5
6D
100
AcDbEntity
  8
0
  6
CONTINUOUS
 62
     0
100
AcDbLine
 10
0.0
 20
0.0
 30
0.0
 11
-1.0
 21
0.0
 31
0.0
  0
LINE
  5
6E
100
AcDbEntity
  8
0
  6
CONTINUOUS
 62
     0
100
AcDbLine
 10
-0.5
 20
0.5
 30
0.0
 11
0.5
 21
0.5
 31
0.0
  0
LINE
  5
6F
100
AcDbEntity
  8
0
  6
CONTINUOUS
 62
     0
100
AcDbLine
 10
0.5
 20
0.5
 30
0.0
 11
0.5
 21
-0.5
 31
0.0
  0
LINE
  5
70
100
AcDbEntity
  8
0
  6
CONTINUOUS
 62
     0
100
AcDbLine
 10
0.5
 20
-0.5
 30
0.0
 11
-0.5
 21
-0.5
 31
0.0
  0
LINE
  5
71
100
AcDbEntity
  8
0
  6
CONTINUOUS
 62
     0
100
AcDbLine
 10
-0.5
 20
-0.5
 30
0.0
 11
-0.5
 21
0.5
 31
0.0
  0
LINE
  5
72
100
AcDbEntity
  8
0
  6
CONTINUOUS
 62
     0
100
AcDbLine
 10
-0.25
 20
0.25
 30
0.0
 11
0.25
 21
0.25
 31
0.0
  0
LINE
  5
73
100
AcDbEntity
  8
0
  6
CONTINUOUS
 62
     0
100
AcDbLine
 10
0.25
 20
0.25
 30
0.0
 11
0.25
 21
-0.25
 31
0.0
  0
LINE
  5
74
100
AcDbEntity
  8
0
  6
CONTINUOUS
 62
     0
100
AcDbLine
 10
0.25
 20
-0.25
 30
0.0
 11
-0.25
 21
-0.25
 31
0.0
  0
LINE
  5
75
100
AcDbEntity
  8
0
  6
CONTINUOUS
 62
     0
100
AcDbLine
 10
-0.25
 20
-0.25
 30
0.0
 11
-0.25
 21
0.25
 31
0.0
  0
ENDBLK
  5
76
100
AcDbEntity
  8
0
100
AcDbBlockEnd
  0
BLOCK
  5
77
100
AcDbEntity
  8
0
100
AcDbBlockBegin
  2
_EX_WBOX
 70
     0
 10
0.0
 20
0.0
 30
0.0
  3
_EX_WBOX
  1

  0
LINE
  5
78
100
AcDbEntity
  8
0
  6
CONTINUOUS
 62
     0
100
AcDbLine
 10
-0.5
 20
0.0
 30
0.0
 11
-1.0
 21
0.0
 31
0.0
  0
LINE
  5
79
100
AcDbEntity
  8
0
  6
CONTINUOUS
 62
     0
100
AcDbLine
 10
-0.5
 20
0.5
 30
0.0
 11
0.5
 21
0.5
 31
0.0
  0
LINE
  5
7A
100
AcDbEntity
  8
0
  6
CONTINUOUS
 62
     0
100
AcDbLine
 10
0.5
 20
0.5
 30
0.0
 11
0.5
 21
-0.5
 31
0.0
  0
LINE
  5
7B
100
AcDbEntity
  8
0
  6
CONTINUOUS
 62
     0
100
AcDbLine
 10
0.5
 20
-0.5
 30
0.0
 11
-0.5
 21
-0.5
 31
0.0
  0
LINE
  5
7C
100
AcDbEntity
  8
0
  6
CONTINUOUS
 62
     0
100
AcDbLine
 10
-0.5
 20
-0.5
 30
0.0
 11
-0.5
 21
0.5
 31
0.0
  0
ENDBLK
  5
7D
100
AcDbEntity
  8
0
100
AcDbBlockEnd
  0
BLOCK
  5
7E
100
AcDbEntity
  8
0
100
AcDbBlockBegin
  2
_EX_INTEGRAL
 70
     0
 10
0.0
 20
0.0
 30
0.0
  3
_EX_INTEGRAL
  1

  0
LINE
  5
7F
100
AcDbEntity
  8
0
  6
CONTINUOUS
 62
     0
100
AcDbLine
 10
0.0
 20
0.0
 30
0.0
 11
-1.0
 21
0.0
 31
0.0
  0
ARC
  5
80
100
AcDbEntity
  8
0
  6
CONTINUOUS
 62
     0
100
AcDbCircle
 10
0.0
 20
0.0
 30
0.0
 40
0.707107
100
AcDbArc
 50
90.0
 51
180.0
  0
ARC
  5
81
100
AcDbEntity
  8
0
  6
CONTINUOUS
 62
     0
100
AcDbCircle
 10
0.0
 20
0.0
 30
0.0
 40
0.707107
100
AcDbArc
 50
270.0
 51
0.0
  0
ENDBLK
  5
82
100
AcDbEntity
  8
0
100
AcDbBlockEnd
  0
ENDSEC
  0
SECTION
  2
ENTITIES
  0
LINE
  5
83
100
AcDbEntity
  8
LAY-1
  6
CONTINUOUS
 62
     3
100
AcDbLine
 10
123.121429
 20
518.2
 30
0.0
 11
121.721429
 21
518.2
 31
0.0
  0
LINE
  5
84
100
AcDbEntity
  8
LAY-1
  6
CONTINUOUS
 62
     3
100
AcDbLine
 10
123.121429
 20
508.2
 30
0.0
 11
121.721429
 21
508.2
 31
0.0
  0
LINE
  5
85
100
AcDbEntity
  8
LAY-1
  6
CONTINUOUS
 62
     3
100
AcDbLine
 10
124.121429
 20
515.95
 30
0.0
 11
123.121429
 21
515.95
 31
0.0
  0
LINE
  5
86
100
AcDbEntity
  8
LAY-1
  6
CONTINUOUS
 62
     3
100
AcDbLine
 10
124.121429
 20
510.45
 30
0.0
 11
123.121429
 21
510.45
 31
0.0
  0
LINE
  5
87
100
AcDbEntity
  8
LAY-1
  6
CONTINUOUS
 62
     3
100
AcDbLine
 10
124.121429
 20
515.95
 30
0.0
 11
124.121429
 21
510.45
 31
0.0
  0
LINE
  5
88
100
AcDbEntity
  8
LAY-1
  6
CONTINUOUS
 62
     3
100
AcDbLine
 10
123.121429
 20
518.2
 30
0.0
 11
123.121429
 21
508.2
 31
0.0
  0
LINE
  5
89
100
AcDbEntity
  8
LAY-1
  6
CONTINUOUS
 62
     3
100
AcDbLine
 10
121.721429
 20
518.2
 30
0.0
 11
121.721429
 21
508.2
 31
0.0
  0
LINE
  5
8A
100
AcDbEntity
  8
LAY-1
  6
CONTINUOUS
 62
     3
100
AcDbLine
 10
100.121429
 20
518.2
 30
0.0
 11
101.521429
 21
518.2
 31
0.0
  0
LINE
  5
8B
100
AcDbEntity
  8
LAY-1
  6
CONTINUOUS
 62
     3
100
AcDbLine
 10
100.121429
 20
508.2
 30
0.0
 11
101.521429
 21
508.2
 31
0.0
  0
LINE
  5
8C
100
AcDbEntity
  8
LAY-1
  6
CONTINUOUS
 62
     3
100
AcDbLine
 10
99.121429
 20
515.95
 30
0.0
 11
100.121429
 21
515.95
 31
0.0
  0
LINE
  5
8D
100
AcDbEntity
  8
LAY-1
  6
CONTINUOUS
 62
     3
100
AcDbLine
 10
99.121429
 20
510.45
 30
0.0
 11
100.121429
 21
510.45
 31
0.0
  0
LINE
  5
8E
100
AcDbEntity
  8
LAY-1
  6
CONTINUOUS
 62
     3
100
AcDbLine
 10
99.121429
 20
515.95
 30
0.0
 11
99.121429
 21
510.45
 31
0.0
  0
LINE
  5
8F
100
AcDbEntity
  8
LAY-1
  6
CONTINUOUS
 62
     3
100
AcDbLine
 10
100.121429
 20
518.2
 30
0.0
 11
100.121429
 21
508.2
 31
0.0
  0
LINE
  5
90
100
AcDbEntity
  8
LAY-1
  6
CONTINUOUS
 62
     3
100
AcDbLine
 10
101.521429
 20
518.2
 30
0.0
 11
101.521429
 21
508.2
 31
0.0
  0
ARC
  5
91
100
AcDbEntity
  8
LAY-1
  6
CONTINUOUS
 62
     3
100
AcDbCircle
 10
106.621429
 20
514.59
 30
0.0
 40
2.2
100
AcDbArc
 50
27.645523
 51
152.354477
  0
ARC
  5
92
100
AcDbEntity
  8
LAY-1
  6
CONTINUOUS
 62
     3
100
AcDbCircle
 10
108.836017
 20
515.75
 30
0.0
 40
0.3
100
AcDbArc
 50
207.645523
 51
270.0
  0
ARC
  5
93
100
AcDbEntity
  8
LAY-1
  6
CONTINUOUS
 62
     3
100
AcDbCircle
 10
104.406841
 20
515.75
 30
0.0
 40
0.3
100
AcDbArc
 50
270.0
 51
332.354477
  0
ARC
  5
94
100
AcDbEntity
  8
LAY-1
  6
CONTINUOUS
 62
     3
100
AcDbCircle
 10
104.406841
 20
510.65
 30
0.0
 40
0.3
100
AcDbArc
 50
27.645523
 51
90.0
  0
ARC
  5
95
100
AcDbEntity
  8
LAY-1
  6
CONTINUOUS
 62
     3
100
AcDbCircle
 10
106.621429
 20
511.81
 30
0.0
 40
2.2
100
AcDbArc
 50
207.645523
 51
332.354477
  0
ARC
  5
96
100
AcDbEntity
  8
LAY-1
  6
CONTINUOUS
 62
     3
100
AcDbCircle
 10
108.836017
 20
510.65
 30
0.0
 40
0.3
100
AcDbArc
 50
90.0
 51
152.354477
  0
LINE
  5
97
100
AcDbEntity
  8
LAY-1
  6
CONTINUOUS
 62
     3
100
AcDbLine
 10
104.672591
 20
515.6108
 30
0.0
 11
104.672591
 21
510.7892
 31
0.0
  0
LINE
  5
98
100
AcDbEntity
  8
LAY-1
  6
CONTINUOUS
 62
     3
100
AcDbLine
 10
108.570266
 20
510.7892
 30
0.0
 11
108.570266
 21
515.6108
 31
0.0
  0
LINE
  5
99
100
AcDbEntity
  8
LAY-1
  6
CONTINUOUS
 62
     3
100
AcDbLine
 10
101.521429
 20
515.45
 30
0.0
 11
104.406841
 21
515.45
 31
0.0
  0
LINE
  5
9A
100
AcDbEntity
  8
LAY-1
  6
CONTINUOUS
 62
     3
100
AcDbLine
 10
104.406841
 20
510.95
 30
0.0
 11
101.521429
 21
510.95
 31
0.0
  0
LINE
  5
9B
100
AcDbEntity
  8
LAY-1
  6
EXLTYPE3
 62
     1
100
AcDbLine
 10
126.7
 20
513.2
 30
0.0
 11
95.9
 21
513.2
 31
0.0
  0
ARC
  5
9C
100
AcDbEntity
  8
LAY-1
  6
CONTINUOUS
 62
     3
100
AcDbCircle
 10
116.621429
 20
514.59
 30
0.0
 40
2.2
100
AcDbArc
 50
27.645523
 51
152.354477
  0
ARC
  5
9D
100
AcDbEntity
  8
LAY-1
  6
CONTINUOUS
 62
     3
100
AcDbCircle
 10
118.836017
 20
515.75
 30
0.0
 40
0.3
100
AcDbArc
 50
207.645523
 51
270.0
  0
ARC
  5
9E
100
AcDbEntity
  8
LAY-1
  6
CONTINUOUS
 62
     3
100
AcDbCircle
 10
114.406841
 20
515.75
 30
0.0
 40
0.3
100
AcDbArc
 50
270.0
 51
332.354477
  0
ARC
  5
9F
100
AcDbEntity
  8
LAY-1
  6
CONTINUOUS
 62
     3
100
AcDbCircle
 10
114.406841
 20
510.65
 30
0.0
 40
0.3
100
AcDbArc
 50
27.645523
 51
90.0
  0
ARC
  5
A0
100
AcDbEntity
  8
LAY-1
  6
CONTINUOUS
 62
     3
100
AcDbCircle
 10
116.621429
 20
511.81
 30
0.0
 40
2.2
100
AcDbArc
 50
207.645523
 51
332.354477
  0
ARC
  5
A1
100
AcDbEntity
  8
LAY-1
  6
CONTINUOUS
 62
     3
100
AcDbCircle
 10
118.836017
 20
510.65
 30
0.0
 40
0.3
100
AcDbArc
 50
90.0
 51
152.354477
  0
LINE
  5
A2
100
AcDbEntity
  8
LAY-1
  6
CONTINUOUS
 62
     3
100
AcDbLine
 10
114.672591
 20
515.6108
 30
0.0
 11
114.672591
 21
510.7892
 31
0.0
  0
LINE
  5
A3
100
AcDbEntity
  8
LAY-1
  6
CONTINUOUS
 62
     3
100
AcDbLine
 10
118.570266
 20
510.7892
 30
0.0
 11
118.570266
 21
515.6108
 31
0.0
  0
LINE
  5
A4
100
AcDbEntity
  8
LAY-1
  6
CONTINUOUS
 62
     3
100
AcDbLine
 10
108.836017
 20
515.45
 30
0.0
 11
114.406841
 21
515.45
 31
0.0
  0
LINE
  5
A5
100
AcDbEntity
  8
LAY-1
  6
CONTINUOUS
 62
     3
100
AcDbLine
 10
118.836017
 20
515.45
 30
0.0
 11
121.721429
 21
515.45
 31
0.0
  0
LINE
  5
A6
100
AcDbEntity
  8
LAY-1
  6
CONTINUOUS
 62
     3
100
AcDbLine
 10
121.721429
 20
510.95
 30
0.0
 11
118.836017
 21
510.95
 31
0.0
  0
LINE
  5
A7
100
AcDbEntity
  8
LAY-1
  6
CONTINUOUS
 62
     3
100
AcDbLine
 10
114.406841
 20
510.95
 30
0.0
 11
108.836017
 21
510.95
 31
0.0
  0
LINE
  5
A8
100
AcDbEntity
  8
LAY-1
  6
CONTINUOUS
 62
     3
100
AcDbLine
 10
234.564286
 20
519.45
 30
0.0
 11
234.564286
 21
506.95
 31
0.0
  0
LINE
  5
A9
100
AcDbEntity
  8
LAY-1
  6
CONTINUOUS
 62
     3
100
AcDbLine
 10
234.564286
 20
519.45
 30
0.0
 11
233.164286
 21
519.45
 31
0.0
  0
LINE
  5
AA
100
AcDbEntity
  8
LAY-1
  6
CONTINUOUS
 62
     3
100
AcDbLine
 10
234.564286
 20
506.95
 30
0.0
 11
233.164286
 21
506.95
 31
0.0
  0
LINE
  5
AB
100
AcDbEntity
  8
LAY-1
  6
CONTINUOUS
 62
     3
100
AcDbLine
 10
233.164286
 20
519.45
 30
0.0
 11
233.164286
 21
506.95
 31
0.0
  0
LINE
  5
AC
100
AcDbEntity
  8
LAY-1
  6
CONTINUOUS
 62
     3
100
AcDbLine
 10
235.564286
 20
510.2
 30
0.0
 11
234.564286
 21
510.2
 31
0.0
  0
LINE
  5
AD
100
AcDbEntity
  8
LAY-1
  6
CONTINUOUS
 62
     3
100
AcDbLine
 10
235.564286
 20
516.2
 30
0.0
 11
234.564286
 21
516.2
 31
0.0
  0
LINE
  5
AE
100
AcDbEntity
  8
LAY-1
  6
CONTINUOUS
 62
     3
100
AcDbLine
 10
235.564286
 20
510.2
 30
0.0
 11
235.564286
 21
516.2
 31
0.0
  0
ARC
  5
AF
100
AcDbEntity
  8
LAY-1
  6
CONTINUOUS
 62
     3
100
AcDbCircle
 10
220.278874
 20
516.0
 30
0.0
 40
0.3
100
AcDbArc
 50
207.645523
 51
270.0
  0
ARC
  5
B0
100
AcDbEntity
  8
LAY-1
  6
CONTINUOUS
 62
     3
100
AcDbCircle
 10
218.064286
 20
514.84
 30
0.0
 40
2.2
100
AcDbArc
 50
27.645523
 51
152.354477
  0
ARC
  5
B1
100
AcDbEntity
  8
LAY-1
  6
CONTINUOUS
 62
     3
100
AcDbCircle
 10
215.849698
 20
516.0
 30
0.0
 40
0.3
100
AcDbArc
 50
270.0
 51
332.354477
  0
ARC
  5
B2
100
AcDbEntity
  8
LAY-1
  6
CONTINUOUS
 62
     3
100
AcDbCircle
 10
220.278874
 20
510.4
 30
0.0
 40
0.3
100
AcDbArc
 50
90.0
 51
152.354477
  0
ARC
  5
B3
100
AcDbEntity
  8
LAY-1
  6
CONTINUOUS
 62
     3
100
AcDbCircle
 10
218.064286
 20
511.56
 30
0.0
 40
2.2
100
AcDbArc
 50
207.645523
 51
332.354477
  0
ARC
  5
B4
100
AcDbEntity
  8
LAY-1
  6
CONTINUOUS
 62
     3
100
AcDbCircle
 10
215.849698
 20
510.4
 30
0.0
 40
0.3
100
AcDbArc
 50
27.645523
 51
90.0
  0
LINE
  5
B5
100
AcDbEntity
  8
LAY-1
  6
CONTINUOUS
 62
     3
100
AcDbLine
 10
216.115448
 20
515.8608
 30
0.0
 11
216.115448
 21
510.5392
 31
0.0
  0
LINE
  5
B6
100
AcDbEntity
  8
LAY-1
  6
CONTINUOUS
 62
     3
100
AcDbLine
 10
220.013123
 20
510.5392
 30
0.0
 11
220.013123
 21
515.8608
 31
0.0
  0
LINE
  5
B7
100
AcDbEntity
  8
LAY-1
  6
CONTINUOUS
 62
     3
100
AcDbLine
 10
211.564286
 20
519.45
 30
0.0
 11
212.964286
 21
519.45
 31
0.0
  0
LINE
  5
B8
100
AcDbEntity
  8
LAY-1
  6
CONTINUOUS
 62
     3
100
AcDbLine
 10
211.564286
 20
506.95
 30
0.0
 11
212.964286
 21
506.95
 31
0.0
  0
LINE
  5
B9
100
AcDbEntity
  8
LAY-1
  6
CONTINUOUS
 62
     3
100
AcDbLine
 10
210.564286
 20
516.2
 30
0.0
 11
211.564286
 21
516.2
 31
0.0
  0
LINE
  5
BA
100
AcDbEntity
  8
LAY-1
  6
CONTINUOUS
 62
     3
100
AcDbLine
 10
210.564286
 20
510.2
 30
0.0
 11
211.564286
 21
510.2
 31
0.0
  0
LINE
  5
BB
100
AcDbEntity
  8
LAY-1
  6
CONTINUOUS
 62
     3
100
AcDbLine
 10
210.564286
 20
516.2
 30
0.0
 11
210.564286
 21
510.2
 31
0.0
  0
LINE
  5
BC
100
AcDbEntity
  8
LAY-1
  6
CONTINUOUS
 62
     3
100
AcDbLine
 10
211.564286
 20
519.45
 30
0.0
 11
211.564286
 21
506.95
 31
0.0
  0
LINE
  5
BD
100
AcDbEntity
  8
LAY-1
  6
CONTINUOUS
 62
     3
100
AcDbLine
 10
212.964286
 20
519.45
 30
0.0
 11
212.964286
 21
506.95
 31
0.0
  0
LINE
  5
BE
100
AcDbEntity
  8
LAY-1
  6
CONTINUOUS
 62
     3
100
AcDbLine
 10
212.964286
 20
515.7
 30
0.0
 11
215.849698
 21
515.7
 31
0.0
  0
LINE
  5
BF
100
AcDbEntity
  8
LAY-1
  6
CONTINUOUS
 62
     3
100
AcDbLine
 10
212.964286
 20
510.7
 30
0.0
 11
215.849698
 21
510.7
 31
0.0
  0
LINE
  5
C0
100
AcDbEntity
  8
LAY-1
  6
EXLTYPE3
 62
     1
100
AcDbLine
 10
208.1
 20
513.2
 30
0.0
 11
238.2
 21
513.2
 31
0.0
  0
ARC
  5
C1
100
AcDbEntity
  8
LAY-1
  6
CONTINUOUS
 62
     3
100
AcDbCircle
 10
230.278874
 20
516.0
 30
0.0
 40
0.3
100
AcDbArc
 50
207.645523
 51
270.0
  0
ARC
  5
C2
100
AcDbEntity
  8
LAY-1
  6
CONTINUOUS
 62
     3
100
AcDbCircle
 10
228.064286
 20
514.84
 30
0.0
 40
2.2
100
AcDbArc
 50
27.645523
 51
152.354477
  0
ARC
  5
C3
100
AcDbEntity
  8
LAY-1
  6
CONTINUOUS
 62
     3
100
AcDbCircle
 10
225.849698
 20
516.0
 30
0.0
 40
0.3
100
AcDbArc
 50
270.0
 51
332.354477
  0
ARC
  5
C4
100
AcDbEntity
  8
LAY-1
  6
CONTINUOUS
 62
     3
100
AcDbCircle
 10
230.278874
 20
510.4
 30
0.0
 40
0.3
100
AcDbArc
 50
90.0
 51
152.354477
  0
ARC
  5
C5
100
AcDbEntity
  8
LAY-1
  6
CONTINUOUS
 62
     3
100
AcDbCircle
 10
228.064286
 20
511.56
 30
0.0
 40
2.2
100
AcDbArc
 50
207.645523
 51
332.354477
  0
ARC
  5
C6
100
AcDbEntity
  8
LAY-1
  6
CONTINUOUS
 62
     3
100
AcDbCircle
 10
225.849698
 20
510.4
 30
0.0
 40
0.3
100
AcDbArc
 50
27.645523
 51
90.0
  0
LINE
  5
C7
100
AcDbEntity
  8
LAY-1
  6
CONTINUOUS
 62
     3
100
AcDbLine
 10
226.115448
 20
515.8608
 30
0.0
 11
226.115448
 21
510.5392
 31
0.0
  0
LINE
  5
C8
100
AcDbEntity
  8
LAY-1
  6
CONTINUOUS
 62
     3
100
AcDbLine
 10
230.013123
 20
510.5392
 30
0.0
 11
230.013123
 21
515.8608
 31
0.0
  0
LINE
  5
C9
100
AcDbEntity
  8
LAY-1
  6
CONTINUOUS
 62
     3
100
AcDbLine
 10
220.278874
 20
515.7
 30
0.0
 11
225.849698
 21
515.7
 31
0.0
  0
LINE
  5
CA
100
AcDbEntity
  8
LAY-1
  6
CONTINUOUS
 62
     3
100
AcDbLine
 10
230.278874
 20
515.7
 30
0.0
 11
233.164286
 21
515.7
 31
0.0
  0
LINE
  5
CB
100
AcDbEntity
  8
LAY-1
  6
CONTINUOUS
 62
     3
100
AcDbLine
 10
220.278874
 20
510.7
 30
0.0
 11
225.849698
 21
510.7
 31
0.0
  0
LINE
  5
CC
100
AcDbEntity
  8
LAY-1
  6
CONTINUOUS
 62
     3
100
AcDbLine
 10
230.278874
 20
510.7
 30
0.0
 11
233.164286
 21
510.7
 31
0.0
  0
ARC
  5
CD
100
AcDbEntity
  8
LAY-1
  6
CONTINUOUS
 62
     3
100
AcDbCircle
 10
331.721731
 20
516.6
 30
0.0
 40
0.3
100
AcDbArc
 50
207.645523
 51
270.0
  0
ARC
  5
CE
100
AcDbEntity
  8
LAY-1
  6
CONTINUOUS
 62
     3
100
AcDbCircle
 10
329.507143
 20
515.44
 30
0.0
 40
2.2
100
AcDbArc
 50
27.645523
 51
152.354477
  0
ARC
  5
CF
100
AcDbEntity
  8
LAY-1
  6
CONTINUOUS
 62
     3
100
AcDbCircle
 10
327.292555
 20
516.6
 30
0.0
 40
0.3
100
AcDbArc
 50
270.0
 51
332.354477
  0
ARC
  5
D0
100
AcDbEntity
  8
LAY-1
  6
CONTINUOUS
 62
     3
100
AcDbCircle
 10
327.292555
 20
509.8
 30
0.0
 40
0.3
100
AcDbArc
 50
27.645523
 51
90.0
  0
ARC
  5
D1
100
AcDbEntity
  8
LAY-1
  6
CONTINUOUS
 62
     3
100
AcDbCircle
 10
329.507143
 20
510.96
 30
0.0
 40
2.2
100
AcDbArc
 50
207.645523
 51
332.354477
  0
ARC
  5
D2
100
AcDbEntity
  8
LAY-1
  6
CONTINUOUS
 62
     3
100
AcDbCircle
 10
331.721731
 20
509.8
 30
0.0
 40
0.3
100
AcDbArc
 50
90.0
 51
152.354477
  0
LINE
  5
D3
100
AcDbEntity
  8
LAY-1
  6
CONTINUOUS
 62
     3
100
AcDbLine
 10
327.558305
 20
516.4608
 30
0.0
 11
327.558305
 21
509.9392
 31
0.0
  0
LINE
  5
D4
100
AcDbEntity
  8
LAY-1
  6
CONTINUOUS
 62
     3
100
AcDbLine
 10
331.45598
 20
509.9392
 30
0.0
 11
331.45598
 21
516.4608
 31
0.0
  0
LINE
  5
D5
100
AcDbEntity
  8
LAY-1
  6
CONTINUOUS
 62
     3
100
AcDbLine
 10
323.007143
 20
519.95
 30
0.0
 11
324.607143
 21
519.95
 31
0.0
  0
LINE
  5
D6
100
AcDbEntity
  8
LAY-1
  6
CONTINUOUS
 62
     3
100
AcDbLine
 10
323.007143
 20
506.45
 30
0.0
 11
324.607143
 21
506.45
 31
0.0
  0
LINE
  5
D7
100
AcDbEntity
  8
LAY-1
  6
CONTINUOUS
 62
     3
100
AcDbLine
 10
322.007143
 20
517.05
 30
0.0
 11
323.007143
 21
517.05
 31
0.0
  0
LINE
  5
D8
100
AcDbEntity
  8
LAY-1
  6
CONTINUOUS
 62
     3
100
AcDbLine
 10
322.007143
 20
509.35
 30
0.0
 11
323.007143
 21
509.35
 31
0.0
  0
LINE
  5
D9
100
AcDbEntity
  8
LAY-1
  6
CONTINUOUS
 62
     3
100
AcDbLine
 10
324.607143
 20
519.95
 30
0.0
 11
324.607143
 21
506.45
 31
0.0
  0
LINE
  5
DA
100
AcDbEntity
  8
LAY-1
  6
CONTINUOUS
 62
     3
100
AcDbLine
 10
323.007143
 20
519.95
 30
0.0
 11
323.007143
 21
506.45
 31
0.0
  0
LINE
  5
DB
100
AcDbEntity
  8
LAY-1
  6
CONTINUOUS
 62
     3
100
AcDbLine
 10
322.007143
 20
517.05
 30
0.0
 11
322.007143
 21
509.35
 31
0.0
  0
LINE
  5
DC
100
AcDbEntity
  8
LAY-1
  6
CONTINUOUS
 62
     3
100
AcDbLine
 10
324.607143
 20
516.3
 30
0.0
 11
327.292555
 21
516.3
 31
0.0
  0
LINE
  5
DD
100
AcDbEntity
  8
LAY-1
  6
CONTINUOUS
 62
     3
100
AcDbLine
 10
324.607143
 20
510.1
 30
0.0
 11
327.292555
 21
510.1
 31
0.0
  0
LINE
  5
DE
100
AcDbEntity
  8
LAY-1
  6
CONTINUOUS
 62
     3
100
AcDbLine
 10
346.007143
 20
519.95
 30
0.0
 11
344.407143
 21
519.95
 31
0.0
  0
LINE
  5
DF
100
AcDbEntity
  8
LAY-1
  6
CONTINUOUS
 62
     3
100
AcDbLine
 10
346.007143
 20
506.45
 30
0.0
 11
344.407143
 21
506.45
 31
0.0
  0
LINE
  5
E0
100
AcDbEntity
  8
LAY-1
  6
CONTINUOUS
 62
     3
100
AcDbLine
 10
347.007143
 20
517.05
 30
0.0
 11
346.007143
 21
517.05
 31
0.0
  0
LINE
  5
E1
100
AcDbEntity
  8
LAY-1
  6
CONTINUOUS
 62
     3
100
AcDbLine
 10
347.007143
 20
509.35
 30
0.0
 11
346.007143
 21
509.35
 31
0.0
  0
LINE
  5
E2
100
AcDbEntity
  8
LAY-1
  6
CONTINUOUS
 62
     3
100
AcDbLine
 10
347.007143
 20
517.05
 30
0.0
 11
347.007143
 21
509.35
 31
0.0
  0
LINE
  5
E3
100
AcDbEntity
  8
LAY-1
  6
CONTINUOUS
 62
     3
100
AcDbLine
 10
346.007143
 20
519.95
 30
0.0
 11
346.007143
 21
506.45
 31
0.0
  0
LINE
  5
E4
100
AcDbEntity
  8
LAY-1
  6
CONTINUOUS
 62
     3
100
AcDbLine
 10
344.407143
 20
519.95
 30
0.0
 11
344.407143
 21
506.45
 31
0.0
  0
LINE
  5
E5
100
AcDbEntity
  8
LAY-1
  6
EXLTYPE3
 62
     1
100
AcDbLine
 10
320.0
 20
513.2
 30
0.0
 11
348.6
 21
513.2
 31
0.0
  0
ARC
  5
E6
100
AcDbEntity
  8
LAY-1
  6
CONTINUOUS
 62
     3
100
AcDbCircle
 10
341.721731
 20
516.6
 30
0.0
 40
0.3
100
AcDbArc
 50
207.645523
 51
270.0
  0
ARC
  5
E7
100
AcDbEntity
  8
LAY-1
  6
CONTINUOUS
 62
     3
100
AcDbCircle
 10
339.507143
 20
515.44
 30
0.0
 40
2.2
100
AcDbArc
 50
27.645523
 51
152.354477
  0
ARC
  5
E8
100
AcDbEntity
  8
LAY-1
  6
CONTINUOUS
 62
     3
100
AcDbCircle
 10
337.292555
 20
516.6
 30
0.0
 40
0.3
100
AcDbArc
 50
270.0
 51
332.354477
  0
ARC
  5
E9
100
AcDbEntity
  8
LAY-1
  6
CONTINUOUS
 62
     3
100
AcDbCircle
 10
337.292555
 20
509.8
 30
0.0
 40
0.3
100
AcDbArc
 50
27.645523
 51
90.0
  0
ARC
  5
EA
100
AcDbEntity
  8
LAY-1
  6
CONTINUOUS
 62
     3
100
AcDbCircle
 10
339.507143
 20
510.96
 30
0.0
 40
2.2
100
AcDbArc
 50
207.645523
 51
332.354477
  0
ARC
  5
EB
100
AcDbEntity
  8
LAY-1
  6
CONTINUOUS
 62
     3
100
AcDbCircle
 10
341.721731
 20
509.8
 30
0.0
 40
0.3
100
AcDbArc
 50
90.0
 51
152.354477
  0
LINE
  5
EC
100
AcDbEntity
  8
LAY-1
  6
CONTINUOUS
 62
     3
100
AcDbLine
 10
337.558305
 20
516.4608
 30
0.0
 11
337.558305
 21
509.9392
 31
0.0
  0
LINE
  5
ED
100
AcDbEntity
  8
LAY-1
  6
CONTINUOUS
 62
     3
100
AcDbLine
 10
341.45598
 20
509.9392
 30
0.0
 11
341.45598
 21
516.4608
 31
0.0
  0
LINE
  5
EE
100
AcDbEntity
  8
LAY-1
  6
CONTINUOUS
 62
     3
100
AcDbLine
 10
331.721731
 20
516.3
 30
0.0
 11
337.292555
 21
516.3
 31
0.0
  0
LINE
  5
EF
100
AcDbEntity
  8
LAY-1
  6
CONTINUOUS
 62
     3
100
AcDbLine
 10
341.721731
 20
516.3
 30
0.0
 11
344.407143
 21
516.3
 31
0.0
  0
LINE
  5
F0
100
AcDbEntity
  8
LAY-1
  6
CONTINUOUS
 62
     3
100
AcDbLine
 10
344.407143
 20
510.1
 30
0.0
 11
341.721731
 21
510.1
 31
0.0
  0
LINE
  5
F1
100
AcDbEntity
  8
LAY-1
  6
CONTINUOUS
 62
     3
100
AcDbLine
 10
337.292555
 20
510.1
 30
0.0
 11
331.721731
 21
510.1
 31
0.0
  0
ARC
  5
F2
100
AcDbEntity
  8
LAY-1
  6
CONTINUOUS
 62
     3
100
AcDbCircle
 10
443.164588
 20
516.5
 30
0.0
 40
0.3
100
AcDbArc
 50
207.645523
 51
270.0
  0
ARC
  5
F3
100
AcDbEntity
  8
LAY-1
  6
CONTINUOUS
 62
     3
100
AcDbCircle
 10
440.95
 20
515.34
 30
0.0
 40
2.2
100
AcDbArc
 50
27.645523
 51
152.354477
  0
ARC
  5
F4
100
AcDbEntity
  8
LAY-1
  6
CONTINUOUS
 62
     3
100
AcDbCircle
 10
438.735412
 20
516.5
 30
0.0
 40
0.3
100
AcDbArc
 50
270.0
 51
332.354477
  0
ARC
  5
F5
100
AcDbEntity
  8
LAY-1
  6
CONTINUOUS
 62
     3
100
AcDbCircle
 10
438.735412
 20
509.9
 30
0.0
 40
0.3
100
AcDbArc
 50
27.645523
 51
90.0
  0
ARC
  5
F6
100
AcDbEntity
  8
LAY-1
  6
CONTINUOUS
 62
     3
100
AcDbCircle
 10
440.95
 20
511.06
 30
0.0
 40
2.2
100
AcDbArc
 50
207.645523
 51
332.354477
  0
ARC
  5
F7
100
AcDbEntity
  8
LAY-1
  6
CONTINUOUS
 62
     3
100
AcDbCircle
 10
443.164588
 20
509.9
 30
0.0
 40
0.3
100
AcDbArc
 50
90.0
 51
152.354477
  0
LINE
  5
F8
100
AcDbEntity
  8
LAY-1
  6
CONTINUOUS
 62
     3
100
AcDbLine
 10
439.001163
 20
516.3608
 30
0.0
 11
439.001163
 21
510.0392
 31
0.0
  0
LINE
  5
F9
100
AcDbEntity
  8
LAY-1
  6
CONTINUOUS
 62
     3
100
AcDbLine
 10
442.898837
 20
510.0392
 30
0.0
 11
442.898837
 21
516.3608
 31
0.0
  0
LINE
  5
FA
100
AcDbEntity
  8
LAY-1
  6
CONTINUOUS
 62
     3
100
AcDbLine
 10
434.45
 20
520.2
 30
0.0
 11
436.05
 21
520.2
 31
0.0
  0
LINE
  5
FB
100
AcDbEntity
  8
LAY-1
  6
CONTINUOUS
 62
     3
100
AcDbLine
 10
434.45
 20
506.2
 30
0.0
 11
436.05
 21
506.2
 31
0.0
  0
LINE
  5
FC
100
AcDbEntity
  8
LAY-1
  6
CONTINUOUS
 62
     3
100
AcDbLine
 10
433.45
 20
517.2
 30
0.0
 11
434.45
 21
517.2
 31
0.0
  0
LINE
  5
FD
100
AcDbEntity
  8
LAY-1
  6
CONTINUOUS
 62
     3
100
AcDbLine
 10
433.45
 20
509.2
 30
0.0
 11
434.45
 21
509.2
 31
0.0
  0
LINE
  5
FE
100
AcDbEntity
  8
LAY-1
  6
CONTINUOUS
 62
     3
100
AcDbLine
 10
433.45
 20
517.2
 30
0.0
 11
433.45
 21
509.2
 31
0.0
  0
LINE
  5
FF
100
AcDbEntity
  8
LAY-1
  6
CONTINUOUS
 62
     3
100
AcDbLine
 10
434.45
 20
520.2
 30
0.0
 11
434.45
 21
506.2
 31
0.0
  0
LINE
  5
100
100
AcDbEntity
  8
LAY-1
  6
CONTINUOUS
 62
     3
100
AcDbLine
 10
436.05
 20
520.2
 30
0.0
 11
436.05
 21
506.2
 31
0.0
  0
LINE
  5
101
100
AcDbEntity
  8
LAY-1
  6
CONTINUOUS
 62
     3
100
AcDbLine
 10
436.05
 20
516.2
 30
0.0
 11
439.001163
 21
516.2
 31
0.0
  0
LINE
  5
102
100
AcDbEntity
  8
LAY-1
  6
CONTINUOUS
 62
     3
100
AcDbLine
 10
436.05
 20
510.2
 30
0.0
 11
439.001163
 21
510.2
 31
0.0
  0
LINE
  5
103
100
AcDbEntity
  8
LAY-1
  6
CONTINUOUS
 62
     3
100
AcDbLine
 10
457.45
 20
520.2
 30
0.0
 11
455.85
 21
520.2
 31
0.0
  0
LINE
  5
104
100
AcDbEntity
  8
LAY-1
  6
CONTINUOUS
 62
     3
100
AcDbLine
 10
457.45
 20
506.2
 30
0.0
 11
455.85
 21
506.2
 31
0.0
  0
LINE
  5
105
100
AcDbEntity
  8
LAY-1
  6
CONTINUOUS
 62
     3
100
AcDbLine
 10
458.45
 20
517.2
 30
0.0
 11
457.45
 21
517.2
 31
0.0
  0
LINE
  5
106
100
AcDbEntity
  8
LAY-1
  6
CONTINUOUS
 62
     3
100
AcDbLine
 10
458.45
 20
509.2
 30
0.0
 11
457.45
 21
509.2
 31
0.0
  0
LINE
  5
107
100
AcDbEntity
  8
LAY-1
  6
CONTINUOUS
 62
     3
100
AcDbLine
 10
458.45
 20
517.2
 30
0.0
 11
458.45
 21
509.2
 31
0.0
  0
LINE
  5
108
100
AcDbEntity
  8
LAY-1
  6
CONTINUOUS
 62
     3
100
AcDbLine
 10
457.45
 20
520.2
 30
0.0
 11
457.45
 21
506.2
 31
0.0
  0
LINE
  5
109
100
AcDbEntity
  8
LAY-1
  6
CONTINUOUS
 62
     3
100
AcDbLine
 10
455.85
 20
520.2
 30
0.0
 11
455.85
 21
506.2
 31
0.0
  0
LINE
  5
10A
100
AcDbEntity
  8
LAY-1
  6
EXLTYPE3
 62
     1
100
AcDbLine
 10
431.0
 20
513.2
 30
0.0
 11
460.3
 21
513.2
 31
0.0
  0
ARC
  5
10B
100
AcDbEntity
  8
LAY-1
  6
CONTINUOUS
 62
     3
100
AcDbCircle
 10
453.164588
 20
516.5
 30
0.0
 40
0.3
100
AcDbArc
 50
207.645523
 51
270.0
  0
ARC
  5
10C
100
AcDbEntity
  8
LAY-1
  6
CONTINUOUS
 62
     3
100
AcDbCircle
 10
450.95
 20
515.34
 30
0.0
 40
2.2
100
AcDbArc
 50
27.645523
 51
152.354477
  0
ARC
  5
10D
100
AcDbEntity
  8
LAY-1
  6
CONTINUOUS
 62
     3
100
AcDbCircle
 10
448.735412
 20
516.5
 30
0.0
 40
0.3
100
AcDbArc
 50
270.0
 51
332.354477
  0
ARC
  5
10E
100
AcDbEntity
  8
LAY-1
  6
CONTINUOUS
 62
     3
100
AcDbCircle
 10
448.735412
 20
509.9
 30
0.0
 40
0.3
100
AcDbArc
 50
27.645523
 51
90.0
  0
ARC
  5
10F
100
AcDbEntity
  8
LAY-1
  6
CONTINUOUS
 62
     3
100
AcDbCircle
 10
450.95
 20
511.06
 30
0.0
 40
2.2
100
AcDbArc
 50
207.645523
 51
332.354477
  0
ARC
  5
110
100
AcDbEntity
  8
LAY-1
  6
CONTINUOUS
 62
     3
100
AcDbCircle
 10
453.164588
 20
509.9
 30
0.0
 40
0.3
100
AcDbArc
 50
90.0
 51
152.354477
  0
LINE
  5
111
100
AcDbEntity
  8
LAY-1
  6
CONTINUOUS
 62
     3
100
AcDbLine
 10
449.001163
 20
516.3608
 30
0.0
 11
449.001163
 21
510.0392
 31
0.0
  0
LINE
  5
112
100
AcDbEntity
  8
LAY-1
  6
CONTINUOUS
 62
     3
100
AcDbLine
 10
452.898837
 20
510.0392
 30
0.0
 11
452.898837
 21
516.3608
 31
0.0
  0
LINE
  5
113
100
AcDbEntity
  8
LAY-1
  6
CONTINUOUS
 62
     3
100
AcDbLine
 10
443.164588
 20
516.2
 30
0.0
 11
448.735412
 21
516.2
 31
0.0
  0
LINE
  5
114
100
AcDbEntity
  8
LAY-1
  6
CONTINUOUS
 62
     3
100
AcDbLine
 10
453.164588
 20
516.2
 30
0.0
 11
455.85
 21
516.2
 31
0.0
  0
LINE
  5
115
100
AcDbEntity
  8
LAY-1
  6
CONTINUOUS
 62
     3
100
AcDbLine
 10
455.85
 20
510.2
 30
0.0
 11
453.164588
 21
510.2
 31
0.0
  0
LINE
  5
116
100
AcDbEntity
  8
LAY-1
  6
CONTINUOUS
 62
     3
100
AcDbLine
 10
448.735412
 20
510.2
 30
0.0
 11
443.164588
 21
510.2
 31
0.0
  0
ARC
  5
117
100
AcDbEntity
  8
LAY-1
  6
CONTINUOUS
 62
     3
100
AcDbCircle
 10
554.607445
 20
517.25
 30
0.0
 40
0.3
100
AcDbArc
 50
207.645523
 51
270.0
  0
ARC
  5
118
100
AcDbEntity
  8
LAY-1
  6
CONTINUOUS
 62
     3
100
AcDbCircle
 10
552.392857
 20
516.09
 30
0.0
 40
2.2
100
AcDbArc
 50
27.645523
 51
152.354477
  0
ARC
  5
119
100
AcDbEntity
  8
LAY-1
  6
CONTINUOUS
 62
     3
100
AcDbCircle
 10
550.178269
 20
517.25
 30
0.0
 40
0.3
100
AcDbArc
 50
270.0
 51
332.354477
  0
ARC
  5
11A
100
AcDbEntity
  8
LAY-1
  6
CONTINUOUS
 62
     3
100
AcDbCircle
 10
550.178269
 20
509.15
 30
0.0
 40
0.3
100
AcDbArc
 50
27.645523
 51
90.0
  0
ARC
  5
11B
100
AcDbEntity
  8
LAY-1
  6
CONTINUOUS
 62
     3
100
AcDbCircle
 10
552.392857
 20
510.31
 30
0.0
 40
2.2
100
AcDbArc
 50
207.645523
 51
332.354477
  0
ARC
  5
11C
100
AcDbEntity
  8
LAY-1
  6
CONTINUOUS
 62
     3
100
AcDbCircle
 10
554.607445
 20
509.15
 30
0.0
 40
0.3
100
AcDbArc
 50
90.0
 51
152.354477
  0
LINE
  5
11D
100
AcDbEntity
  8
LAY-1
  6
CONTINUOUS
 62
     3
100
AcDbLine
 10
550.44402
 20
517.1108
 30
0.0
 11
550.44402
 21
509.2892
 31
0.0
  0
LINE
  5
11E
100
AcDbEntity
  8
LAY-1
  6
CONTINUOUS
 62
     3
100
AcDbLine
 10
554.341695
 20
509.2892
 30
0.0
 11
554.341695
 21
517.1108
 31
0.0
  0
LINE
  5
11F
100
AcDbEntity
  8
LAY-1
  6
CONTINUOUS
 62
     3
100
AcDbLine
 10
545.892857
 20
520.95
 30
0.0
 11
547.492857
 21
520.95
 31
0.0
  0
LINE
  5
120
100
AcDbEntity
  8
LAY-1
  6
CONTINUOUS
 62
     3
100
AcDbLine
 10
545.892857
 20
505.45
 30
0.0
 11
547.492857
 21
505.45
 31
0.0
  0
LINE
  5
121
100
AcDbEntity
  8
LAY-1
  6
CONTINUOUS
 62
     3
100
AcDbLine
 10
544.892857
 20
517.95
 30
0.0
 11
545.892857
 21
517.95
 31
0.0
  0
LINE
  5
122
100
AcDbEntity
  8
LAY-1
  6
CONTINUOUS
 62
     3
100
AcDbLine
 10
544.892857
 20
508.45
 30
0.0
 11
545.892857
 21
508.45
 31
0.0
  0
LINE
  5
123
100
AcDbEntity
  8
LAY-1
  6
CONTINUOUS
 62
     3
100
AcDbLine
 10
544.892857
 20
517.95
 30
0.0
 11
544.892857
 21
508.45
 31
0.0
  0
LINE
  5
124
100
AcDbEntity
  8
LAY-1
  6
CONTINUOUS
 62
     3
100
AcDbLine
 10
545.892857
 20
520.95
 30
0.0
 11
545.892857
 21
505.45
 31
0.0
  0
LINE
  5
125
100
AcDbEntity
  8
LAY-1
  6
CONTINUOUS
 62
     3
100
AcDbLine
 10
547.492857
 20
520.95
 30
0.0
 11
547.492857
 21
505.45
 31
0.0
  0
LINE
  5
126
100
AcDbEntity
  8
LAY-1
  6
CONTINUOUS
 62
     3
100
AcDbLine
 10
547.492857
 20
516.95
 30
0.0
 11
550.178269
 21
516.95
 31
0.0
  0
LINE
  5
127
100
AcDbEntity
  8
LAY-1
  6
CONTINUOUS
 62
     3
100
AcDbLine
 10
547.492857
 20
509.45
 30
0.0
 11
550.178269
 21
509.45
 31
0.0
  0
LINE
  5
128
100
AcDbEntity
  8
LAY-1
  6
CONTINUOUS
 62
     3
100
AcDbLine
 10
568.892857
 20
520.95
 30
0.0
 11
567.292857
 21
520.95
 31
0.0
  0
LINE
  5
129
100
AcDbEntity
  8
LAY-1
  6
CONTINUOUS
 62
     3
100
AcDbLine
 10
568.892857
 20
505.45
 30
0.0
 11
567.292857
 21
505.45
 31
0.0
  0
LINE
  5
12A
100
AcDbEntity
  8
LAY-1
  6
CONTINUOUS
 62
     3
100
AcDbLine
 10
569.892857
 20
517.95
 30
0.0
 11
568.892857
 21
517.95
 31
0.0
  0
LINE
  5
12B
100
AcDbEntity
  8
LAY-1
  6
CONTINUOUS
 62
     3
100
AcDbLine
 10
569.892857
 20
508.45
 30
0.0
 11
568.892857
 21
508.45
 31
0.0
  0
LINE
  5
12C
100
AcDbEntity
  8
LAY-1
  6
CONTINUOUS
 62
     3
100
AcDbLine
 10
569.892857
 20
517.95
 30
0.0
 11
569.892857
 21
508.45
 31
0.0
  0
LINE
  5
12D
100
AcDbEntity
  8
LAY-1
  6
CONTINUOUS
 62
     3
100
AcDbLine
 10
568.892857
 20
520.95
 30
0.0
 11
568.892857
 21
505.45
 31
0.0
  0
LINE
  5
12E
100
AcDbEntity
  8
LAY-1
  6
CONTINUOUS
 62
     3
100
AcDbLine
 10
567.292857
 20
520.95
 30
0.0
 11
567.292857
 21
505.45
 31
0.0
  0
LINE
  5
12F
100
AcDbEntity
  8
LAY-1
  6
EXLTYPE3
 62
     1
100
AcDbLine
 10
542.1
 20
513.2
 30
0.0
 11
572.7
 21
513.2
 31
0.0
  0
ARC
  5
130
100
AcDbEntity
  8
LAY-1
  6
CONTINUOUS
 62
     3
100
AcDbCircle
 10
564.607445
 20
517.25
 30
0.0
 40
0.3
100
AcDbArc
 50
207.645523
 51
270.0
  0
ARC
  5
131
100
AcDbEntity
  8
LAY-1
  6
CONTINUOUS
 62
     3
100
AcDbCircle
 10
562.392857
 20
516.09
 30
0.0
 40
2.2
100
AcDbArc
 50
27.645523
 51
152.354477
  0
ARC
  5
132
100
AcDbEntity
  8
LAY-1
  6
CONTINUOUS
 62
     3
100
AcDbCircle
 10
560.178269
 20
517.25
 30
0.0
 40
0.3
100
AcDbArc
 50
270.0
 51
332.354477
  0
ARC
  5
133
100
AcDbEntity
  8
LAY-1
  6
CONTINUOUS
 62
     3
100
AcDbCircle
 10
560.178269
 20
509.15
 30
0.0
 40
0.3
100
AcDbArc
 50
27.645523
 51
90.0
  0
ARC
  5
134
100
AcDbEntity
  8
LAY-1
  6
CONTINUOUS
 62
     3
100
AcDbCircle
 10
562.392857
 20
510.31
 30
0.0
 40
2.2
100
AcDbArc
 50
207.645523
 51
332.354477
  0
ARC
  5
135
100
AcDbEntity
  8
LAY-1
  6
CONTINUOUS
 62
     3
100
AcDbCircle
 10
564.607445
 20
509.15
 30
0.0
 40
0.3
100
AcDbArc
 50
90.0
 51
152.354477
  0
LINE
  5
136
100
AcDbEntity
  8
LAY-1
  6
CONTINUOUS
 62
     3
100
AcDbLine
 10
560.44402
 20
517.1108
 30
0.0
 11
560.44402
 21
509.2892
 31
0.0
  0
LINE
  5
137
100
AcDbEntity
  8
LAY-1
  6
CONTINUOUS
 62
     3
100
AcDbLine
 10
564.341695
 20
509.2892
 30
0.0
 11
564.341695
 21
517.1108
 31
0.0
  0
LINE
  5
138
100
AcDbEntity
  8
LAY-1
  6
CONTINUOUS
 62
     3
100
AcDbLine
 10
554.607445
 20
516.95
 30
0.0
 11
560.178269
 21
516.95
 31
0.0
  0
LINE
  5
139
100
AcDbEntity
  8
LAY-1
  6
CONTINUOUS
 62
     3
100
AcDbLine
 10
564.607445
 20
516.95
 30
0.0
 11
567.292857
 21
516.95
 31
0.0
  0
LINE
  5
13A
100
AcDbEntity
  8
LAY-1
  6
CONTINUOUS
 62
     3
100
AcDbLine
 10
567.292857
 20
509.45
 30
0.0
 11
564.607445
 21
509.45
 31
0.0
  0
LINE
  5
13B
100
AcDbEntity
  8
LAY-1
  6
CONTINUOUS
 62
     3
100
AcDbLine
 10
560.178269
 20
509.45
 30
0.0
 11
554.607445
 21
509.45
 31
0.0
  0
ARC
  5
13C
100
AcDbEntity
  8
LAY-1
  6
CONTINUOUS
 62
     3
100
AcDbCircle
 10
666.050302
 20
518.25
 30
0.0
 40
0.3
100
AcDbArc
 50
207.645523
 51
270.0
  0
ARC
  5
13D
100
AcDbEntity
  8
LAY-1
  6
CONTINUOUS
 62
     3
100
AcDbCircle
 10
663.835714
 20
517.09
 30
0.0
 40
2.2
100
AcDbArc
 50
27.645523
 51
152.354477
  0
ARC
  5
13E
100
AcDbEntity
  8
LAY-1
  6
CONTINUOUS
 62
     3
100
AcDbCircle
 10
661.621126
 20
518.25
 30
0.0
 40
0.3
100
AcDbArc
 50
270.0
 51
332.354477
  0
ARC
  5
13F
100
AcDbEntity
  8
LAY-1
  6
CONTINUOUS
 62
     3
100
AcDbCircle
 10
661.621126
 20
508.15
 30
0.0
 40
0.3
100
AcDbArc
 50
27.645523
 51
90.0
  0
ARC
  5
140
100
AcDbEntity
  8
LAY-1
  6
CONTINUOUS
 62
     3
100
AcDbCircle
 10
663.835714
 20
509.31
 30
0.0
 40
2.2
100
AcDbArc
 50
207.645523
 51
332.354477
  0
ARC
  5
141
100
AcDbEntity
  8
LAY-1
  6
CONTINUOUS
 62
     3
100
AcDbCircle
 10
666.050302
 20
508.15
 30
0.0
 40
0.3
100
AcDbArc
 50
90.0
 51
152.354477
  0
LINE
  5
142
100
AcDbEntity
  8
LAY-1
  6
CONTINUOUS
 62
     3
100
AcDbLine
 10
661.886877
 20
518.1108
 30
0.0
 11
661.886877
 21
508.2892
 31
0.0
  0
LINE
  5
143
100
AcDbEntity
  8
LAY-1
  6
CONTINUOUS
 62
     3
100
AcDbLine
 10
665.784552
 20
508.2892
 30
0.0
 11
665.784552
 21
518.1108
 31
0.0
  0
LINE
  5
144
100
AcDbEntity
  8
LAY-1
  6
CONTINUOUS
 62
     3
100
AcDbLine
 10
657.335714
 20
521.95
 30
0.0
 11
659.135714
 21
521.95
 31
0.0
  0
LINE
  5
145
100
AcDbEntity
  8
LAY-1
  6
CONTINUOUS
 62
     3
100
AcDbLine
 10
657.335714
 20
504.45
 30
0.0
 11
659.135714
 21
504.45
 31
0.0
  0
LINE
  5
146
100
AcDbEntity
  8
LAY-1
  6
CONTINUOUS
 62
     3
100
AcDbLine
 10
656.335714
 20
518.95
 30
0.0
 11
657.335714
 21
518.95
 31
0.0
  0
LINE
  5
147
100
AcDbEntity
  8
LAY-1
  6
CONTINUOUS
 62
     3
100
AcDbLine
 10
656.335714
 20
507.45
 30
0.0
 11
657.335714
 21
507.45
 31
0.0
  0
LINE
  5
148
100
AcDbEntity
  8
LAY-1
  6
CONTINUOUS
 62
     3
100
AcDbLine
 10
656.335714
 20
518.95
 30
0.0
 11
656.335714
 21
507.45
 31
0.0
  0
LINE
  5
149
100
AcDbEntity
  8
LAY-1
  6
CONTINUOUS
 62
     3
100
AcDbLine
 10
657.335714
 20
521.95
 30
0.0
 11
657.335714
 21
504.45
 31
0.0
  0
LINE
  5
14A
100
AcDbEntity
  8
LAY-1
  6
CONTINUOUS
 62
     3
100
AcDbLine
 10
659.135714
 20
521.95
 30
0.0
 11
659.135714
 21
504.45
 31
0.0
  0
LINE
  5
14B
100
AcDbEntity
  8
LAY-1
  6
CONTINUOUS
 62
     3
100
AcDbLine
 10
659.135714
 20
517.95
 30
0.0
 11
661.886877
 21
517.95
 31
0.0
  0
LINE
  5
14C
100
AcDbEntity
  8
LAY-1
  6
CONTINUOUS
 62
     3
100
AcDbLine
 10
659.135714
 20
508.45
 30
0.0
 11
661.886877
 21
508.45
 31
0.0
  0
LINE
  5
14D
100
AcDbEntity
  8
LAY-1
  6
CONTINUOUS
 62
     3
100
AcDbLine
 10
680.335714
 20
521.95
 30
0.0
 11
678.535714
 21
521.95
 31
0.0
  0
LINE
  5
14E
100
AcDbEntity
  8
LAY-1
  6
CONTINUOUS
 62
     3
100
AcDbLine
 10
680.335714
 20
504.45
 30
0.0
 11
678.535714
 21
504.45
 31
0.0
  0
LINE
  5
14F
100
AcDbEntity
  8
LAY-1
  6
CONTINUOUS
 62
     3
100
AcDbLine
 10
681.335714
 20
518.95
 30
0.0
 11
680.335714
 21
518.95
 31
0.0
  0
LINE
  5
150
100
AcDbEntity
  8
LAY-1
  6
CONTINUOUS
 62
     3
100
AcDbLine
 10
681.335714
 20
507.45
 30
0.0
 11
680.335714
 21
507.45
 31
0.0
  0
LINE
  5
151
100
AcDbEntity
  8
LAY-1
  6
CONTINUOUS
 62
     3
100
AcDbLine
 10
681.335714
 20
518.95
 30
0.0
 11
681.335714
 21
507.45
 31
0.0
  0
LINE
  5
152
100
AcDbEntity
  8
LAY-1
  6
CONTINUOUS
 62
     3
100
AcDbLine
 10
680.335714
 20
521.95
 30
0.0
 11
680.335714
 21
504.45
 31
0.0
  0
LINE
  5
153
100
AcDbEntity
  8
LAY-1
  6
CONTINUOUS
 62
     3
100
AcDbLine
 10
678.535714
 20
521.95
 30
0.0
 11
678.535714
 21
504.45
 31
0.0
  0
LINE
  5
154
100
AcDbEntity
  8
LAY-1
  6
EXLTYPE3
 62
     1
100
AcDbLine
 10
652.9
 20
513.2
 30
0.0
 11
683.4
 21
513.2
 31
0.0
  0
ARC
  5
155
100
AcDbEntity
  8
LAY-1
  6
CONTINUOUS
 62
     3
100
AcDbCircle
 10
676.050302
 20
518.25
 30
0.0
 40
0.3
100
AcDbArc
 50
207.645523
 51
270.0
  0
ARC
  5
156
100
AcDbEntity
  8
LAY-1
  6
CONTINUOUS
 62
     3
100
AcDbCircle
 10
673.835714
 20
517.09
 30
0.0
 40
2.2
100
AcDbArc
 50
27.645523
 51
152.354477
  0
ARC
  5
157
100
AcDbEntity
  8
LAY-1
  6
CONTINUOUS
 62
     3
100
AcDbCircle
 10
671.621126
 20
518.25
 30
0.0
 40
0.3
100
AcDbArc
 50
270.0
 51
332.354477
  0
ARC
  5
158
100
AcDbEntity
  8
LAY-1
  6
CONTINUOUS
 62
     3
100
AcDbCircle
 10
671.621126
 20
508.15
 30
0.0
 40
0.3
100
AcDbArc
 50
27.645523
 51
90.0
  0
ARC
  5
159
100
AcDbEntity
  8
LAY-1
  6
CONTINUOUS
 62
     3
100
AcDbCircle
 10
673.835714
 20
509.31
 30
0.0
 40
2.2
100
AcDbArc
 50
207.645523
 51
332.354477
  0
ARC
  5
15A
100
AcDbEntity
  8
LAY-1
  6
CONTINUOUS
 62
     3
100
AcDbCircle
 10
676.050302
 20
508.15
 30
0.0
 40
0.3
100
AcDbArc
 50
90.0
 51
152.354477
  0
LINE
  5
15B
100
AcDbEntity
  8
LAY-1
  6
CONTINUOUS
 62
     3
100
AcDbLine
 10
671.886877
 20
518.1108
 30
0.0
 11
671.886877
 21
508.2892
 31
0.0
  0
LINE
  5
15C
100
AcDbEntity
  8
LAY-1
  6
CONTINUOUS
 62
     3
100
AcDbLine
 10
675.784552
 20
508.2892
 30
0.0
 11
675.784552
 21
518.1108
 31
0.0
  0
LINE
  5
15D
100
AcDbEntity
  8
LAY-1
  6
CONTINUOUS
 62
     3
100
AcDbLine
 10
666.050302
 20
517.95
 30
0.0
 11
671.621126
 21
517.95
 31
0.0
  0
LINE
  5
15E
100
AcDbEntity
  8
LAY-1
  6
CONTINUOUS
 62
     3
100
AcDbLine
 10
676.050302
 20
517.95
 30
0.0
 11
678.535714
 21
517.95
 31
0.0
  0
LINE
  5
15F
100
AcDbEntity
  8
LAY-1
  6
CONTINUOUS
 62
     3
100
AcDbLine
 10
678.535714
 20
508.45
 30
0.0
 11
676.050302
 21
508.45
 31
0.0
  0
LINE
  5
160
100
AcDbEntity
  8
LAY-1
  6
CONTINUOUS
 62
     3
100
AcDbLine
 10
671.621126
 20
508.45
 30
0.0
 11
666.050302
 21
508.45
 31
0.0
  0
LINE
  5
161
100
AcDbEntity
  8
LAY-1
  6
CONTINUOUS
 62
     3
100
AcDbLine
 10
766.278571
 20
522.45
 30
0.0
 11
768.078571
 21
522.45
 31
0.0
  0
LINE
  5
162
100
AcDbEntity
  8
LAY-1
  6
CONTINUOUS
 62
     3
100
AcDbLine
 10
766.278571
 20
503.95
 30
0.0
 11
768.078571
 21
503.95
 31
0.0
  0
LINE
  5
163
100
AcDbEntity
  8
LAY-1
  6
CONTINUOUS
 62
     3
100
AcDbLine
 10
765.278571
 20
519.45
 30
0.0
 11
766.278571
 21
519.45
 31
0.0
  0
LINE
  5
164
100
AcDbEntity
  8
LAY-1
  6
CONTINUOUS
 62
     3
100
AcDbLine
 10
765.278571
 20
506.95
 30
0.0
 11
766.278571
 21
506.95
 31
0.0
  0
LINE
  5
165
100
AcDbEntity
  8
LAY-1
  6
CONTINUOUS
 62
     3
100
AcDbLine
 10
765.278571
 20
519.45
 30
0.0
 11
765.278571
 21
506.95
 31
0.0
  0
LINE
  5
166
100
AcDbEntity
  8
LAY-1
  6
CONTINUOUS
 62
     3
100
AcDbLine
 10
766.278571
 20
522.45
 30
0.0
 11
766.278571
 21
503.95
 31
0.0
  0
LINE
  5
167
100
AcDbEntity
  8
LAY-1
  6
CONTINUOUS
 62
     3
100
AcDbLine
 10
768.078571
 20
522.45
 30
0.0
 11
768.078571
 21
503.95
 31
0.0
  0
LINE
  5
168
100
AcDbEntity
  8
LAY-1
  6
CONTINUOUS
 62
     3
100
AcDbLine
 10
794.278571
 20
522.45
 30
0.0
 11
792.478571
 21
522.45
 31
0.0
  0
LINE
  5
169
100
AcDbEntity
  8
LAY-1
  6
CONTINUOUS
 62
     3
100
AcDbLine
 10
794.278571
 20
503.95
 30
0.0
 11
792.478571
 21
503.95
 31
0.0
  0
LINE
  5
16A
100
AcDbEntity
  8
LAY-1
  6
CONTINUOUS
 62
     3
100
AcDbLine
 10
795.278571
 20
519.45
 30
0.0
 11
794.278571
 21
519.45
 31
0.0
  0
LINE
  5
16B
100
AcDbEntity
  8
LAY-1
  6
CONTINUOUS
 62
     3
100
AcDbLine
 10
795.278571
 20
506.95
 30
0.0
 11
794.278571
 21
506.95
 31
0.0
  0
LINE
  5
16C
100
AcDbEntity
  8
LAY-1
  6
CONTINUOUS
 62
     3
100
AcDbLine
 10
795.278571
 20
519.45
 30
0.0
 11
795.278571
 21
506.95
 31
0.0
  0
LINE
  5
16D
100
AcDbEntity
  8
LAY-1
  6
CONTINUOUS
 62
     3
100
AcDbLine
 10
794.278571
 20
522.45
 30
0.0
 11
794.278571
 21
503.95
 31
0.0
  0
LINE
  5
16E
100
AcDbEntity
  8
LAY-1
  6
CONTINUOUS
 62
     3
100
AcDbLine
 10
792.478571
 20
522.45
 30
0.0
 11
792.478571
 21
503.95
 31
0.0
  0
ARC
  5
16F
100
AcDbEntity
  8
LAY-1
  6
CONTINUOUS
 62
     3
100
AcDbCircle
 10
777.493159
 20
518.75
 30
0.0
 40
0.3
100
AcDbArc
 50
207.645523
 51
270.0
  0
ARC
  5
170
100
AcDbEntity
  8
LAY-1
  6
CONTINUOUS
 62
     3
100
AcDbCircle
 10
775.278571
 20
517.59
 30
0.0
 40
2.2
100
AcDbArc
 50
27.645523
 51
152.354477
  0
ARC
  5
171
100
AcDbEntity
  8
LAY-1
  6
CONTINUOUS
 62
     3
100
AcDbCircle
 10
773.063983
 20
518.75
 30
0.0
 40
0.3
100
AcDbArc
 50
270.0
 51
332.354477
  0
ARC
  5
172
100
AcDbEntity
  8
LAY-1
  6
CONTINUOUS
 62
     3
100
AcDbCircle
 10
773.063983
 20
507.65
 30
0.0
 40
0.3
100
AcDbArc
 50
27.645523
 51
90.0
  0
ARC
  5
173
100
AcDbEntity
  8
LAY-1
  6
CONTINUOUS
 62
     3
100
AcDbCircle
 10
775.278571
 20
508.81
 30
0.0
 40
2.2
100
AcDbArc
 50
207.645523
 51
332.354477
  0
ARC
  5
174
100
AcDbEntity
  8
LAY-1
  6
CONTINUOUS
 62
     3
100
AcDbCircle
 10
777.493159
 20
507.65
 30
0.0
 40
0.3
100
AcDbArc
 50
90.0
 51
152.354477
  0
LINE
  5
175
100
AcDbEntity
  8
LAY-1
  6
CONTINUOUS
 62
     3
100
AcDbLine
 10
773.329734
 20
518.6108
 30
0.0
 11
773.329734
 21
507.7892
 31
0.0
  0
LINE
  5
176
100
AcDbEntity
  8
LAY-1
  6
CONTINUOUS
 62
     3
100
AcDbLine
 10
777.227409
 20
507.7892
 30
0.0
 11
777.227409
 21
518.6108
 31
0.0
  0
LINE
  5
177
100
AcDbEntity
  8
LAY-1
  6
CONTINUOUS
 62
     3
100
AcDbLine
 10
768.078571
 20
518.45
 30
0.0
 11
773.329734
 21
518.45
 31
0.0
  0
LINE
  5
178
100
AcDbEntity
  8
LAY-1
  6
CONTINUOUS
 62
     3
100
AcDbLine
 10
768.078571
 20
507.95
 30
0.0
 11
773.329734
 21
507.95
 31
0.0
  0
ARC
  5
179
100
AcDbEntity
  8
LAY-1
  6
CONTINUOUS
 62
     3
100
AcDbCircle
 10
787.493159
 20
518.75
 30
0.0
 40
0.3
100
AcDbArc
 50
207.645523
 51
270.0
  0
ARC
  5
17A
100
AcDbEntity
  8
LAY-1
  6
CONTINUOUS
 62
     3
100
AcDbCircle
 10
785.278571
 20
517.59
 30
0.0
 40
2.2
100
AcDbArc
 50
27.645523
 51
152.354477
  0
ARC
  5
17B
100
AcDbEntity
  8
LAY-1
  6
CONTINUOUS
 62
     3
100
AcDbCircle
 10
783.063983
 20
518.75
 30
0.0
 40
0.3
100
AcDbArc
 50
270.0
 51
332.354477
  0
ARC
  5
17C
100
AcDbEntity
  8
LAY-1
  6
CONTINUOUS
 62
     3
100
AcDbCircle
 10
783.063983
 20
507.65
 30
0.0
 40
0.3
100
AcDbArc
 50
27.645523
 51
90.0
  0
ARC
  5
17D
100
AcDbEntity
  8
LAY-1
  6
CONTINUOUS
 62
     3
100
AcDbCircle
 10
785.278571
 20
508.81
 30
0.0
 40
2.2
100
AcDbArc
 50
207.645523
 51
332.354477
  0
ARC
  5
17E
100
AcDbEntity
  8
LAY-1
  6
CONTINUOUS
 62
     3
100
AcDbCircle
 10
787.493159
 20
507.65
 30
0.0
 40
0.3
100
AcDbArc
 50
90.0
 51
152.354477
  0
LINE
  5
17F
100
AcDbEntity
  8
LAY-1
  6
CONTINUOUS
 62
     3
100
AcDbLine
 10
783.329734
 20
518.6108
 30
0.0
 11
783.329734
 21
507.7892
 31
0.0
  0
LINE
  5
180
100
AcDbEntity
  8
LAY-1
  6
CONTINUOUS
 62
     3
100
AcDbLine
 10
787.227409
 20
507.7892
 30
0.0
 11
787.227409
 21
518.6108
 31
0.0
  0
LINE
  5
181
100
AcDbEntity
  8
LAY-1
  6
CONTINUOUS
 62
     3
100
AcDbLine
 10
787.493159
 20
518.45
 30
0.0
 11
792.478571
 21
518.45
 31
0.0
  0
LINE
  5
182
100
AcDbEntity
  8
LAY-1
  6
CONTINUOUS
 62
     3
100
AcDbLine
 10
792.478571
 20
507.95
 30
0.0
 11
787.493159
 21
507.95
 31
0.0
  0
LINE
  5
183
100
AcDbEntity
  8
LAY-1
  6
EXLTYPE3
 62
     1
100
AcDbLine
 10
762.9
 20
513.2
 30
0.0
 11
798.1
 21
513.2
 31
0.0
  0
LINE
  5
184
100
AcDbEntity
  8
LAY-1
  6
CONTINUOUS
 62
     3
100
AcDbLine
 10
777.493159
 20
518.45
 30
0.0
 11
783.063983
 21
518.45
 31
0.0
  0
LINE
  5
185
100
AcDbEntity
  8
LAY-1
  6
CONTINUOUS
 62
     3
100
AcDbLine
 10
783.063983
 20
507.95
 30
0.0
 11
777.493159
 21
507.95
 31
0.0
  0
LINE
  5
186
100
AcDbEntity
  8
LAY-1
  6
CONTINUOUS
 62
     3
100
AcDbLine
 10
97.621429
 20
448.7
 30
0.0
 11
99.421429
 21
448.7
 31
0.0
  0
LINE
  5
187
100
AcDbEntity
  8
LAY-1
  6
CONTINUOUS
 62
     3
100
AcDbLine
 10
97.621429
 20
427.7
 30
0.0
 11
99.421429
 21
427.7
 31
0.0
  0
LINE
  5
188
100
AcDbEntity
  8
LAY-1
  6
CONTINUOUS
 62
     3
100
AcDbLine
 10
96.621429
 20
445.7
 30
0.0
 11
97.621429
 21
445.7
 31
0.0
  0
LINE
  5
189
100
AcDbEntity
  8
LAY-1
  6
CONTINUOUS
 62
     3
100
AcDbLine
 10
96.621429
 20
430.7
 30
0.0
 11
97.621429
 21
430.7
 31
0.0
  0
LINE
  5
18A
100
AcDbEntity
  8
LAY-1
  6
CONTINUOUS
 62
     3
100
AcDbLine
 10
96.621429
 20
445.7
 30
0.0
 11
96.621429
 21
430.7
 31
0.0
  0
LINE
  5
18B
100
AcDbEntity
  8
LAY-1
  6
CONTINUOUS
 62
     3
100
AcDbLine
 10
97.621429
 20
448.7
 30
0.0
 11
97.621429
 21
427.7
 31
0.0
  0
LINE
  5
18C
100
AcDbEntity
  8
LAY-1
  6
CONTINUOUS
 62
     3
100
AcDbLine
 10
99.421429
 20
448.7
 30
0.0
 11
99.421429
 21
427.7
 31
0.0
  0
LINE
  5
18D
100
AcDbEntity
  8
LAY-1
  6
CONTINUOUS
 62
     3
100
AcDbLine
 10
123.821429
 20
448.7
 30
0.0
 11
123.821429
 21
427.7
 31
0.0
  0
LINE
  5
18E
100
AcDbEntity
  8
LAY-1
  6
CONTINUOUS
 62
     3
100
AcDbLine
 10
125.621429
 20
448.7
 30
0.0
 11
125.621429
 21
427.7
 31
0.0
  0
LINE
  5
18F
100
AcDbEntity
  8
LAY-1
  6
CONTINUOUS
 62
     3
100
AcDbLine
 10
126.621429
 20
445.7
 30
0.0
 11
126.621429
 21
430.7
 31
0.0
  0
LINE
  5
190
100
AcDbEntity
  8
LAY-1
  6
CONTINUOUS
 62
     3
100
AcDbLine
 10
126.621429
 20
430.7
 30
0.0
 11
125.621429
 21
430.7
 31
0.0
  0
LINE
  5
191
100
AcDbEntity
  8
LAY-1
  6
CONTINUOUS
 62
     3
100
AcDbLine
 10
126.621429
 20
445.7
 30
0.0
 11
125.621429
 21
445.7
 31
0.0
  0
LINE
  5
192
100
AcDbEntity
  8
LAY-1
  6
CONTINUOUS
 62
     3
100
AcDbLine
 10
125.621429
 20
427.7
 30
0.0
 11
123.821429
 21
427.7
 31
0.0
  0
LINE
  5
193
100
AcDbEntity
  8
LAY-1
  6
CONTINUOUS
 62
     3
100
AcDbLine
 10
125.621429
 20
448.7
 30
0.0
 11
123.821429
 21
448.7
 31
0.0
  0
ARC
  5
194
100
AcDbEntity
  8
LAY-1
  6
CONTINUOUS
 62
     3
100
AcDbCircle
 10
118.836017
 20
445.0
 30
0.0
 40
0.3
100
AcDbArc
 50
207.645523
 51
270.0
  0
ARC
  5
195
100
AcDbEntity
  8
LAY-1
  6
CONTINUOUS
 62
     3
100
AcDbCircle
 10
116.621429
 20
443.84
 30
0.0
 40
2.2
100
AcDbArc
 50
27.645523
 51
152.354477
  0
ARC
  5
196
100
AcDbEntity
  8
LAY-1
  6
CONTINUOUS
 62
     3
100
AcDbCircle
 10
114.406841
 20
445.0
 30
0.0
 40
0.3
100
AcDbArc
 50
270.0
 51
332.354477
  0
ARC
  5
197
100
AcDbEntity
  8
LAY-1
  6
CONTINUOUS
 62
     3
100
AcDbCircle
 10
114.406841
 20
431.4
 30
0.0
 40
0.3
100
AcDbArc
 50
27.645523
 51
90.0
  0
ARC
  5
198
100
AcDbEntity
  8
LAY-1
  6
CONTINUOUS
 62
     3
100
AcDbCircle
 10
116.621429
 20
432.56
 30
0.0
 40
2.2
100
AcDbArc
 50
207.645523
 51
332.354477
  0
ARC
  5
199
100
AcDbEntity
  8
LAY-1
  6
CONTINUOUS
 62
     3
100
AcDbCircle
 10
118.836017
 20
431.4
 30
0.0
 40
0.3
100
AcDbArc
 50
90.0
 51
152.354477
  0
LINE
  5
19A
100
AcDbEntity
  8
LAY-1
  6
CONTINUOUS
 62
     3
100
AcDbLine
 10
114.672591
 20
444.8608
 30
0.0
 11
114.672591
 21
431.5392
 31
0.0
  0
LINE
  5
19B
100
AcDbEntity
  8
LAY-1
  6
CONTINUOUS
 62
     3
100
AcDbLine
 10
118.570266
 20
431.5392
 30
0.0
 11
118.570266
 21
444.8608
 31
0.0
  0
LINE
  5
19C
100
AcDbEntity
  8
LAY-1
  6
CONTINUOUS
 62
     3
100
AcDbLine
 10
123.821429
 20
431.7
 30
0.0
 11
118.836017
 21
431.7
 31
0.0
  0
LINE
  5
19D
100
AcDbEntity
  8
LAY-1
  6
CONTINUOUS
 62
     3
100
AcDbLine
 10
118.836017
 20
444.7
 30
0.0
 11
123.821429
 21
444.7
 31
0.0
  0
LINE
  5
19E
100
AcDbEntity
  8
LAY-1
  6
EXLTYPE3
 62
     1
100
AcDbLine
 10
94.0
 20
438.2
 30
0.0
 11
129.8
 21
438.2
 31
0.0
  0
ARC
  5
19F
100
AcDbEntity
  8
LAY-1
  6
CONTINUOUS
 62
     3
100
AcDbCircle
 10
108.836017
 20
445.0
 30
0.0
 40
0.3
100
AcDbArc
 50
207.645523
 51
270.0
  0
ARC
  5
1A0
100
AcDbEntity
  8
LAY-1
  6
CONTINUOUS
 62
     3
100
AcDbCircle
 10
106.621429
 20
443.84
 30
0.0
 40
2.2
100
AcDbArc
 50
27.645523
 51
152.354477
  0
ARC
  5
1A1
100
AcDbEntity
  8
LAY-1
  6
CONTINUOUS
 62
     3
100
AcDbCircle
 10
104.406841
 20
445.0
 30
0.0
 40
0.3
100
AcDbArc
 50
270.0
 51
332.354477
  0
ARC
  5
1A2
100
AcDbEntity
  8
LAY-1
  6
CONTINUOUS
 62
     3
100
AcDbCircle
 10
104.406841
 20
431.4
 30
0.0
 40
0.3
100
AcDbArc
 50
27.645523
 51
90.0
  0
ARC
  5
1A3
100
AcDbEntity
  8
LAY-1
  6
CONTINUOUS
 62
     3
100
AcDbCircle
 10
106.621429
 20
432.56
 30
0.0
 40
2.2
100
AcDbArc
 50
207.645523
 51
332.354477
  0
ARC
  5
1A4
100
AcDbEntity
  8
LAY-1
  6
CONTINUOUS
 62
     3
100
AcDbCircle
 10
108.836017
 20
431.4
 30
0.0
 40
0.3
100
AcDbArc
 50
90.0
 51
152.354477
  0
LINE
  5
1A5
100
AcDbEntity
  8
LAY-1
  6
CONTINUOUS
 62
     3
100
AcDbLine
 10
104.672591
 20
444.8608
 30
0.0
 11
104.672591
 21
431.5392
 31
0.0
  0
LINE
  5
1A6
100
AcDbEntity
  8
LAY-1
  6
CONTINUOUS
 62
     3
100
AcDbLine
 10
108.570266
 20
431.5392
 30
0.0
 11
108.570266
 21
444.8608
 31
0.0
  0
LINE
  5
1A7
100
AcDbEntity
  8
LAY-1
  6
CONTINUOUS
 62
     3
100
AcDbLine
 10
99.421429
 20
444.7
 30
0.0
 11
104.406841
 21
444.7
 31
0.0
  0
LINE
  5
1A8
100
AcDbEntity
  8
LAY-1
  6
CONTINUOUS
 62
     3
100
AcDbLine
 10
108.836017
 20
444.7
 30
0.0
 11
114.406841
 21
444.7
 31
0.0
  0
LINE
  5
1A9
100
AcDbEntity
  8
LAY-1
  6
CONTINUOUS
 62
     3
100
AcDbLine
 10
99.421429
 20
431.7
 30
0.0
 11
104.406841
 21
431.7
 31
0.0
  0
LINE
  5
1AA
100
AcDbEntity
  8
LAY-1
  6
CONTINUOUS
 62
     3
100
AcDbLine
 10
108.836017
 20
431.7
 30
0.0
 11
114.406841
 21
431.7
 31
0.0
  0
ARC
  5
1AB
100
AcDbEntity
  8
LAY-1
  6
CONTINUOUS
 62
     3
100
AcDbCircle
 10
230.278874
 20
446.5
 30
0.0
 40
0.3
100
AcDbArc
 50
207.645523
 51
270.0
  0
ARC
  5
1AC
100
AcDbEntity
  8
LAY-1
  6
CONTINUOUS
 62
     3
100
AcDbCircle
 10
228.064286
 20
445.34
 30
0.0
 40
2.2
100
AcDbArc
 50
27.645523
 51
152.354477
  0
ARC
  5
1AD
100
AcDbEntity
  8
LAY-1
  6
CONTINUOUS
 62
     3
100
AcDbCircle
 10
225.849698
 20
446.5
 30
0.0
 40
0.3
100
AcDbArc
 50
270.0
 51
332.354477
  0
ARC
  5
1AE
100
AcDbEntity
  8
LAY-1
  6
CONTINUOUS
 62
     3
100
AcDbCircle
 10
225.849698
 20
429.9
 30
0.0
 40
0.3
100
AcDbArc
 50
27.645523
 51
90.0
  0
ARC
  5
1AF
100
AcDbEntity
  8
LAY-1
  6
CONTINUOUS
 62
     3
100
AcDbCircle
 10
228.064286
 20
431.06
 30
0.0
 40
2.2
100
AcDbArc
 50
207.645523
 51
332.354477
  0
ARC
  5
1B0
100
AcDbEntity
  8
LAY-1
  6
CONTINUOUS
 62
     3
100
AcDbCircle
 10
230.278874
 20
429.9
 30
0.0
 40
0.3
100
AcDbArc
 50
90.0
 51
152.354477
  0
LINE
  5
1B1
100
AcDbEntity
  8
LAY-1
  6
CONTINUOUS
 62
     3
100
AcDbLine
 10
226.115448
 20
446.3608
 30
0.0
 11
226.115448
 21
430.0392
 31
0.0
  0
LINE
  5
1B2
100
AcDbEntity
  8
LAY-1
  6
CONTINUOUS
 62
     3
100
AcDbLine
 10
230.013123
 20
430.0392
 30
0.0
 11
230.013123
 21
446.3608
 31
0.0
  0
LINE
  5
1B3
100
AcDbEntity
  8
LAY-1
  6
CONTINUOUS
 62
     3
100
AcDbLine
 10
237.064286
 20
450.7
 30
0.0
 11
235.264286
 21
450.7
 31
0.0
  0
LINE
  5
1B4
100
AcDbEntity
  8
LAY-1
  6
CONTINUOUS
 62
     3
100
AcDbLine
 10
237.064286
 20
425.7
 30
0.0
 11
235.264286
 21
425.7
 31
0.0
  0
LINE
  5
1B5
100
AcDbEntity
  8
LAY-1
  6
CONTINUOUS
 62
     3
100
AcDbLine
 10
238.064286
 20
447.2
 30
0.0
 11
237.064286
 21
447.2
 31
0.0
  0
LINE
  5
1B6
100
AcDbEntity
  8
LAY-1
  6
CONTINUOUS
 62
     3
100
AcDbLine
 10
238.064286
 20
429.2
 30
0.0
 11
237.064286
 21
429.2
 31
0.0
  0
LINE
  5
1B7
100
AcDbEntity
  8
LAY-1
  6
CONTINUOUS
 62
     3
100
AcDbLine
 10
238.064286
 20
447.2
 30
0.0
 11
238.064286
 21
429.2
 31
0.0
  0
LINE
  5
1B8
100
AcDbEntity
  8
LAY-1
  6
CONTINUOUS
 62
     3
100
AcDbLine
 10
237.064286
 20
450.7
 30
0.0
 11
237.064286
 21
425.7
 31
0.0
  0
LINE
  5
1B9
100
AcDbEntity
  8
LAY-1
  6
CONTINUOUS
 62
     3
100
AcDbLine
 10
235.264286
 20
450.7
 30
0.0
 11
235.264286
 21
425.7
 31
0.0
  0
LINE
  5
1BA
100
AcDbEntity
  8
LAY-1
  6
CONTINUOUS
 62
     3
100
AcDbLine
 10
230.278874
 20
446.2
 30
0.0
 11
235.264286
 21
446.2
 31
0.0
  0
LINE
  5
1BB
100
AcDbEntity
  8
LAY-1
  6
CONTINUOUS
 62
     3
100
AcDbLine
 10
235.264286
 20
430.2
 30
0.0
 11
230.278874
 21
430.2
 31
0.0
  0
ARC
  5
1BC
100
AcDbEntity
  8
LAY-1
  6
CONTINUOUS
 62
     3
100
AcDbCircle
 10
220.278874
 20
446.5
 30
0.0
 40
0.3
100
AcDbArc
 50
207.645523
 51
270.0
  0
ARC
  5
1BD
100
AcDbEntity
  8
LAY-1
  6
CONTINUOUS
 62
     3
100
AcDbCircle
 10
218.064286
 20
445.34
 30
0.0
 40
2.2
100
AcDbArc
 50
27.645523
 51
152.354477
  0
ARC
  5
1BE
100
AcDbEntity
  8
LAY-1
  6
CONTINUOUS
 62
     3
100
AcDbCircle
 10
215.849698
 20
446.5
 30
0.0
 40
0.3
100
AcDbArc
 50
270.0
 51
332.354477
  0
ARC
  5
1BF
100
AcDbEntity
  8
LAY-1
  6
CONTINUOUS
 62
     3
100
AcDbCircle
 10
215.849698
 20
429.9
 30
0.0
 40
0.3
100
AcDbArc
 50
27.645523
 51
90.0
  0
ARC
  5
1C0
100
AcDbEntity
  8
LAY-1
  6
CONTINUOUS
 62
     3
100
AcDbCircle
 10
218.064286
 20
431.06
 30
0.0
 40
2.2
100
AcDbArc
 50
207.645523
 51
332.354477
  0
ARC
  5
1C1
100
AcDbEntity
  8
LAY-1
  6
CONTINUOUS
 62
     3
100
AcDbCircle
 10
220.278874
 20
429.9
 30
0.0
 40
0.3
100
AcDbArc
 50
90.0
 51
152.354477
  0
LINE
  5
1C2
100
AcDbEntity
  8
LAY-1
  6
CONTINUOUS
 62
     3
100
AcDbLine
 10
216.115448
 20
446.3608
 30
0.0
 11
216.115448
 21
430.0392
 31
0.0
  0
LINE
  5
1C3
100
AcDbEntity
  8
LAY-1
  6
CONTINUOUS
 62
     3
100
AcDbLine
 10
220.013123
 20
430.0392
 30
0.0
 11
220.013123
 21
446.3608
 31
0.0
  0
LINE
  5
1C4
100
AcDbEntity
  8
LAY-1
  6
CONTINUOUS
 62
     3
100
AcDbLine
 10
209.064286
 20
450.7
 30
0.0
 11
210.864286
 21
450.7
 31
0.0
  0
LINE
  5
1C5
100
AcDbEntity
  8
LAY-1
  6
CONTINUOUS
 62
     3
100
AcDbLine
 10
209.064286
 20
425.7
 30
0.0
 11
210.864286
 21
425.7
 31
0.0
  0
LINE
  5
1C6
100
AcDbEntity
  8
LAY-1
  6
CONTINUOUS
 62
     3
100
AcDbLine
 10
208.064286
 20
447.2
 30
0.0
 11
209.064286
 21
447.2
 31
0.0
  0
LINE
  5
1C7
100
AcDbEntity
  8
LAY-1
  6
CONTINUOUS
 62
     3
100
AcDbLine
 10
208.064286
 20
429.2
 30
0.0
 11
209.064286
 21
429.2
 31
0.0
  0
LINE
  5
1C8
100
AcDbEntity
  8
LAY-1
  6
CONTINUOUS
 62
     3
100
AcDbLine
 10
208.064286
 20
447.2
 30
0.0
 11
208.064286
 21
429.2
 31
0.0
  0
LINE
  5
1C9
100
AcDbEntity
  8
LAY-1
  6
CONTINUOUS
 62
     3
100
AcDbLine
 10
209.064286
 20
450.7
 30
0.0
 11
209.064286
 21
425.7
 31
0.0
  0
LINE
  5
1CA
100
AcDbEntity
  8
LAY-1
  6
CONTINUOUS
 62
     3
100
AcDbLine
 10
210.864286
 20
450.7
 30
0.0
 11
210.864286
 21
425.7
 31
0.0
  0
LINE
  5
1CB
100
AcDbEntity
  8
LAY-1
  6
EXLTYPE3
 62
     1
100
AcDbLine
 10
205.6
 20
438.2
 30
0.0
 11
241.1
 21
438.2
 31
0.0
  0
LINE
  5
1CC
100
AcDbEntity
  8
LAY-1
  6
CONTINUOUS
 62
     3
100
AcDbLine
 10
210.864286
 20
446.2
 30
0.0
 11
215.849698
 21
446.2
 31
0.0
  0
LINE
  5
1CD
100
AcDbEntity
  8
LAY-1
  6
CONTINUOUS
 62
     3
100
AcDbLine
 10
220.278874
 20
446.2
 30
0.0
 11
225.849698
 21
446.2
 31
0.0
  0
LINE
  5
1CE
100
AcDbEntity
  8
LAY-1
  6
CONTINUOUS
 62
     3
100
AcDbLine
 10
210.864286
 20
430.2
 30
0.0
 11
215.849698
 21
430.2
 31
0.0
  0
LINE
  5
1CF
100
AcDbEntity
  8
LAY-1
  6
CONTINUOUS
 62
     3
100
AcDbLine
 10
220.278874
 20
430.2
 30
0.0
 11
225.849698
 21
430.2
 31
0.0
  0
LINE
  5
1D0
100
AcDbEntity
  8
LAY-1
  6
CONTINUOUS
 62
     3
100
AcDbLine
 10
348.507143
 20
452.2
 30
0.0
 11
346.707143
 21
452.2
 31
0.0
  0
LINE
  5
1D1
100
AcDbEntity
  8
LAY-1
  6
CONTINUOUS
 62
     3
100
AcDbLine
 10
348.507143
 20
424.2
 30
0.0
 11
346.707143
 21
424.2
 31
0.0
  0
LINE
  5
1D2
100
AcDbEntity
  8
LAY-1
  6
CONTINUOUS
 62
     3
100
AcDbLine
 10
349.507143
 20
448.7
 30
0.0
 11
348.507143
 21
448.7
 31
0.0
  0
LINE
  5
1D3
100
AcDbEntity
  8
LAY-1
  6
CONTINUOUS
 62
     3
100
AcDbLine
 10
349.507143
 20
427.7
 30
0.0
 11
348.507143
 21
427.7
 31
0.0
  0
LINE
  5
1D4
100
AcDbEntity
  8
LAY-1
  6
CONTINUOUS
 62
     3
100
AcDbLine
 10
346.707143
 20
428.7
 30
0.0
 11
346.707143
 21
424.2
 31
0.0
  0
LINE
  5
1D5
100
AcDbEntity
  8
LAY-1
  6
CONTINUOUS
 62
     3
100
AcDbLine
 10
349.507143
 20
448.7
 30
0.0
 11
349.507143
 21
427.7
 31
0.0
  0
LINE
  5
1D6
100
AcDbEntity
  8
LAY-1
  6
CONTINUOUS
 62
     3
100
AcDbLine
 10
348.507143
 20
452.2
 30
0.0
 11
348.507143
 21
424.2
 31
0.0
  0
LINE
  5
1D7
100
AcDbEntity
  8
LAY-1
  6
CONTINUOUS
 62
     3
100
AcDbLine
 10
346.707143
 20
452.2
 30
0.0
 11
346.707143
 21
428.7
 31
0.0
  0
LINE
  5
1D8
100
AcDbEntity
  8
LAY-1
  6
CONTINUOUS
 62
     3
100
AcDbLine
 10
320.507143
 20
452.2
 30
0.0
 11
322.307143
 21
452.2
 31
0.0
  0
LINE
  5
1D9
100
AcDbEntity
  8
LAY-1
  6
CONTINUOUS
 62
     3
100
AcDbLine
 10
320.507143
 20
424.2
 30
0.0
 11
322.307143
 21
424.2
 31
0.0
  0
LINE
  5
1DA
100
AcDbEntity
  8
LAY-1
  6
CONTINUOUS
 62
     3
100
AcDbLine
 10
319.507143
 20
448.7
 30
0.0
 11
320.507143
 21
448.7
 31
0.0
  0
LINE
  5
1DB
100
AcDbEntity
  8
LAY-1
  6
CONTINUOUS
 62
     3
100
AcDbLine
 10
319.507143
 20
427.7
 30
0.0
 11
320.507143
 21
427.7
 31
0.0
  0
LINE
  5
1DC
100
AcDbEntity
  8
LAY-1
  6
CONTINUOUS
 62
     3
100
AcDbLine
 10
322.307143
 20
428.7
 30
0.0
 11
322.307143
 21
424.2
 31
0.0
  0
LINE
  5
1DD
100
AcDbEntity
  8
LAY-1
  6
CONTINUOUS
 62
     3
100
AcDbLine
 10
319.507143
 20
448.7
 30
0.0
 11
319.507143
 21
427.7
 31
0.0
  0
LINE
  5
1DE
100
AcDbEntity
  8
LAY-1
  6
CONTINUOUS
 62
     3
100
AcDbLine
 10
320.507143
 20
452.2
 30
0.0
 11
320.507143
 21
424.2
 31
0.0
  0
LINE
  5
1DF
100
AcDbEntity
  8
LAY-1
  6
CONTINUOUS
 62
     3
100
AcDbLine
 10
322.307143
 20
452.2
 30
0.0
 11
322.307143
 21
428.7
 31
0.0
  0
LINE
  5
1E0
100
AcDbEntity
  8
LAY-1
  6
EXLTYPE3
 62
     1
100
AcDbLine
 10
316.4
 20
438.2
 30
0.0
 11
353.4
 21
438.2
 31
0.0
  0
LINE
  5
1E1
100
AcDbEntity
  8
LAY-1
  6
CONTINUOUS
 62
     3
100
AcDbLine
 10
326.481122
 20
428.7
 30
0.0
 11
322.307143
 21
428.7
 31
0.0
  0
LINE
  5
1E2
100
AcDbEntity
  8
LAY-1
  6
CONTINUOUS
 62
     3
100
AcDbLine
 10
326.481122
 20
447.7
 30
0.0
 11
322.307143
 21
447.7
 31
0.0
  0
LINE
  5
1E3
100
AcDbEntity
  8
LAY-1
  6
CONTINUOUS
 62
     3
100
AcDbLine
 10
332.177161
 20
428.482379
 30
0.0
 11
332.177161
 21
447.917621
 31
0.0
  0
LINE
  5
1E4
100
AcDbEntity
  8
LAY-1
  6
CONTINUOUS
 62
     3
100
AcDbLine
 10
326.837124
 20
447.917621
 30
0.0
 11
326.837124
 21
428.482379
 31
0.0
  0
ARC
  5
1E5
100
AcDbEntity
  8
LAY-1
  6
CONTINUOUS
 62
     3
100
AcDbCircle
 10
326.481122
 20
428.3
 30
0.0
 40
0.4
100
AcDbArc
 50
27.125984
 51
90.0
  0
ARC
  5
1E6
100
AcDbEntity
  8
LAY-1
  6
CONTINUOUS
 62
     3
100
AcDbCircle
 10
329.507143
 20
429.850225
 30
0.0
 40
3.0
100
AcDbArc
 50
207.125984
 51
332.874016
  0
ARC
  5
1E7
100
AcDbEntity
  8
LAY-1
  6
CONTINUOUS
 62
     3
100
AcDbCircle
 10
332.533164
 20
428.3
 30
0.0
 40
0.4
100
AcDbArc
 50
90.0
 51
152.874016
  0
ARC
  5
1E8
100
AcDbEntity
  8
LAY-1
  6
CONTINUOUS
 62
     3
100
AcDbCircle
 10
332.533164
 20
448.1
 30
0.0
 40
0.4
100
AcDbArc
 50
207.125984
 51
270.0
  0
ARC
  5
1E9
100
AcDbEntity
  8
LAY-1
  6
CONTINUOUS
 62
     3
100
AcDbCircle
 10
326.481122
 20
448.1
 30
0.0
 40
0.4
100
AcDbArc
 50
270.0
 51
332.874016
  0
ARC
  5
1EA
100
AcDbEntity
  8
LAY-1
  6
CONTINUOUS
 62
     3
100
AcDbCircle
 10
329.507143
 20
446.549775
 30
0.0
 40
3.0
100
AcDbArc
 50
27.125984
 51
152.874016
  0
LINE
  5
1EB
100
AcDbEntity
  8
LAY-1
  6
CONTINUOUS
 62
     3
100
AcDbLine
 10
342.177161
 20
428.482379
 30
0.0
 11
342.177161
 21
447.917621
 31
0.0
  0
LINE
  5
1EC
100
AcDbEntity
  8
LAY-1
  6
CONTINUOUS
 62
     3
100
AcDbLine
 10
336.837124
 20
447.917621
 30
0.0
 11
336.837124
 21
428.482379
 31
0.0
  0
ARC
  5
1ED
100
AcDbEntity
  8
LAY-1
  6
CONTINUOUS
 62
     3
100
AcDbCircle
 10
336.481122
 20
428.3
 30
0.0
 40
0.4
100
AcDbArc
 50
27.125984
 51
90.0
  0
ARC
  5
1EE
100
AcDbEntity
  8
LAY-1
  6
CONTINUOUS
 62
     3
100
AcDbCircle
 10
339.507143
 20
429.850225
 30
0.0
 40
3.0
100
AcDbArc
 50
207.125984
 51
332.874016
  0
ARC
  5
1EF
100
AcDbEntity
  8
LAY-1
  6
CONTINUOUS
 62
     3
100
AcDbCircle
 10
342.533164
 20
428.3
 30
0.0
 40
0.4
100
AcDbArc
 50
90.0
 51
152.874016
  0
ARC
  5
1F0
100
AcDbEntity
  8
LAY-1
  6
CONTINUOUS
 62
     3
100
AcDbCircle
 10
342.533164
 20
448.1
 30
0.0
 40
0.4
100
AcDbArc
 50
207.125984
 51
270.0
  0
ARC
  5
1F1
100
AcDbEntity
  8
LAY-1
  6
CONTINUOUS
 62
     3
100
AcDbCircle
 10
336.481122
 20
448.1
 30
0.0
 40
0.4
100
AcDbArc
 50
270.0
 51
332.874016
  0
ARC
  5
1F2
100
AcDbEntity
  8
LAY-1
  6
CONTINUOUS
 62
     3
100
AcDbCircle
 10
339.507143
 20
446.549775
 30
0.0
 40
3.0
100
AcDbArc
 50
27.125984
 51
152.874016
  0
LINE
  5
1F3
100
AcDbEntity
  8
LAY-1
  6
CONTINUOUS
 62
     3
100
AcDbLine
 10
332.533164
 20
447.7
 30
0.0
 11
336.481122
 21
447.7
 31
0.0
  0
LINE
  5
1F4
100
AcDbEntity
  8
LAY-1
  6
CONTINUOUS
 62
     3
100
AcDbLine
 10
342.533164
 20
447.7
 30
0.0
 11
346.707143
 21
447.7
 31
0.0
  0
LINE
  5
1F5
100
AcDbEntity
  8
LAY-1
  6
CONTINUOUS
 62
     3
100
AcDbLine
 10
346.707143
 20
428.7
 30
0.0
 11
342.533164
 21
428.7
 31
0.0
  0
LINE
  5
1F6
100
AcDbEntity
  8
LAY-1
  6
CONTINUOUS
 62
     3
100
AcDbLine
 10
336.481122
 20
428.7
 30
0.0
 11
332.533164
 21
428.7
 31
0.0
  0
LINE
  5
1F7
100
AcDbEntity
  8
LAY-1
  6
CONTINUOUS
 62
     3
100
AcDbLine
 10
432.45
 20
454.7
 30
0.0
 11
434.25
 21
454.7
 31
0.0
  0
LINE
  5
1F8
100
AcDbEntity
  8
LAY-1
  6
CONTINUOUS
 62
     3
100
AcDbLine
 10
432.45
 20
421.7
 30
0.0
 11
434.25
 21
421.7
 31
0.0
  0
LINE
  5
1F9
100
AcDbEntity
  8
LAY-1
  6
CONTINUOUS
 62
     3
100
AcDbLine
 10
430.95
 20
451.05
 30
0.0
 11
432.45
 21
451.05
 31
0.0
  0
LINE
  5
1FA
100
AcDbEntity
  8
LAY-1
  6
CONTINUOUS
 62
     3
100
AcDbLine
 10
430.95
 20
425.35
 30
0.0
 11
432.45
 21
425.35
 31
0.0
  0
LINE
  5
1FB
100
AcDbEntity
  8
LAY-1
  6
CONTINUOUS
 62
     3
100
AcDbLine
 10
430.95
 20
451.05
 30
0.0
 11
430.95
 21
425.35
 31
0.0
  0
LINE
  5
1FC
100
AcDbEntity
  8
LAY-1
  6
CONTINUOUS
 62
     3
100
AcDbLine
 10
432.45
 20
454.7
 30
0.0
 11
432.45
 21
421.7
 31
0.0
  0
LINE
  5
1FD
100
AcDbEntity
  8
LAY-1
  6
CONTINUOUS
 62
     3
100
AcDbLine
 10
434.25
 20
454.7
 30
0.0
 11
434.25
 21
421.7
 31
0.0
  0
LINE
  5
1FE
100
AcDbEntity
  8
LAY-1
  6
CONTINUOUS
 62
     3
100
AcDbLine
 10
457.65
 20
426.35
 30
0.0
 11
458.051779
 21
426.35
 31
0.0
  0
LINE
  5
1FF
100
AcDbEntity
  8
LAY-1
  6
CONTINUOUS
 62
     3
100
AcDbLine
 10
457.65
 20
454.7
 30
0.0
 11
457.65
 21
421.7
 31
0.0
  0
LINE
  5
200
100
AcDbEntity
  8
LAY-1
  6
CONTINUOUS
 62
     3
100
AcDbLine
 10
459.45
 20
454.7
 30
0.0
 11
459.45
 21
421.7
 31
0.0
  0
LINE
  5
201
100
AcDbEntity
  8
LAY-1
  6
CONTINUOUS
 62
     3
100
AcDbLine
 10
460.95
 20
451.05
 30
0.0
 11
460.95
 21
425.35
 31
0.0
  0
LINE
  5
202
100
AcDbEntity
  8
LAY-1
  6
CONTINUOUS
 62
     3
100
AcDbLine
 10
460.95
 20
425.35
 30
0.0
 11
459.45
 21
425.35
 31
0.0
  0
LINE
  5
203
100
AcDbEntity
  8
LAY-1
  6
CONTINUOUS
 62
     3
100
AcDbLine
 10
460.95
 20
451.05
 30
0.0
 11
459.45
 21
451.05
 31
0.0
  0
LINE
  5
204
100
AcDbEntity
  8
LAY-1
  6
CONTINUOUS
 62
     3
100
AcDbLine
 10
459.45
 20
421.7
 30
0.0
 11
457.65
 21
421.7
 31
0.0
  0
LINE
  5
205
100
AcDbEntity
  8
LAY-1
  6
CONTINUOUS
 62
     3
100
AcDbLine
 10
459.45
 20
454.7
 30
0.0
 11
457.65
 21
454.7
 31
0.0
  0
LINE
  5
206
100
AcDbEntity
  8
LAY-1
  6
CONTINUOUS
 62
     3
100
AcDbLine
 10
443.620018
 20
426.132379
 30
0.0
 11
443.620018
 21
450.267621
 31
0.0
  0
LINE
  5
207
100
AcDbEntity
  8
LAY-1
  6
CONTINUOUS
 62
     3
100
AcDbLine
 10
438.279982
 20
450.267621
 30
0.0
 11
438.279982
 21
426.132379
 31
0.0
  0
ARC
  5
208
100
AcDbEntity
  8
LAY-1
  6
CONTINUOUS
 62
     3
100
AcDbCircle
 10
437.923979
 20
425.95
 30
0.0
 40
0.4
100
AcDbArc
 50
27.125984
 51
90.0
  0
ARC
  5
209
100
AcDbEntity
  8
LAY-1
  6
CONTINUOUS
 62
     3
100
AcDbCircle
 10
440.95
 20
427.500225
 30
0.0
 40
3.0
100
AcDbArc
 50
207.125984
 51
332.874016
  0
ARC
  5
20A
100
AcDbEntity
  8
LAY-1
  6
CONTINUOUS
 62
     3
100
AcDbCircle
 10
443.976021
 20
425.95
 30
0.0
 40
0.4
100
AcDbArc
 50
90.0
 51
152.874016
  0
ARC
  5
20B
100
AcDbEntity
  8
LAY-1
  6
CONTINUOUS
 62
     3
100
AcDbCircle
 10
443.976021
 20
450.45
 30
0.0
 40
0.4
100
AcDbArc
 50
207.125984
 51
270.0
  0
ARC
  5
20C
100
AcDbEntity
  8
LAY-1
  6
CONTINUOUS
 62
     3
100
AcDbCircle
 10
440.95
 20
448.899775
 30
0.0
 40
3.0
100
AcDbArc
 50
27.125984
 51
152.874016
  0
ARC
  5
20D
100
AcDbEntity
  8
LAY-1
  6
CONTINUOUS
 62
     3
100
AcDbCircle
 10
437.923979
 20
450.45
 30
0.0
 40
0.4
100
AcDbArc
 50
270.0
 51
332.874016
  0
LINE
  5
20E
100
AcDbEntity
  8
LAY-1
  6
CONTINUOUS
 62
     3
100
AcDbLine
 10
437.923979
 20
426.35
 30
0.0
 11
434.25
 21
426.35
 31
0.0
  0
LINE
  5
20F
100
AcDbEntity
  8
LAY-1
  6
CONTINUOUS
 62
     3
100
AcDbLine
 10
434.25
 20
450.05
 30
0.0
 11
437.923979
 21
450.05
 31
0.0
  0
LINE
  5
210
100
AcDbEntity
  8
LAY-1
  6
EXLTYPE3
 62
     1
100
AcDbLine
 10
427.6
 20
438.2
 30
0.0
 11
464.7
 21
438.2
 31
0.0
  0
LINE
  5
211
100
AcDbEntity
  8
LAY-1
  6
CONTINUOUS
 62
     3
100
AcDbLine
 10
453.620018
 20
426.132379
 30
0.0
 11
453.620018
 21
450.267621
 31
0.0
  0
LINE
  5
212
100
AcDbEntity
  8
LAY-1
  6
CONTINUOUS
 62
     3
100
AcDbLine
 10
448.279982
 20
450.267621
 30
0.0
 11
448.279982
 21
426.132379
 31
0.0
  0
ARC
  5
213
100
AcDbEntity
  8
LAY-1
  6
CONTINUOUS
 62
     3
100
AcDbCircle
 10
447.923979
 20
425.95
 30
0.0
 40
0.4
100
AcDbArc
 50
27.125984
 51
90.0
  0
ARC
  5
214
100
AcDbEntity
  8
LAY-1
  6
CONTINUOUS
 62
     3
100
AcDbCircle
 10
450.95
 20
427.500225
 30
0.0
 40
3.0
100
AcDbArc
 50
207.125984
 51
332.874016
  0
ARC
  5
215
100
AcDbEntity
  8
LAY-1
  6
CONTINUOUS
 62
     3
100
AcDbCircle
 10
453.976021
 20
425.95
 30
0.0
 40
0.4
100
AcDbArc
 50
90.0
 51
152.874016
  0
ARC
  5
216
100
AcDbEntity
  8
LAY-1
  6
CONTINUOUS
 62
     3
100
AcDbCircle
 10
453.976021
 20
450.45
 30
0.0
 40
0.4
100
AcDbArc
 50
207.125984
 51
270.0
  0
ARC
  5
217
100
AcDbEntity
  8
LAY-1
  6
CONTINUOUS
 62
     3
100
AcDbCircle
 10
450.95
 20
448.899775
 30
0.0
 40
3.0
100
AcDbArc
 50
27.125984
 51
152.874016
  0
ARC
  5
218
100
AcDbEntity
  8
LAY-1
  6
CONTINUOUS
 62
     3
100
AcDbCircle
 10
447.923979
 20
450.45
 30
0.0
 40
0.4
100
AcDbArc
 50
270.0
 51
332.874016
  0
LINE
  5
219
100
AcDbEntity
  8
LAY-1
  6
CONTINUOUS
 62
     3
100
AcDbLine
 10
443.976021
 20
450.05
 30
0.0
 11
447.923979
 21
450.05
 31
0.0
  0
LINE
  5
21A
100
AcDbEntity
  8
LAY-1
  6
CONTINUOUS
 62
     3
100
AcDbLine
 10
453.976021
 20
450.05
 30
0.0
 11
457.65
 21
450.05
 31
0.0
  0
LINE
  5
21B
100
AcDbEntity
  8
LAY-1
  6
CONTINUOUS
 62
     3
100
AcDbLine
 10
457.65
 20
426.35
 30
0.0
 11
453.976021
 21
426.35
 31
0.0
  0
LINE
  5
21C
100
AcDbEntity
  8
LAY-1
  6
CONTINUOUS
 62
     3
100
AcDbLine
 10
447.923979
 20
426.35
 30
0.0
 11
443.976021
 21
426.35
 31
0.0
  0
LINE
  5
21D
100
AcDbEntity
  8
LAY-1
  6
CONTINUOUS
 62
     3
100
AcDbLine
 10
570.892857
 20
458.2
 30
0.0
 11
569.092857
 21
458.2
 31
0.0
  0
LINE
  5
21E
100
AcDbEntity
  8
LAY-1
  6
CONTINUOUS
 62
     3
100
AcDbLine
 10
570.892857
 20
418.2
 30
0.0
 11
569.092857
 21
418.2
 31
0.0
  0
LINE
  5
21F
100
AcDbEntity
  8
LAY-1
  6
CONTINUOUS
 62
     3
100
AcDbLine
 10
572.392857
 20
454.4
 30
0.0
 11
570.892857
 21
454.4
 31
0.0
  0
LINE
  5
220
100
AcDbEntity
  8
LAY-1
  6
CONTINUOUS
 62
     3
100
AcDbLine
 10
572.392857
 20
422.0
 30
0.0
 11
570.892857
 21
422.0
 31
0.0
  0
LINE
  5
221
100
AcDbEntity
  8
LAY-1
  6
CONTINUOUS
 62
     3
100
AcDbLine
 10
572.392857
 20
454.4
 30
0.0
 11
572.392857
 21
422.0
 31
0.0
  0
LINE
  5
222
100
AcDbEntity
  8
LAY-1
  6
CONTINUOUS
 62
     3
100
AcDbLine
 10
570.892857
 20
458.2
 30
0.0
 11
570.892857
 21
418.2
 31
0.0
  0
LINE
  5
223
100
AcDbEntity
  8
LAY-1
  6
CONTINUOUS
 62
     3
100
AcDbLine
 10
569.092857
 20
458.2
 30
0.0
 11
569.092857
 21
418.2
 31
0.0
  0
LINE
  5
224
100
AcDbEntity
  8
LAY-1
  6
CONTINUOUS
 62
     3
100
AcDbLine
 10
543.892857
 20
458.2
 30
0.0
 11
545.692857
 21
458.2
 31
0.0
  0
LINE
  5
225
100
AcDbEntity
  8
LAY-1
  6
CONTINUOUS
 62
     3
100
AcDbLine
 10
543.892857
 20
418.2
 30
0.0
 11
545.692857
 21
418.2
 31
0.0
  0
LINE
  5
226
100
AcDbEntity
  8
LAY-1
  6
CONTINUOUS
 62
     3
100
AcDbLine
 10
542.392857
 20
454.4
 30
0.0
 11
543.892857
 21
454.4
 31
0.0
  0
LINE
  5
227
100
AcDbEntity
  8
LAY-1
  6
CONTINUOUS
 62
     3
100
AcDbLine
 10
542.392857
 20
422.0
 30
0.0
 11
543.892857
 21
422.0
 31
0.0
  0
LINE
  5
228
100
AcDbEntity
  8
LAY-1
  6
CONTINUOUS
 62
     3
100
AcDbLine
 10
542.392857
 20
454.4
 30
0.0
 11
542.392857
 21
422.0
 31
0.0
  0
LINE
  5
229
100
AcDbEntity
  8
LAY-1
  6
CONTINUOUS
 62
     3
100
AcDbLine
 10
543.892857
 20
458.2
 30
0.0
 11
543.892857
 21
418.2
 31
0.0
  0
LINE
  5
22A
100
AcDbEntity
  8
LAY-1
  6
CONTINUOUS
 62
     3
100
AcDbLine
 10
545.692857
 20
458.2
 30
0.0
 11
545.692857
 21
418.2
 31
0.0
  0
ARC
  5
22B
100
AcDbEntity
  8
LAY-1
  6
CONTINUOUS
 62
     3
100
AcDbCircle
 10
549.366836
 20
453.8
 30
0.0
 40
0.4
100
AcDbArc
 50
270.0
 51
332.874016
  0
ARC
  5
22C
100
AcDbEntity
  8
LAY-1
  6
CONTINUOUS
 62
     3
100
AcDbCircle
 10
552.392857
 20
452.249775
 30
0.0
 40
3.0
100
AcDbArc
 50
27.125984
 51
152.874016
  0
ARC
  5
22D
100
AcDbEntity
  8
LAY-1
  6
CONTINUOUS
 62
     3
100
AcDbCircle
 10
555.418878
 20
453.8
 30
0.0
 40
0.4
100
AcDbArc
 50
207.125984
 51
270.0
  0
ARC
  5
22E
100
AcDbEntity
  8
LAY-1
  6
CONTINUOUS
 62
     3
100
AcDbCircle
 10
555.418878
 20
422.6
 30
0.0
 40
0.4
100
AcDbArc
 50
90.0
 51
152.874016
  0
ARC
  5
22F
100
AcDbEntity
  8
LAY-1
  6
CONTINUOUS
 62
     3
100
AcDbCircle
 10
552.392857
 20
424.150225
 30
0.0
 40
3.0
100
AcDbArc
 50
207.125984
 51
332.874016
  0
ARC
  5
230
100
AcDbEntity
  8
LAY-1
  6
CONTINUOUS
 62
     3
100
AcDbCircle
 10
549.366836
 20
422.6
 30
0.0
 40
0.4
100
AcDbArc
 50
27.125984
 51
90.0
  0
LINE
  5
231
100
AcDbEntity
  8
LAY-1
  6
CONTINUOUS
 62
     3
100
AcDbLine
 10
549.722839
 20
453.617621
 30
0.0
 11
549.722839
 21
422.782379
 31
0.0
  0
LINE
  5
232
100
AcDbEntity
  8
LAY-1
  6
CONTINUOUS
 62
     3
100
AcDbLine
 10
555.062876
 20
422.782379
 30
0.0
 11
555.062876
 21
453.617621
 31
0.0
  0
LINE
  5
233
100
AcDbEntity
  8
LAY-1
  6
CONTINUOUS
 62
     3
100
AcDbLine
 10
545.692857
 20
453.4
 30
0.0
 11
549.366836
 21
453.4
 31
0.0
  0
LINE
  5
234
100
AcDbEntity
  8
LAY-1
  6
CONTINUOUS
 62
     3
100
AcDbLine
 10
549.366836
 20
423.0
 30
0.0
 11
545.692857
 21
423.0
 31
0.0
  0
LINE
  5
235
100
AcDbEntity
  8
LAY-1
  6
EXLTYPE3
 62
     1
100
AcDbLine
 10
538.1
 20
438.2
 30
0.0
 11
576.9
 21
438.2
 31
0.0
  0
ARC
  5
236
100
AcDbEntity
  8
LAY-1
  6
CONTINUOUS
 62
     3
100
AcDbCircle
 10
559.366836
 20
453.8
 30
0.0
 40
0.4
100
AcDbArc
 50
270.0
 51
332.874016
  0
ARC
  5
237
100
AcDbEntity
  8
LAY-1
  6
CONTINUOUS
 62
     3
100
AcDbCircle
 10
562.392857
 20
452.249775
 30
0.0
 40
3.0
100
AcDbArc
 50
27.125984
 51
152.874016
  0
ARC
  5
238
100
AcDbEntity
  8
LAY-1
  6
CONTINUOUS
 62
     3
100
AcDbCircle
 10
565.418878
 20
453.8
 30
0.0
 40
0.4
100
AcDbArc
 50
207.125984
 51
270.0
  0
ARC
  5
239
100
AcDbEntity
  8
LAY-1
  6
CONTINUOUS
 62
     3
100
AcDbCircle
 10
565.418878
 20
422.6
 30
0.0
 40
0.4
100
AcDbArc
 50
90.0
 51
152.874016
  0
ARC
  5
23A
100
AcDbEntity
  8
LAY-1
  6
CONTINUOUS
 62
     3
100
AcDbCircle
 10
562.392857
 20
424.150225
 30
0.0
 40
3.0
100
AcDbArc
 50
207.125984
 51
332.874016
  0
ARC
  5
23B
100
AcDbEntity
  8
LAY-1
  6
CONTINUOUS
 62
     3
100
AcDbCircle
 10
559.366836
 20
422.6
 30
0.0
 40
0.4
100
AcDbArc
 50
27.125984
 51
90.0
  0
LINE
  5
23C
100
AcDbEntity
  8
LAY-1
  6
CONTINUOUS
 62
     3
100
AcDbLine
 10
559.722839
 20
453.617621
 30
0.0
 11
559.722839
 21
422.782379
 31
0.0
  0
LINE
  5
23D
100
AcDbEntity
  8
LAY-1
  6
CONTINUOUS
 62
     3
100
AcDbLine
 10
565.062876
 20
422.782379
 30
0.0
 11
565.062876
 21
453.617621
 31
0.0
  0
LINE
  5
23E
100
AcDbEntity
  8
LAY-1
  6
CONTINUOUS
 62
     3
100
AcDbLine
 10
555.418878
 20
453.4
 30
0.0
 11
559.366836
 21
453.4
 31
0.0
  0
LINE
  5
23F
100
AcDbEntity
  8
LAY-1
  6
CONTINUOUS
 62
     3
100
AcDbLine
 10
565.418878
 20
453.4
 30
0.0
 11
569.092857
 21
453.4
 31
0.0
  0
LINE
  5
240
100
AcDbEntity
  8
LAY-1
  6
CONTINUOUS
 62
     3
100
AcDbLine
 10
569.092857
 20
423.0
 30
0.0
 11
565.418878
 21
423.0
 31
0.0
  0
LINE
  5
241
100
AcDbEntity
  8
LAY-1
  6
CONTINUOUS
 62
     3
100
AcDbLine
 10
559.366836
 20
423.0
 30
0.0
 11
555.418878
 21
423.0
 31
0.0
  0
LINE
  5
242
100
AcDbEntity
  8
LAY-1
  6
CONTINUOUS
 62
     3
100
AcDbLine
 10
655.335714
 20
460.45
 30
0.0
 11
657.335714
 21
460.45
 31
0.0
  0
LINE
  5
243
100
AcDbEntity
  8
LAY-1
  6
CONTINUOUS
 62
     3
100
AcDbLine
 10
655.335714
 20
415.95
 30
0.0
 11
657.335714
 21
415.95
 31
0.0
  0
LINE
  5
244
100
AcDbEntity
  8
LAY-1
  6
CONTINUOUS
 62
     3
100
AcDbLine
 10
653.835714
 20
456.5
 30
0.0
 11
655.335714
 21
456.5
 31
0.0
  0
LINE
  5
245
100
AcDbEntity
  8
LAY-1
  6
CONTINUOUS
 62
     3
100
AcDbLine
 10
653.835714
 20
419.9
 30
0.0
 11
655.335714
 21
419.9
 31
0.0
  0
LINE
  5
246
100
AcDbEntity
  8
LAY-1
  6
CONTINUOUS
 62
     3
100
AcDbLine
 10
653.835714
 20
456.5
 30
0.0
 11
653.835714
 21
419.9
 31
0.0
  0
LINE
  5
247
100
AcDbEntity
  8
LAY-1
  6
CONTINUOUS
 62
     3
100
AcDbLine
 10
655.335714
 20
460.45
 30
0.0
 11
655.335714
 21
415.95
 31
0.0
  0
LINE
  5
248
100
AcDbEntity
  8
LAY-1
  6
CONTINUOUS
 62
     3
100
AcDbLine
 10
657.335714
 20
460.45
 30
0.0
 11
657.335714
 21
415.95
 31
0.0
  0
LINE
  5
249
100
AcDbEntity
  8
LAY-1
  6
CONTINUOUS
 62
     3
100
AcDbLine
 10
682.335714
 20
415.95
 30
0.0
 11
680.335714
 21
415.95
 31
0.0
  0
LINE
  5
24A
100
AcDbEntity
  8
LAY-1
  6
CONTINUOUS
 62
     3
100
AcDbLine
 10
682.335714
 20
460.45
 30
0.0
 11
680.335714
 21
460.45
 31
0.0
  0
LINE
  5
24B
100
AcDbEntity
  8
LAY-1
  6
CONTINUOUS
 62
     3
100
AcDbLine
 10
683.835714
 20
456.5
 30
0.0
 11
682.335714
 21
456.5
 31
0.0
  0
LINE
  5
24C
100
AcDbEntity
  8
LAY-1
  6
CONTINUOUS
 62
     3
100
AcDbLine
 10
683.835714
 20
419.9
 30
0.0
 11
682.335714
 21
419.9
 31
0.0
  0
LINE
  5
24D
100
AcDbEntity
  8
LAY-1
  6
CONTINUOUS
 62
     3
100
AcDbLine
 10
683.835714
 20
456.5
 30
0.0
 11
683.835714
 21
419.9
 31
0.0
  0
LINE
  5
24E
100
AcDbEntity
  8
LAY-1
  6
CONTINUOUS
 62
     3
100
AcDbLine
 10
680.335714
 20
460.45
 30
0.0
 11
680.335714
 21
415.95
 31
0.0
  0
LINE
  5
24F
100
AcDbEntity
  8
LAY-1
  6
CONTINUOUS
 62
     3
100
AcDbLine
 10
682.335714
 20
460.45
 30
0.0
 11
682.335714
 21
415.95
 31
0.0
  0
ARC
  5
250
100
AcDbEntity
  8
LAY-1
  6
CONTINUOUS
 62
     3
100
AcDbCircle
 10
663.835714
 20
453.849775
 30
0.0
 40
3.25
100
AcDbArc
 50
30.446042
 51
149.553958
  0
ARC
  5
251
100
AcDbEntity
  8
LAY-1
  6
CONTINUOUS
 62
     3
100
AcDbCircle
 10
660.602814
 20
455.75
 30
0.0
 40
0.5
100
AcDbArc
 50
270.0
 51
329.553958
  0
ARC
  5
252
100
AcDbEntity
  8
LAY-1
  6
CONTINUOUS
 62
     3
100
AcDbCircle
 10
667.068615
 20
455.75
 30
0.0
 40
0.5
100
AcDbArc
 50
210.446042
 51
270.0
  0
ARC
  5
253
100
AcDbEntity
  8
LAY-1
  6
CONTINUOUS
 62
     3
100
AcDbCircle
 10
667.068615
 20
420.65
 30
0.0
 40
0.5
100
AcDbArc
 50
90.0
 51
149.553958
  0
ARC
  5
254
100
AcDbEntity
  8
LAY-1
  6
CONTINUOUS
 62
     3
100
AcDbCircle
 10
663.835714
 20
422.550225
 30
0.0
 40
3.25
100
AcDbArc
 50
210.446042
 51
329.553958
  0
ARC
  5
255
100
AcDbEntity
  8
LAY-1
  6
CONTINUOUS
 62
     3
100
AcDbCircle
 10
660.602814
 20
420.65
 30
0.0
 40
0.5
100
AcDbArc
 50
30.446042
 51
90.0
  0
LINE
  5
256
100
AcDbEntity
  8
LAY-1
  6
CONTINUOUS
 62
     3
100
AcDbLine
 10
661.033867
 20
420.903363
 30
0.0
 11
661.033867
 21
455.496637
 31
0.0
  0
LINE
  5
257
100
AcDbEntity
  8
LAY-1
  6
CONTINUOUS
 62
     3
100
AcDbLine
 10
666.706922
 20
455.404778
 30
0.0
 11
666.706922
 21
420.903363
 31
0.0
  0
LINE
  5
258
100
AcDbEntity
  8
LAY-1
  6
CONTINUOUS
 62
     3
100
AcDbLine
 10
657.335714
 20
455.25
 30
0.0
 11
660.602814
 21
455.25
 31
0.0
  0
LINE
  5
259
100
AcDbEntity
  8
LAY-1
  6
CONTINUOUS
 62
     3
100
AcDbLine
 10
660.602814
 20
421.15
 30
0.0
 11
657.335714
 21
421.15
 31
0.0
  0
LINE
  5
25A
100
AcDbEntity
  8
LAY-1
  6
EXLTYPE3
 62
     1
100
AcDbLine
 10
650.1
 20
438.2
 30
0.0
 11
688.2
 21
438.2
 31
0.0
  0
ARC
  5
25B
100
AcDbEntity
  8
LAY-1
  6
CONTINUOUS
 62
     3
100
AcDbCircle
 10
673.835714
 20
453.849775
 30
0.0
 40
3.25
100
AcDbArc
 50
30.446042
 51
149.553958
  0
ARC
  5
25C
100
AcDbEntity
  8
LAY-1
  6
CONTINUOUS
 62
     3
100
AcDbCircle
 10
670.602814
 20
455.75
 30
0.0
 40
0.5
100
AcDbArc
 50
270.0
 51
329.553958
  0
ARC
  5
25D
100
AcDbEntity
  8
LAY-1
  6
CONTINUOUS
 62
     3
100
AcDbCircle
 10
677.068615
 20
455.75
 30
0.0
 40
0.5
100
AcDbArc
 50
210.446042
 51
270.0
  0
ARC
  5
25E
100
AcDbEntity
  8
LAY-1
  6
CONTINUOUS
 62
     3
100
AcDbCircle
 10
677.068615
 20
420.65
 30
0.0
 40
0.5
100
AcDbArc
 50
90.0
 51
149.553958
  0
ARC
  5
25F
100
AcDbEntity
  8
LAY-1
  6
CONTINUOUS
 62
     3
100
AcDbCircle
 10
673.835714
 20
422.550225
 30
0.0
 40
3.25
100
AcDbArc
 50
210.446042
 51
329.553958
  0
ARC
  5
260
100
AcDbEntity
  8
LAY-1
  6
CONTINUOUS
 62
     3
100
AcDbCircle
 10
670.602814
 20
420.65
 30
0.0
 40
0.5
100
AcDbArc
 50
30.446042
 51
90.0
  0
LINE
  5
261
100
AcDbEntity
  8
LAY-1
  6
CONTINUOUS
 62
     3
100
AcDbLine
 10
671.033867
 20
420.903363
 30
0.0
 11
671.033867
 21
455.496637
 31
0.0
  0
LINE
  5
262
100
AcDbEntity
  8
LAY-1
  6
CONTINUOUS
 62
     3
100
AcDbLine
 10
676.706922
 20
455.404778
 30
0.0
 11
676.706922
 21
420.903363
 31
0.0
  0
ARC
  5
263
100
AcDbEntity
  8
LAY-1
  6
CONTINUOUS
 62
     3
100
AcDbCircle
 10
673.835714
 20
453.849775
 30
0.0
 40
3.25
100
AcDbArc
 50
30.446042
 51
149.553958
  0
ARC
  5
264
100
AcDbEntity
  8
LAY-1
  6
CONTINUOUS
 62
     3
100
AcDbCircle
 10
670.602814
 20
455.75
 30
0.0
 40
0.5
100
AcDbArc
 50
270.0
 51
329.553958
  0
ARC
  5
265
100
AcDbEntity
  8
LAY-1
  6
CONTINUOUS
 62
     3
100
AcDbCircle
 10
677.068615
 20
455.75
 30
0.0
 40
0.5
100
AcDbArc
 50
210.446042
 51
270.0
  0
ARC
  5
266
100
AcDbEntity
  8
LAY-1
  6
CONTINUOUS
 62
     3
100
AcDbCircle
 10
677.068615
 20
420.65
 30
0.0
 40
0.5
100
AcDbArc
 50
90.0
 51
149.553958
  0
ARC
  5
267
100
AcDbEntity
  8
LAY-1
  6
CONTINUOUS
 62
     3
100
AcDbCircle
 10
673.835714
 20
422.550225
 30
0.0
 40
3.25
100
AcDbArc
 50
210.446042
 51
329.553958
  0
ARC
  5
268
100
AcDbEntity
  8
LAY-1
  6
CONTINUOUS
 62
     3
100
AcDbCircle
 10
670.602814
 20
420.65
 30
0.0
 40
0.5
100
AcDbArc
 50
30.446042
 51
90.0
  0
LINE
  5
269
100
AcDbEntity
  8
LAY-1
  6
CONTINUOUS
 62
     3
100
AcDbLine
 10
671.033867
 20
420.903363
 30
0.0
 11
671.033867
 21
455.496637
 31
0.0
  0
LINE
  5
26A
100
AcDbEntity
  8
LAY-1
  6
CONTINUOUS
 62
     3
100
AcDbLine
 10
676.706922
 20
455.404778
 30
0.0
 11
676.706922
 21
420.903363
 31
0.0
  0
LINE
  5
26B
100
AcDbEntity
  8
LAY-1
  6
CONTINUOUS
 62
     3
100
AcDbLine
 10
667.068615
 20
455.25
 30
0.0
 11
670.602814
 21
455.25
 31
0.0
  0
LINE
  5
26C
100
AcDbEntity
  8
LAY-1
  6
CONTINUOUS
 62
     3
100
AcDbLine
 10
677.068615
 20
455.25
 30
0.0
 11
680.335714
 21
455.25
 31
0.0
  0
LINE
  5
26D
100
AcDbEntity
  8
LAY-1
  6
CONTINUOUS
 62
     3
100
AcDbLine
 10
680.335714
 20
421.15
 30
0.0
 11
677.068615
 21
421.15
 31
0.0
  0
LINE
  5
26E
100
AcDbEntity
  8
LAY-1
  6
CONTINUOUS
 62
     3
100
AcDbLine
 10
670.602814
 20
421.15
 30
0.0
 11
667.068615
 21
421.15
 31
0.0
  0
ARC
  5
26F
100
AcDbEntity
  8
LAY-1
  6
CONTINUOUS
 62
     3
100
AcDbCircle
 10
769.545671
 20
458.0
 30
0.0
 40
0.5
100
AcDbArc
 50
270.0
 51
329.553958
  0
ARC
  5
270
100
AcDbEntity
  8
LAY-1
  6
CONTINUOUS
 62
     3
100
AcDbCircle
 10
772.778571
 20
456.099775
 30
0.0
 40
3.25
100
AcDbArc
 50
30.446042
 51
149.553958
  0
ARC
  5
271
100
AcDbEntity
  8
LAY-1
  6
CONTINUOUS
 62
     3
100
AcDbCircle
 10
776.011472
 20
458.0
 30
0.0
 40
0.5
100
AcDbArc
 50
210.446042
 51
270.0
  0
ARC
  5
272
100
AcDbEntity
  8
LAY-1
  6
CONTINUOUS
 62
     3
100
AcDbCircle
 10
776.011472
 20
418.4
 30
0.0
 40
0.5
100
AcDbArc
 50
90.0
 51
149.553958
  0
ARC
  5
273
100
AcDbEntity
  8
LAY-1
  6
CONTINUOUS
 62
     3
100
AcDbCircle
 10
772.778571
 20
420.300225
 30
0.0
 40
3.25
100
AcDbArc
 50
210.446042
 51
329.553958
  0
ARC
  5
274
100
AcDbEntity
  8
LAY-1
  6
CONTINUOUS
 62
     3
100
AcDbCircle
 10
769.545671
 20
418.4
 30
0.0
 40
0.5
100
AcDbArc
 50
30.446042
 51
90.0
  0
LINE
  5
275
100
AcDbEntity
  8
LAY-1
  6
CONTINUOUS
 62
     3
100
AcDbLine
 10
769.976725
 20
418.653363
 30
0.0
 11
769.976725
 21
457.746637
 31
0.0
  0
LINE
  5
276
100
AcDbEntity
  8
LAY-1
  6
CONTINUOUS
 62
     3
100
AcDbLine
 10
775.649779
 20
457.654778
 30
0.0
 11
775.649779
 21
418.653363
 31
0.0
  0
LINE
  5
277
100
AcDbEntity
  8
LAY-1
  6
CONTINUOUS
 62
     3
100
AcDbLine
 10
764.278571
 20
462.7
 30
0.0
 11
766.278571
 21
462.7
 31
0.0
  0
LINE
  5
278
100
AcDbEntity
  8
LAY-1
  6
CONTINUOUS
 62
     3
100
AcDbLine
 10
764.278571
 20
413.7
 30
0.0
 11
766.278571
 21
413.7
 31
0.0
  0
LINE
  5
279
100
AcDbEntity
  8
LAY-1
  6
CONTINUOUS
 62
     3
100
AcDbLine
 10
762.778571
 20
459.0
 30
0.0
 11
764.278571
 21
459.0
 31
0.0
  0
LINE
  5
27A
100
AcDbEntity
  8
LAY-1
  6
CONTINUOUS
 62
     3
100
AcDbLine
 10
762.778571
 20
417.4
 30
0.0
 11
764.278571
 21
417.4
 31
0.0
  0
LINE
  5
27B
100
AcDbEntity
  8
LAY-1
  6
CONTINUOUS
 62
     3
100
AcDbLine
 10
762.778571
 20
459.0
 30
0.0
 11
762.778571
 21
417.4
 31
0.0
  0
LINE
  5
27C
100
AcDbEntity
  8
LAY-1
  6
CONTINUOUS
 62
     3
100
AcDbLine
 10
764.278571
 20
462.7
 30
0.0
 11
764.278571
 21
413.7
 31
0.0
  0
LINE
  5
27D
100
AcDbEntity
  8
LAY-1
  6
CONTINUOUS
 62
     3
100
AcDbLine
 10
766.278571
 20
462.7
 30
0.0
 11
766.278571
 21
413.7
 31
0.0
  0
LINE
  5
27E
100
AcDbEntity
  8
LAY-1
  6
CONTINUOUS
 62
     3
100
AcDbLine
 10
769.545671
 20
418.9
 30
0.0
 11
766.278571
 21
418.9
 31
0.0
  0
LINE
  5
27F
100
AcDbEntity
  8
LAY-1
  6
CONTINUOUS
 62
     3
100
AcDbLine
 10
766.278571
 20
457.5
 30
0.0
 11
769.545671
 21
457.5
 31
0.0
  0
LINE
  5
280
100
AcDbEntity
  8
LAY-1
  6
CONTINUOUS
 62
     3
100
AcDbLine
 10
796.278571
 20
462.7
 30
0.0
 11
794.278571
 21
462.7
 31
0.0
  0
LINE
  5
281
100
AcDbEntity
  8
LAY-1
  6
CONTINUOUS
 62
     3
100
AcDbLine
 10
796.278571
 20
413.7
 30
0.0
 11
794.278571
 21
413.7
 31
0.0
  0
LINE
  5
282
100
AcDbEntity
  8
LAY-1
  6
CONTINUOUS
 62
     3
100
AcDbLine
 10
797.778571
 20
459.0
 30
0.0
 11
796.278571
 21
459.0
 31
0.0
  0
LINE
  5
283
100
AcDbEntity
  8
LAY-1
  6
CONTINUOUS
 62
     3
100
AcDbLine
 10
797.778571
 20
417.4
 30
0.0
 11
796.278571
 21
417.4
 31
0.0
  0
LINE
  5
284
100
AcDbEntity
  8
LAY-1
  6
CONTINUOUS
 62
     3
100
AcDbLine
 10
797.778571
 20
459.0
 30
0.0
 11
797.778571
 21
417.4
 31
0.0
  0
LINE
  5
285
100
AcDbEntity
  8
LAY-1
  6
CONTINUOUS
 62
     3
100
AcDbLine
 10
796.278571
 20
462.7
 30
0.0
 11
796.278571
 21
413.7
 31
0.0
  0
LINE
  5
286
100
AcDbEntity
  8
LAY-1
  6
CONTINUOUS
 62
     3
100
AcDbLine
 10
794.278571
 20
462.7
 30
0.0
 11
794.278571
 21
413.7
 31
0.0
  0
LINE
  5
287
100
AcDbEntity
  8
LAY-1
  6
EXLTYPE3
 62
     1
100
AcDbLine
 10
757.9
 20
438.2
 30
0.0
 11
802.9
 21
438.2
 31
0.0
  0
ARC
  5
288
100
AcDbEntity
  8
LAY-1
  6
CONTINUOUS
 62
     3
100
AcDbCircle
 10
784.545671
 20
458.0
 30
0.0
 40
0.5
100
AcDbArc
 50
270.0
 51
329.553958
  0
ARC
  5
289
100
AcDbEntity
  8
LAY-1
  6
CONTINUOUS
 62
     3
100
AcDbCircle
 10
787.778571
 20
456.099775
 30
0.0
 40
3.25
100
AcDbArc
 50
30.446042
 51
149.553958
  0
ARC
  5
28A
100
AcDbEntity
  8
LAY-1
  6
CONTINUOUS
 62
     3
100
AcDbCircle
 10
791.011472
 20
458.0
 30
0.0
 40
0.5
100
AcDbArc
 50
210.446042
 51
270.0
  0
ARC
  5
28B
100
AcDbEntity
  8
LAY-1
  6
CONTINUOUS
 62
     3
100
AcDbCircle
 10
791.011472
 20
418.4
 30
0.0
 40
0.5
100
AcDbArc
 50
90.0
 51
149.553958
  0
ARC
  5
28C
100
AcDbEntity
  8
LAY-1
  6
CONTINUOUS
 62
     3
100
AcDbCircle
 10
787.778571
 20
420.300225
 30
0.0
 40
3.25
100
AcDbArc
 50
210.446042
 51
329.553958
  0
ARC
  5
28D
100
AcDbEntity
  8
LAY-1
  6
CONTINUOUS
 62
     3
100
AcDbCircle
 10
784.545671
 20
418.4
 30
0.0
 40
0.5
100
AcDbArc
 50
30.446042
 51
90.0
  0
LINE
  5
28E
100
AcDbEntity
  8
LAY-1
  6
CONTINUOUS
 62
     3
100
AcDbLine
 10
784.976725
 20
418.653363
 30
0.0
 11
784.976725
 21
457.746637
 31
0.0
  0
LINE
  5
28F
100
AcDbEntity
  8
LAY-1
  6
CONTINUOUS
 62
     3
100
AcDbLine
 10
790.649779
 20
457.654778
 30
0.0
 11
790.649779
 21
418.653363
 31
0.0
  0
LINE
  5
290
100
AcDbEntity
  8
LAY-1
  6
CONTINUOUS
 62
     3
100
AcDbLine
 10
776.011472
 20
457.5
 30
0.0
 11
784.545671
 21
457.5
 31
0.0
  0
LINE
  5
291
100
AcDbEntity
  8
LAY-1
  6
CONTINUOUS
 62
     3
100
AcDbLine
 10
791.011472
 20
457.5
 30
0.0
 11
794.278571
 21
457.5
 31
0.0
  0
LINE
  5
292
100
AcDbEntity
  8
LAY-1
  6
CONTINUOUS
 62
     3
100
AcDbLine
 10
794.278571
 20
418.9
 30
0.0
 11
791.011472
 21
418.9
 31
0.0
  0
LINE
  5
293
100
AcDbEntity
  8
LAY-1
  6
CONTINUOUS
 62
     3
100
AcDbLine
 10
784.545671
 20
418.9
 30
0.0
 11
776.011472
 21
418.9
 31
0.0
  0
ARC
  5
294
100
AcDbEntity
  8
LAY-1
  6
CONTINUOUS
 62
     3
100
AcDbCircle
 10
115.888528
 20
356.95
 30
0.0
 40
0.5
100
AcDbArc
 50
270.0
 51
329.553958
  0
ARC
  5
295
100
AcDbEntity
  8
LAY-1
  6
CONTINUOUS
 62
     3
100
AcDbCircle
 10
119.121429
 20
355.049775
 30
0.0
 40
3.25
100
AcDbArc
 50
30.446042
 51
149.553958
  0
ARC
  5
296
100
AcDbEntity
  8
LAY-1
  6
CONTINUOUS
 62
     3
100
AcDbCircle
 10
122.354329
 20
356.95
 30
0.0
 40
0.5
100
AcDbArc
 50
210.446042
 51
270.0
  0
ARC
  5
297
100
AcDbEntity
  8
LAY-1
  6
CONTINUOUS
 62
     3
100
AcDbCircle
 10
122.354329
 20
309.45
 30
0.0
 40
0.5
100
AcDbArc
 50
90.0
 51
149.553958
  0
ARC
  5
298
100
AcDbEntity
  8
LAY-1
  6
CONTINUOUS
 62
     3
100
AcDbCircle
 10
119.121429
 20
311.350225
 30
0.0
 40
3.25
100
AcDbArc
 50
210.446042
 51
329.553958
  0
ARC
  5
299
100
AcDbEntity
  8
LAY-1
  6
CONTINUOUS
 62
     3
100
AcDbCircle
 10
115.888528
 20
309.45
 30
0.0
 40
0.5
100
AcDbArc
 50
30.446042
 51
90.0
  0
LINE
  5
29A
100
AcDbEntity
  8
LAY-1
  6
CONTINUOUS
 62
     3
100
AcDbLine
 10
116.319582
 20
309.703363
 30
0.0
 11
116.319582
 21
356.696637
 31
0.0
  0
LINE
  5
29B
100
AcDbEntity
  8
LAY-1
  6
CONTINUOUS
 62
     3
100
AcDbLine
 10
121.992636
 20
356.604778
 30
0.0
 11
121.992636
 21
309.703363
 31
0.0
  0
LINE
  5
29C
100
AcDbEntity
  8
LAY-1
  6
CONTINUOUS
 62
     3
100
AcDbLine
 10
127.621429
 20
361.2
 30
0.0
 11
125.621429
 21
361.2
 31
0.0
  0
LINE
  5
29D
100
AcDbEntity
  8
LAY-1
  6
CONTINUOUS
 62
     3
100
AcDbLine
 10
127.621429
 20
305.2
 30
0.0
 11
125.621429
 21
305.2
 31
0.0
  0
LINE
  5
29E
100
AcDbEntity
  8
LAY-1
  6
CONTINUOUS
 62
     3
100
AcDbLine
 10
129.121429
 20
357.45
 30
0.0
 11
127.621429
 21
357.45
 31
0.0
  0
LINE
  5
29F
100
AcDbEntity
  8
LAY-1
  6
CONTINUOUS
 62
     3
100
AcDbLine
 10
129.121429
 20
308.95
 30
0.0
 11
127.621429
 21
308.95
 31
0.0
  0
LINE
  5
2A0
100
AcDbEntity
  8
LAY-1
  6
CONTINUOUS
 62
     3
100
AcDbLine
 10
129.121429
 20
357.45
 30
0.0
 11
129.121429
 21
308.95
 31
0.0
  0
LINE
  5
2A1
100
AcDbEntity
  8
LAY-1
  6
CONTINUOUS
 62
     3
100
AcDbLine
 10
127.621429
 20
361.2
 30
0.0
 11
127.621429
 21
305.2
 31
0.0
  0
LINE
  5
2A2
100
AcDbEntity
  8
LAY-1
  6
CONTINUOUS
 62
     3
100
AcDbLine
 10
125.621429
 20
361.2
 30
0.0
 11
125.621429
 21
305.2
 31
0.0
  0
LINE
  5
2A3
100
AcDbEntity
  8
LAY-1
  6
CONTINUOUS
 62
     3
100
AcDbLine
 10
122.354329
 20
356.45
 30
0.0
 11
125.621429
 21
356.45
 31
0.0
  0
LINE
  5
2A4
100
AcDbEntity
  8
LAY-1
  6
CONTINUOUS
 62
     3
100
AcDbLine
 10
125.621429
 20
309.95
 30
0.0
 11
122.354329
 21
309.95
 31
0.0
  0
LINE
  5
2A5
100
AcDbEntity
  8
LAY-1
  6
CONTINUOUS
 62
     3
100
AcDbLine
 10
95.621429
 20
361.2
 30
0.0
 11
97.621429
 21
361.2
 31
0.0
  0
LINE
  5
2A6
100
AcDbEntity
  8
LAY-1
  6
CONTINUOUS
 62
     3
100
AcDbLine
 10
95.621429
 20
305.2
 30
0.0
 11
97.621429
 21
305.2
 31
0.0
  0
LINE
  5
2A7
100
AcDbEntity
  8
LAY-1
  6
CONTINUOUS
 62
     3
100
AcDbLine
 10
94.121429
 20
357.45
 30
0.0
 11
95.621429
 21
357.45
 31
0.0
  0
LINE
  5
2A8
100
AcDbEntity
  8
LAY-1
  6
CONTINUOUS
 62
     3
100
AcDbLine
 10
94.121429
 20
308.95
 30
0.0
 11
95.621429
 21
308.95
 31
0.0
  0
LINE
  5
2A9
100
AcDbEntity
  8
LAY-1
  6
CONTINUOUS
 62
     3
100
AcDbLine
 10
94.121429
 20
357.45
 30
0.0
 11
94.121429
 21
308.95
 31
0.0
  0
LINE
  5
2AA
100
AcDbEntity
  8
LAY-1
  6
CONTINUOUS
 62
     3
100
AcDbLine
 10
95.621429
 20
361.2
 30
0.0
 11
95.621429
 21
305.2
 31
0.0
  0
LINE
  5
2AB
100
AcDbEntity
  8
LAY-1
  6
CONTINUOUS
 62
     3
100
AcDbLine
 10
97.621429
 20
361.2
 30
0.0
 11
97.621429
 21
305.2
 31
0.0
  0
LINE
  5
2AC
100
AcDbEntity
  8
LAY-1
  6
EXLTYPE3
 62
     1
100
AcDbLine
 10
133.4
 20
333.2
 30
0.0
 11
88.4
 21
333.2
 31
0.0
  0
ARC
  5
2AD
100
AcDbEntity
  8
LAY-1
  6
CONTINUOUS
 62
     3
100
AcDbCircle
 10
100.888528
 20
356.95
 30
0.0
 40
0.5
100
AcDbArc
 50
270.0
 51
329.553958
  0
ARC
  5
2AE
100
AcDbEntity
  8
LAY-1
  6
CONTINUOUS
 62
     3
100
AcDbCircle
 10
104.121429
 20
355.049775
 30
0.0
 40
3.25
100
AcDbArc
 50
30.446042
 51
149.553958
  0
ARC
  5
2AF
100
AcDbEntity
  8
LAY-1
  6
CONTINUOUS
 62
     3
100
AcDbCircle
 10
107.354329
 20
356.95
 30
0.0
 40
0.5
100
AcDbArc
 50
210.446042
 51
270.0
  0
ARC
  5
2B0
100
AcDbEntity
  8
LAY-1
  6
CONTINUOUS
 62
     3
100
AcDbCircle
 10
107.354329
 20
309.45
 30
0.0
 40
0.5
100
AcDbArc
 50
90.0
 51
149.553958
  0
ARC
  5
2B1
100
AcDbEntity
  8
LAY-1
  6
CONTINUOUS
 62
     3
100
AcDbCircle
 10
104.121429
 20
311.350225
 30
0.0
 40
3.25
100
AcDbArc
 50
210.446042
 51
329.553958
  0
ARC
  5
2B2
100
AcDbEntity
  8
LAY-1
  6
CONTINUOUS
 62
     3
100
AcDbCircle
 10
100.888528
 20
309.45
 30
0.0
 40
0.5
100
AcDbArc
 50
30.446042
 51
90.0
  0
LINE
  5
2B3
100
AcDbEntity
  8
LAY-1
  6
CONTINUOUS
 62
     3
100
AcDbLine
 10
101.319582
 20
309.703363
 30
0.0
 11
101.319582
 21
356.696637
 31
0.0
  0
LINE
  5
2B4
100
AcDbEntity
  8
LAY-1
  6
CONTINUOUS
 62
     3
100
AcDbLine
 10
106.992636
 20
356.604778
 30
0.0
 11
106.992636
 21
309.703363
 31
0.0
  0
LINE
  5
2B5
100
AcDbEntity
  8
LAY-1
  6
CONTINUOUS
 62
     3
100
AcDbLine
 10
97.621429
 20
356.45
 30
0.0
 11
100.888528
 21
356.45
 31
0.0
  0
LINE
  5
2B6
100
AcDbEntity
  8
LAY-1
  6
CONTINUOUS
 62
     3
100
AcDbLine
 10
107.354329
 20
356.45
 30
0.0
 11
115.888528
 21
356.45
 31
0.0
  0
LINE
  5
2B7
100
AcDbEntity
  8
LAY-1
  6
CONTINUOUS
 62
     3
100
AcDbLine
 10
115.888528
 20
309.95
 30
0.0
 11
107.354329
 21
309.95
 31
0.0
  0
LINE
  5
2B8
100
AcDbEntity
  8
LAY-1
  6
CONTINUOUS
 62
     3
100
AcDbLine
 10
100.888528
 20
309.95
 30
0.0
 11
97.621429
 21
309.95
 31
0.0
  0
ARC
  5
2B9
100
AcDbEntity
  8
LAY-1
  6
CONTINUOUS
 62
     3
100
AcDbCircle
 10
227.331385
 20
359.45
 30
0.0
 40
0.5
100
AcDbArc
 50
270.0
 51
329.553958
  0
ARC
  5
2BA
100
AcDbEntity
  8
LAY-1
  6
CONTINUOUS
 62
     3
100
AcDbCircle
 10
230.564286
 20
357.549775
 30
0.0
 40
3.25
100
AcDbArc
 50
30.446042
 51
149.553958
  0
ARC
  5
2BB
100
AcDbEntity
  8
LAY-1
  6
CONTINUOUS
 62
     3
100
AcDbCircle
 10
233.797186
 20
359.45
 30
0.0
 40
0.5
100
AcDbArc
 50
210.446042
 51
270.0
  0
ARC
  5
2BC
100
AcDbEntity
  8
LAY-1
  6
CONTINUOUS
 62
     3
100
AcDbCircle
 10
233.797186
 20
306.95
 30
0.0
 40
0.5
100
AcDbArc
 50
90.0
 51
149.553958
  0
ARC
  5
2BD
100
AcDbEntity
  8
LAY-1
  6
CONTINUOUS
 62
     3
100
AcDbCircle
 10
230.564286
 20
308.850225
 30
0.0
 40
3.25
100
AcDbArc
 50
210.446042
 51
329.553958
  0
ARC
  5
2BE
100
AcDbEntity
  8
LAY-1
  6
CONTINUOUS
 62
     3
100
AcDbCircle
 10
227.331385
 20
306.95
 30
0.0
 40
0.5
100
AcDbArc
 50
30.446042
 51
90.0
  0
LINE
  5
2BF
100
AcDbEntity
  8
LAY-1
  6
CONTINUOUS
 62
     3
100
AcDbLine
 10
227.762439
 20
307.203363
 30
0.0
 11
227.762439
 21
359.196637
 31
0.0
  0
LINE
  5
2C0
100
AcDbEntity
  8
LAY-1
  6
CONTINUOUS
 62
     3
100
AcDbLine
 10
233.435493
 20
359.104778
 30
0.0
 11
233.435493
 21
307.203363
 31
0.0
  0
LINE
  5
2C1
100
AcDbEntity
  8
LAY-1
  6
CONTINUOUS
 62
     3
100
AcDbLine
 10
239.064286
 20
364.2
 30
0.0
 11
236.864286
 21
364.2
 31
0.0
  0
LINE
  5
2C2
100
AcDbEntity
  8
LAY-1
  6
CONTINUOUS
 62
     3
100
AcDbLine
 10
239.064286
 20
302.2
 30
0.0
 11
236.864286
 21
302.2
 31
0.0
  0
LINE
  5
2C3
100
AcDbEntity
  8
LAY-1
  6
CONTINUOUS
 62
     3
100
AcDbLine
 10
240.564286
 20
359.95
 30
0.0
 11
239.064286
 21
359.95
 31
0.0
  0
LINE
  5
2C4
100
AcDbEntity
  8
LAY-1
  6
CONTINUOUS
 62
     3
100
AcDbLine
 10
240.564286
 20
306.45
 30
0.0
 11
239.064286
 21
306.45
 31
0.0
  0
LINE
  5
2C5
100
AcDbEntity
  8
LAY-1
  6
CONTINUOUS
 62
     3
100
AcDbLine
 10
240.564286
 20
359.95
 30
0.0
 11
240.564286
 21
306.45
 31
0.0
  0
LINE
  5
2C6
100
AcDbEntity
  8
LAY-1
  6
CONTINUOUS
 62
     3
100
AcDbLine
 10
239.064286
 20
364.2
 30
0.0
 11
239.064286
 21
302.2
 31
0.0
  0
LINE
  5
2C7
100
AcDbEntity
  8
LAY-1
  6
CONTINUOUS
 62
     3
100
AcDbLine
 10
236.864286
 20
364.2
 30
0.0
 11
236.864286
 21
302.2
 31
0.0
  0
LINE
  5
2C8
100
AcDbEntity
  8
LAY-1
  6
CONTINUOUS
 62
     3
100
AcDbLine
 10
233.797186
 20
358.95
 30
0.0
 11
236.864286
 21
358.95
 31
0.0
  0
LINE
  5
2C9
100
AcDbEntity
  8
LAY-1
  6
CONTINUOUS
 62
     3
100
AcDbLine
 10
236.864286
 20
307.45
 30
0.0
 11
233.797186
 21
307.45
 31
0.0
  0
LINE
  5
2CA
100
AcDbEntity
  8
LAY-1
  6
CONTINUOUS
 62
     3
100
AcDbLine
 10
207.064286
 20
364.2
 30
0.0
 11
209.264286
 21
364.2
 31
0.0
  0
LINE
  5
2CB
100
AcDbEntity
  8
LAY-1
  6
CONTINUOUS
 62
     3
100
AcDbLine
 10
207.064286
 20
302.2
 30
0.0
 11
209.264286
 21
302.2
 31
0.0
  0
LINE
  5
2CC
100
AcDbEntity
  8
LAY-1
  6
CONTINUOUS
 62
     3
100
AcDbLine
 10
205.564286
 20
359.95
 30
0.0
 11
207.064286
 21
359.95
 31
0.0
  0
LINE
  5
2CD
100
AcDbEntity
  8
LAY-1
  6
CONTINUOUS
 62
     3
100
AcDbLine
 10
205.564286
 20
306.45
 30
0.0
 11
207.064286
 21
306.45
 31
0.0
  0
LINE
  5
2CE
100
AcDbEntity
  8
LAY-1
  6
CONTINUOUS
 62
     3
100
AcDbLine
 10
205.564286
 20
359.95
 30
0.0
 11
205.564286
 21
306.45
 31
0.0
  0
LINE
  5
2CF
100
AcDbEntity
  8
LAY-1
  6
CONTINUOUS
 62
     3
100
AcDbLine
 10
207.064286
 20
364.2
 30
0.0
 11
207.064286
 21
302.2
 31
0.0
  0
LINE
  5
2D0
100
AcDbEntity
  8
LAY-1
  6
CONTINUOUS
 62
     3
100
AcDbLine
 10
209.264286
 20
364.2
 30
0.0
 11
209.264286
 21
302.2
 31
0.0
  0
LINE
  5
2D1
100
AcDbEntity
  8
LAY-1
  6
EXLTYPE3
 62
     1
100
AcDbLine
 10
245.4
 20
333.2
 30
0.0
 11
200.1
 21
333.2
 31
0.0
  0
ARC
  5
2D2
100
AcDbEntity
  8
LAY-1
  6
CONTINUOUS
 62
     3
100
AcDbCircle
 10
212.331385
 20
359.45
 30
0.0
 40
0.5
100
AcDbArc
 50
270.0
 51
329.553958
  0
ARC
  5
2D3
100
AcDbEntity
  8
LAY-1
  6
CONTINUOUS
 62
     3
100
AcDbCircle
 10
215.564286
 20
357.549775
 30
0.0
 40
3.25
100
AcDbArc
 50
30.446042
 51
149.553958
  0
ARC
  5
2D4
100
AcDbEntity
  8
LAY-1
  6
CONTINUOUS
 62
     3
100
AcDbCircle
 10
218.797186
 20
359.45
 30
0.0
 40
0.5
100
AcDbArc
 50
210.446042
 51
270.0
  0
ARC
  5
2D5
100
AcDbEntity
  8
LAY-1
  6
CONTINUOUS
 62
     3
100
AcDbCircle
 10
218.797186
 20
306.95
 30
0.0
 40
0.5
100
AcDbArc
 50
90.0
 51
149.553958
  0
ARC
  5
2D6
100
AcDbEntity
  8
LAY-1
  6
CONTINUOUS
 62
     3
100
AcDbCircle
 10
215.564286
 20
308.850225
 30
0.0
 40
3.25
100
AcDbArc
 50
210.446042
 51
329.553958
  0
ARC
  5
2D7
100
AcDbEntity
  8
LAY-1
  6
CONTINUOUS
 62
     3
100
AcDbCircle
 10
212.331385
 20
306.95
 30
0.0
 40
0.5
100
AcDbArc
 50
30.446042
 51
90.0
  0
LINE
  5
2D8
100
AcDbEntity
  8
LAY-1
  6
CONTINUOUS
 62
     3
100
AcDbLine
 10
212.762439
 20
307.203363
 30
0.0
 11
212.762439
 21
359.196637
 31
0.0
  0
LINE
  5
2D9
100
AcDbEntity
  8
LAY-1
  6
CONTINUOUS
 62
     3
100
AcDbLine
 10
218.435493
 20
359.104778
 30
0.0
 11
218.435493
 21
307.203363
 31
0.0
  0
LINE
  5
2DA
100
AcDbEntity
  8
LAY-1
  6
CONTINUOUS
 62
     3
100
AcDbLine
 10
209.264286
 20
358.95
 30
0.0
 11
212.331385
 21
358.95
 31
0.0
  0
LINE
  5
2DB
100
AcDbEntity
  8
LAY-1
  6
CONTINUOUS
 62
     3
100
AcDbLine
 10
218.797186
 20
358.95
 30
0.0
 11
227.331385
 21
358.95
 31
0.0
  0
LINE
  5
2DC
100
AcDbEntity
  8
LAY-1
  6
CONTINUOUS
 62
     3
100
AcDbLine
 10
227.331385
 20
307.45
 30
0.0
 11
218.797186
 21
307.45
 31
0.0
  0
LINE
  5
2DD
100
AcDbEntity
  8
LAY-1
  6
CONTINUOUS
 62
     3
100
AcDbLine
 10
212.331385
 20
307.45
 30
0.0
 11
209.264286
 21
307.45
 31
0.0
  0
ARC
  5
2DE
100
AcDbEntity
  8
LAY-1
  6
CONTINUOUS
 62
     3
100
AcDbCircle
 10
323.774243
 20
361.95
 30
0.0
 40
0.5
100
AcDbArc
 50
270.0
 51
329.553958
  0
ARC
  5
2DF
100
AcDbEntity
  8
LAY-1
  6
CONTINUOUS
 62
     3
100
AcDbCircle
 10
327.007143
 20
360.049775
 30
0.0
 40
3.25
100
AcDbArc
 50
30.446042
 51
149.553958
  0
ARC
  5
2E0
100
AcDbEntity
  8
LAY-1
  6
CONTINUOUS
 62
     3
100
AcDbCircle
 10
330.240043
 20
361.95
 30
0.0
 40
0.5
100
AcDbArc
 50
210.446042
 51
270.0
  0
ARC
  5
2E1
100
AcDbEntity
  8
LAY-1
  6
CONTINUOUS
 62
     3
100
AcDbCircle
 10
330.240043
 20
304.45
 30
0.0
 40
0.5
100
AcDbArc
 50
90.0
 51
149.553958
  0
ARC
  5
2E2
100
AcDbEntity
  8
LAY-1
  6
CONTINUOUS
 62
     3
100
AcDbCircle
 10
327.007143
 20
306.350225
 30
0.0
 40
3.25
100
AcDbArc
 50
210.446042
 51
329.553958
  0
ARC
  5
2E3
100
AcDbEntity
  8
LAY-1
  6
CONTINUOUS
 62
     3
100
AcDbCircle
 10
323.774243
 20
304.45
 30
0.0
 40
0.5
100
AcDbArc
 50
30.446042
 51
90.0
  0
LINE
  5
2E4
100
AcDbEntity
  8
LAY-1
  6
CONTINUOUS
 62
     3
100
AcDbLine
 10
324.205296
 20
304.703363
 30
0.0
 11
324.205296
 21
361.696637
 31
0.0
  0
LINE
  5
2E5
100
AcDbEntity
  8
LAY-1
  6
CONTINUOUS
 62
     3
100
AcDbLine
 10
329.878351
 20
361.604778
 30
0.0
 11
329.878351
 21
304.703363
 31
0.0
  0
ARC
  5
2E6
100
AcDbEntity
  8
LAY-1
  6
CONTINUOUS
 62
     3
100
AcDbCircle
 10
338.774243
 20
361.95
 30
0.0
 40
0.5
100
AcDbArc
 50
270.0
 51
329.553958
  0
ARC
  5
2E7
100
AcDbEntity
  8
LAY-1
  6
CONTINUOUS
 62
     3
100
AcDbCircle
 10
342.007143
 20
360.049775
 30
0.0
 40
3.25
100
AcDbArc
 50
30.446042
 51
149.553958
  0
ARC
  5
2E8
100
AcDbEntity
  8
LAY-1
  6
CONTINUOUS
 62
     3
100
AcDbCircle
 10
345.240043
 20
361.95
 30
0.0
 40
0.5
100
AcDbArc
 50
210.446042
 51
270.0
  0
ARC
  5
2E9
100
AcDbEntity
  8
LAY-1
  6
CONTINUOUS
 62
     3
100
AcDbCircle
 10
345.240043
 20
304.45
 30
0.0
 40
0.5
100
AcDbArc
 50
90.0
 51
149.553958
  0
ARC
  5
2EA
100
AcDbEntity
  8
LAY-1
  6
CONTINUOUS
 62
     3
100
AcDbCircle
 10
342.007143
 20
306.350225
 30
0.0
 40
3.25
100
AcDbArc
 50
210.446042
 51
329.553958
  0
ARC
  5
2EB
100
AcDbEntity
  8
LAY-1
  6
CONTINUOUS
 62
     3
100
AcDbCircle
 10
338.774243
 20
304.45
 30
0.0
 40
0.5
100
AcDbArc
 50
30.446042
 51
90.0
  0
LINE
  5
2EC
100
AcDbEntity
  8
LAY-1
  6
CONTINUOUS
 62
     3
100
AcDbLine
 10
339.205296
 20
304.703363
 30
0.0
 11
339.205296
 21
361.696637
 31
0.0
  0
LINE
  5
2ED
100
AcDbEntity
  8
LAY-1
  6
CONTINUOUS
 62
     3
100
AcDbLine
 10
344.878351
 20
361.604778
 30
0.0
 11
344.878351
 21
304.703363
 31
0.0
  0
LINE
  5
2EE
100
AcDbEntity
  8
LAY-1
  6
CONTINUOUS
 62
     3
100
AcDbLine
 10
330.240043
 20
361.45
 30
0.0
 11
338.774243
 21
361.45
 31
0.0
  0
LINE
  5
2EF
100
AcDbEntity
  8
LAY-1
  6
CONTINUOUS
 62
     3
100
AcDbLine
 10
338.774243
 20
304.95
 30
0.0
 11
330.240043
 21
304.95
 31
0.0
  0
LINE
  5
2F0
100
AcDbEntity
  8
LAY-1
  6
CONTINUOUS
 62
     3
100
AcDbLine
 10
461.55
 20
372.95
 30
0.0
 11
461.55
 21
293.45
 31
0.0
  0
LINE
  5
2F1
100
AcDbEntity
  8
LAY-1
  6
CONTINUOUS
 62
     3
100
AcDbLine
 10
463.95
 20
372.95
 30
0.0
 11
463.95
 21
293.45
 31
0.0
  0
LINE
  5
2F2
100
AcDbEntity
  8
LAY-1
  6
CONTINUOUS
 62
     3
100
AcDbLine
 10
465.95
 20
367.45
 30
0.0
 11
465.95
 21
298.95
 31
0.0
  0
LINE
  5
2F3
100
AcDbEntity
  8
LAY-1
  6
CONTINUOUS
 62
     3
100
AcDbLine
 10
465.95
 20
298.95
 30
0.0
 11
463.95
 21
298.95
 31
0.0
  0
LINE
  5
2F4
100
AcDbEntity
  8
LAY-1
  6
CONTINUOUS
 62
     3
100
AcDbLine
 10
465.95
 20
367.45
 30
0.0
 11
463.95
 21
367.45
 31
0.0
  0
LINE
  5
2F5
100
AcDbEntity
  8
LAY-1
  6
CONTINUOUS
 62
     3
100
AcDbLine
 10
463.95
 20
372.95
 30
0.0
 11
461.55
 21
372.95
 31
0.0
  0
LINE
  5
2F6
100
AcDbEntity
  8
LAY-1
  6
CONTINUOUS
 62
     3
100
AcDbLine
 10
463.95
 20
293.45
 30
0.0
 11
461.55
 21
293.45
 31
0.0
  0
LINE
  5
2F7
100
AcDbEntity
  8
LAY-1
  6
CONTINUOUS
 62
     3
100
AcDbLine
 10
430.35
 20
372.95
 30
0.0
 11
430.35
 21
293.45
 31
0.0
  0
LINE
  5
2F8
100
AcDbEntity
  8
LAY-1
  6
CONTINUOUS
 62
     3
100
AcDbLine
 10
427.95
 20
372.95
 30
0.0
 11
427.95
 21
293.45
 31
0.0
  0
LINE
  5
2F9
100
AcDbEntity
  8
LAY-1
  6
CONTINUOUS
 62
     3
100
AcDbLine
 10
425.95
 20
367.45
 30
0.0
 11
425.95
 21
298.95
 31
0.0
  0
LINE
  5
2FA
100
AcDbEntity
  8
LAY-1
  6
CONTINUOUS
 62
     3
100
AcDbLine
 10
425.95
 20
298.95
 30
0.0
 11
427.95
 21
298.95
 31
0.0
  0
LINE
  5
2FB
100
AcDbEntity
  8
LAY-1
  6
CONTINUOUS
 62
     3
100
AcDbLine
 10
425.95
 20
367.45
 30
0.0
 11
427.95
 21
367.45
 31
0.0
  0
LINE
  5
2FC
100
AcDbEntity
  8
LAY-1
  6
CONTINUOUS
 62
     3
100
AcDbLine
 10
427.95
 20
372.95
 30
0.0
 11
430.35
 21
372.95
 31
0.0
  0
LINE
  5
2FD
100
AcDbEntity
  8
LAY-1
  6
CONTINUOUS
 62
     3
100
AcDbLine
 10
427.95
 20
293.45
 30
0.0
 11
430.35
 21
293.45
 31
0.0
  0
ARC
  5
2FE
100
AcDbEntity
  8
LAY-1
  6
CONTINUOUS
 62
     3
100
AcDbCircle
 10
450.2171
 20
366.2
 30
0.0
 40
0.5
100
AcDbArc
 50
270.0
 51
329.553958
  0
ARC
  5
2FF
100
AcDbEntity
  8
LAY-1
  6
CONTINUOUS
 62
     3
100
AcDbCircle
 10
453.45
 20
364.299775
 30
0.0
 40
3.25
100
AcDbArc
 50
30.446042
 51
149.553958
  0
ARC
  5
300
100
AcDbEntity
  8
LAY-1
  6
CONTINUOUS
 62
     3
100
AcDbCircle
 10
456.6829
 20
366.2
 30
0.0
 40
0.5
100
AcDbArc
 50
210.446042
 51
270.0
  0
ARC
  5
301
100
AcDbEntity
  8
LAY-1
  6
CONTINUOUS
 62
     3
100
AcDbCircle
 10
456.6829
 20
300.2
 30
0.0
 40
0.5
100
AcDbArc
 50
90.0
 51
149.553958
  0
ARC
  5
302
100
AcDbEntity
  8
LAY-1
  6
CONTINUOUS
 62
     3
100
AcDbCircle
 10
453.45
 20
302.100225
 30
0.0
 40
3.25
100
AcDbArc
 50
210.446042
 51
329.553958
  0
ARC
  5
303
100
AcDbEntity
  8
LAY-1
  6
CONTINUOUS
 62
     3
100
AcDbCircle
 10
450.2171
 20
300.2
 30
0.0
 40
0.5
100
AcDbArc
 50
30.446042
 51
90.0
  0
LINE
  5
304
100
AcDbEntity
  8
LAY-1
  6
CONTINUOUS
 62
     3
100
AcDbLine
 10
450.517318
 20
300.599836
 30
0.0
 11
450.517318
 21
365.800164
 31
0.0
  0
LINE
  5
305
100
AcDbEntity
  8
LAY-1
  6
CONTINUOUS
 62
     3
100
AcDbLine
 10
456.251847
 20
365.946637
 30
0.0
 11
456.251847
 21
300.453363
 31
0.0
  0
LINE
  5
306
100
AcDbEntity
  8
LAY-1
  6
CONTINUOUS
 62
     3
100
AcDbLine
 10
456.6829
 20
365.7
 30
0.0
 11
461.55
 21
365.7
 31
0.0
  0
LINE
  5
307
100
AcDbEntity
  8
LAY-1
  6
CONTINUOUS
 62
     3
100
AcDbLine
 10
461.55
 20
300.7
 30
0.0
 11
456.6829
 21
300.7
 31
0.0
  0
LINE
  5
308
100
AcDbEntity
  8
LAY-1
  6
EXLTYPE3
 62
     1
100
AcDbLine
 10
471.6
 20
333.2
 30
0.0
 11
420.9
 21
333.2
 31
0.0
  0
ARC
  5
309
100
AcDbEntity
  8
LAY-1
  6
CONTINUOUS
 62
     3
100
AcDbCircle
 10
435.2171
 20
366.2
 30
0.0
 40
0.5
100
AcDbArc
 50
270.0
 51
329.553958
  0
ARC
  5
30A
100
AcDbEntity
  8
LAY-1
  6
CONTINUOUS
 62
     3
100
AcDbCircle
 10
438.45
 20
364.299775
 30
0.0
 40
3.25
100
AcDbArc
 50
30.446042
 51
149.553958
  0
ARC
  5
30B
100
AcDbEntity
  8
LAY-1
  6
CONTINUOUS
 62
     3
100
AcDbCircle
 10
441.6829
 20
366.2
 30
0.0
 40
0.5
100
AcDbArc
 50
210.446042
 51
270.0
  0
ARC
  5
30C
100
AcDbEntity
  8
LAY-1
  6
CONTINUOUS
 62
     3
100
AcDbCircle
 10
441.6829
 20
300.2
 30
0.0
 40
0.5
100
AcDbArc
 50
90.0
 51
149.553958
  0
ARC
  5
30D
100
AcDbEntity
  8
LAY-1
  6
CONTINUOUS
 62
     3
100
AcDbCircle
 10
438.45
 20
302.100225
 30
0.0
 40
3.25
100
AcDbArc
 50
210.446042
 51
329.553958
  0
ARC
  5
30E
100
AcDbEntity
  8
LAY-1
  6
CONTINUOUS
 62
     3
100
AcDbCircle
 10
435.2171
 20
300.2
 30
0.0
 40
0.5
100
AcDbArc
 50
30.446042
 51
90.0
  0
LINE
  5
30F
100
AcDbEntity
  8
LAY-1
  6
CONTINUOUS
 62
     3
100
AcDbLine
 10
435.517318
 20
300.599836
 30
0.0
 11
435.517318
 21
365.800164
 31
0.0
  0
LINE
  5
310
100
AcDbEntity
  8
LAY-1
  6
CONTINUOUS
 62
     3
100
AcDbLine
 10
441.251847
 20
365.946637
 30
0.0
 11
441.251847
 21
300.453363
 31
0.0
  0
LINE
  5
311
100
AcDbEntity
  8
LAY-1
  6
CONTINUOUS
 62
     3
100
AcDbLine
 10
430.35
 20
365.7
 30
0.0
 11
435.2171
 21
365.7
 31
0.0
  0
LINE
  5
312
100
AcDbEntity
  8
LAY-1
  6
CONTINUOUS
 62
     3
100
AcDbLine
 10
441.6829
 20
365.7
 30
0.0
 11
450.2171
 21
365.7
 31
0.0
  0
LINE
  5
313
100
AcDbEntity
  8
LAY-1
  6
CONTINUOUS
 62
     3
100
AcDbLine
 10
450.2171
 20
300.7
 30
0.0
 11
441.6829
 21
300.7
 31
0.0
  0
LINE
  5
314
100
AcDbEntity
  8
LAY-1
  6
CONTINUOUS
 62
     3
100
AcDbLine
 10
435.2171
 20
300.7
 30
0.0
 11
430.35
 21
300.7
 31
0.0
  0
LINE
  5
315
100
AcDbEntity
  8
LAY-1
  6
CONTINUOUS
 62
     3
100
AcDbLine
 10
318.507143
 20
366.95
 30
0.0
 11
320.707143
 21
366.95
 31
0.0
  0
LINE
  5
316
100
AcDbEntity
  8
LAY-1
  6
CONTINUOUS
 62
     3
100
AcDbLine
 10
318.507143
 20
299.45
 30
0.0
 11
320.707143
 21
299.45
 31
0.0
  0
LINE
  5
317
100
AcDbEntity
  8
LAY-1
  6
CONTINUOUS
 62
     3
100
AcDbLine
 10
317.007143
 20
362.45
 30
0.0
 11
318.507143
 21
362.45
 31
0.0
  0
LINE
  5
318
100
AcDbEntity
  8
LAY-1
  6
CONTINUOUS
 62
     3
100
AcDbLine
 10
317.007143
 20
303.95
 30
0.0
 11
318.507143
 21
303.95
 31
0.0
  0
LINE
  5
319
100
AcDbEntity
  8
LAY-1
  6
CONTINUOUS
 62
     3
100
AcDbLine
 10
317.007143
 20
362.45
 30
0.0
 11
317.007143
 21
303.95
 31
0.0
  0
LINE
  5
31A
100
AcDbEntity
  8
LAY-1
  6
CONTINUOUS
 62
     3
100
AcDbLine
 10
318.507143
 20
366.95
 30
0.0
 11
318.507143
 21
299.45
 31
0.0
  0
LINE
  5
31B
100
AcDbEntity
  8
LAY-1
  6
CONTINUOUS
 62
     3
100
AcDbLine
 10
320.707143
 20
366.95
 30
0.0
 11
320.707143
 21
299.45
 31
0.0
  0
LINE
  5
31C
100
AcDbEntity
  8
LAY-1
  6
CONTINUOUS
 62
     3
100
AcDbLine
 10
323.774243
 20
304.95
 30
0.0
 11
320.707143
 21
304.95
 31
0.0
  0
LINE
  5
31D
100
AcDbEntity
  8
LAY-1
  6
CONTINUOUS
 62
     3
100
AcDbLine
 10
320.707143
 20
361.45
 30
0.0
 11
323.774243
 21
361.45
 31
0.0
  0
LINE
  5
31E
100
AcDbEntity
  8
LAY-1
  6
CONTINUOUS
 62
     3
100
AcDbLine
 10
350.507143
 20
366.95
 30
0.0
 11
348.307143
 21
366.95
 31
0.0
  0
LINE
  5
31F
100
AcDbEntity
  8
LAY-1
  6
CONTINUOUS
 62
     3
100
AcDbLine
 10
350.507143
 20
299.45
 30
0.0
 11
348.307143
 21
299.45
 31
0.0
  0
LINE
  5
320
100
AcDbEntity
  8
LAY-1
  6
CONTINUOUS
 62
     3
100
AcDbLine
 10
352.007143
 20
362.45
 30
0.0
 11
350.507143
 21
362.45
 31
0.0
  0
LINE
  5
321
100
AcDbEntity
  8
LAY-1
  6
CONTINUOUS
 62
     3
100
AcDbLine
 10
352.007143
 20
303.95
 30
0.0
 11
350.507143
 21
303.95
 31
0.0
  0
LINE
  5
322
100
AcDbEntity
  8
LAY-1
  6
CONTINUOUS
 62
     3
100
AcDbLine
 10
352.007143
 20
362.45
 30
0.0
 11
352.007143
 21
303.95
 31
0.0
  0
LINE
  5
323
100
AcDbEntity
  8
LAY-1
  6
CONTINUOUS
 62
     3
100
AcDbLine
 10
350.507143
 20
366.95
 30
0.0
 11
350.507143
 21
299.45
 31
0.0
  0
LINE
  5
324
100
AcDbEntity
  8
LAY-1
  6
CONTINUOUS
 62
     3
100
AcDbLine
 10
348.307143
 20
366.95
 30
0.0
 11
348.307143
 21
299.45
 31
0.0
  0
LINE
  5
325
100
AcDbEntity
  8
LAY-1
  6
CONTINUOUS
 62
     3
100
AcDbLine
 10
348.307143
 20
304.95
 30
0.0
 11
345.240043
 21
304.95
 31
0.0
  0
LINE
  5
326
100
AcDbEntity
  8
LAY-1
  6
CONTINUOUS
 62
     3
100
AcDbLine
 10
345.240043
 20
361.45
 30
0.0
 11
348.307143
 21
361.45
 31
0.0
  0
LINE
  5
327
100
AcDbEntity
  8
LAY-1
  6
EXLTYPE3
 62
     1
100
AcDbLine
 10
356.6
 20
333.2
 30
0.0
 11
312.8
 21
333.2
 31
0.0
  0
LINE
  5
328
100
AcDbEntity
  8
LAY-1
  6
CONTINUOUS
 62
     3
100
AcDbLine
 10
539.392857
 20
287.95
 30
0.0
 11
541.792857
 21
287.95
 31
0.0
  0
LINE
  5
329
100
AcDbEntity
  8
LAY-1
  6
CONTINUOUS
 62
     3
100
AcDbLine
 10
539.392857
 20
378.45
 30
0.0
 11
541.792857
 21
378.45
 31
0.0
  0
ARC
  5
32A
100
AcDbEntity
  8
LAY-1
  6
CONTINUOUS
 62
     3
100
AcDbCircle
 10
554.05278
 20
372.15
 30
0.0
 40
0.7
100
AcDbArc
 50
223.129446
 51
270.0
  0
ARC
  5
32B
100
AcDbEntity
  8
LAY-1
  6
CONTINUOUS
 62
     3
100
AcDbCircle
 10
549.892857
 20
368.253201
 30
0.0
 40
5.0
100
AcDbArc
 50
43.129446
 51
136.870554
  0
ARC
  5
32C
100
AcDbEntity
  8
LAY-1
  6
CONTINUOUS
 62
     3
100
AcDbCircle
 10
545.732934
 20
372.15
 30
0.0
 40
0.7
100
AcDbArc
 50
270.0
 51
316.870554
  0
LINE
  5
32D
100
AcDbEntity
  8
LAY-1
  6
CONTINUOUS
 62
     3
100
AcDbLine
 10
537.392857
 20
372.45
 30
0.0
 11
539.392857
 21
372.45
 31
0.0
  0
LINE
  5
32E
100
AcDbEntity
  8
LAY-1
  6
CONTINUOUS
 62
     3
100
AcDbLine
 10
541.792857
 20
371.45
 30
0.0
 11
545.732934
 21
371.45
 31
0.0
  0
ARC
  5
32F
100
AcDbEntity
  8
LAY-1
  6
CONTINUOUS
 62
     3
100
AcDbCircle
 10
545.732934
 20
294.25
 30
0.0
 40
0.7
100
AcDbArc
 50
43.129446
 51
90.0
  0
ARC
  5
330
100
AcDbEntity
  8
LAY-1
  6
CONTINUOUS
 62
     3
100
AcDbCircle
 10
549.892857
 20
298.146799
 30
0.0
 40
5.0
100
AcDbArc
 50
223.129446
 51
316.870554
  0
ARC
  5
331
100
AcDbEntity
  8
LAY-1
  6
CONTINUOUS
 62
     3
100
AcDbCircle
 10
554.05278
 20
294.25
 30
0.0
 40
0.7
100
AcDbArc
 50
90.0
 51
136.870554
  0
LINE
  5
332
100
AcDbEntity
  8
LAY-1
  6
CONTINUOUS
 62
     3
100
AcDbLine
 10
537.392857
 20
293.95
 30
0.0
 11
539.392857
 21
293.95
 31
0.0
  0
LINE
  5
333
100
AcDbEntity
  8
LAY-1
  6
CONTINUOUS
 62
     3
100
AcDbLine
 10
545.732934
 20
294.95
 30
0.0
 11
541.792857
 21
294.95
 31
0.0
  0
LINE
  5
334
100
AcDbEntity
  8
LAY-1
  6
CONTINUOUS
 62
     3
100
AcDbLine
 10
537.392857
 20
372.45
 30
0.0
 11
537.392857
 21
293.95
 31
0.0
  0
LINE
  5
335
100
AcDbEntity
  8
LAY-1
  6
CONTINUOUS
 62
     3
100
AcDbLine
 10
553.541912
 20
294.728554
 30
0.0
 11
553.541912
 21
371.671446
 31
0.0
  0
LINE
  5
336
100
AcDbEntity
  8
LAY-1
  6
CONTINUOUS
 62
     3
100
AcDbLine
 10
546.243802
 20
371.671446
 30
0.0
 11
546.243802
 21
294.728554
 31
0.0
  0
LINE
  5
337
100
AcDbEntity
  8
LAY-1
  6
CONTINUOUS
 62
     3
100
AcDbLine
 10
539.392857
 20
378.45
 30
0.0
 11
539.392857
 21
287.95
 31
0.0
  0
LINE
  5
338
100
AcDbEntity
  8
LAY-1
  6
CONTINUOUS
 62
     3
100
AcDbLine
 10
541.792857
 20
378.45
 30
0.0
 11
541.792857
 21
287.95
 31
0.0
  0
LINE
  5
339
100
AcDbEntity
  8
LAY-1
  6
CONTINUOUS
 62
     3
100
AcDbLine
 10
572.992857
 20
287.95
 30
0.0
 11
575.392857
 21
287.95
 31
0.0
  0
LINE
  5
33A
100
AcDbEntity
  8
LAY-1
  6
CONTINUOUS
 62
     3
100
AcDbLine
 10
575.392857
 20
378.45
 30
0.0
 11
572.992857
 21
378.45
 31
0.0
  0
LINE
  5
33B
100
AcDbEntity
  8
LAY-1
  6
CONTINUOUS
 62
     3
100
AcDbLine
 10
575.392857
 20
372.45
 30
0.0
 11
577.392857
 21
372.45
 31
0.0
  0
LINE
  5
33C
100
AcDbEntity
  8
LAY-1
  6
CONTINUOUS
 62
     3
100
AcDbLine
 10
575.392857
 20
293.95
 30
0.0
 11
577.392857
 21
293.95
 31
0.0
  0
LINE
  5
33D
100
AcDbEntity
  8
LAY-1
  6
CONTINUOUS
 62
     3
100
AcDbLine
 10
577.392857
 20
372.45
 30
0.0
 11
577.392857
 21
293.95
 31
0.0
  0
LINE
  5
33E
100
AcDbEntity
  8
LAY-1
  6
CONTINUOUS
 62
     3
100
AcDbLine
 10
575.392857
 20
378.45
 30
0.0
 11
575.392857
 21
287.95
 31
0.0
  0
LINE
  5
33F
100
AcDbEntity
  8
LAY-1
  6
CONTINUOUS
 62
     3
100
AcDbLine
 10
572.992857
 20
378.45
 30
0.0
 11
572.992857
 21
287.95
 31
0.0
  0
LINE
  5
340
100
AcDbEntity
  8
LAY-1
  6
EXLTYPE3
 62
     1
100
AcDbLine
 10
533.813341
 20
333.2
 30
0.0
 11
580.913341
 21
333.2
 31
0.0
  0
ARC
  5
341
100
AcDbEntity
  8
LAY-1
  6
CONTINUOUS
 62
     3
100
AcDbCircle
 10
569.05278
 20
372.15
 30
0.0
 40
0.7
100
AcDbArc
 50
223.129446
 51
270.0
  0
ARC
  5
342
100
AcDbEntity
  8
LAY-1
  6
CONTINUOUS
 62
     3
100
AcDbCircle
 10
564.892857
 20
368.253201
 30
0.0
 40
5.0
100
AcDbArc
 50
43.129446
 51
136.870554
  0
ARC
  5
343
100
AcDbEntity
  8
LAY-1
  6
CONTINUOUS
 62
     3
100
AcDbCircle
 10
560.732934
 20
372.15
 30
0.0
 40
0.7
100
AcDbArc
 50
270.0
 51
316.870554
  0
ARC
  5
344
100
AcDbEntity
  8
LAY-1
  6
CONTINUOUS
 62
     3
100
AcDbCircle
 10
560.732934
 20
294.25
 30
0.0
 40
0.7
100
AcDbArc
 50
43.129446
 51
90.0
  0
ARC
  5
345
100
AcDbEntity
  8
LAY-1
  6
CONTINUOUS
 62
     3
100
AcDbCircle
 10
564.892857
 20
298.146799
 30
0.0
 40
5.0
100
AcDbArc
 50
223.129446
 51
316.870554
  0
ARC
  5
346
100
AcDbEntity
  8
LAY-1
  6
CONTINUOUS
 62
     3
100
AcDbCircle
 10
569.05278
 20
294.25
 30
0.0
 40
0.7
100
AcDbArc
 50
90.0
 51
136.870554
  0
LINE
  5
347
100
AcDbEntity
  8
LAY-1
  6
CONTINUOUS
 62
     3
100
AcDbLine
 10
568.541912
 20
294.728554
 30
0.0
 11
568.541912
 21
371.671446
 31
0.0
  0
LINE
  5
348
100
AcDbEntity
  8
LAY-1
  6
CONTINUOUS
 62
     3
100
AcDbLine
 10
561.243802
 20
371.671446
 30
0.0
 11
561.243802
 21
294.728554
 31
0.0
  0
LINE
  5
349
100
AcDbEntity
  8
LAY-1
  6
CONTINUOUS
 62
     3
100
AcDbLine
 10
554.05278
 20
371.45
 30
0.0
 11
560.732934
 21
371.45
 31
0.0
  0
LINE
  5
34A
100
AcDbEntity
  8
LAY-1
  6
CONTINUOUS
 62
     3
100
AcDbLine
 10
569.05278
 20
371.45
 30
0.0
 11
572.992857
 21
371.45
 31
0.0
  0
LINE
  5
34B
100
AcDbEntity
  8
LAY-1
  6
CONTINUOUS
 62
     3
100
AcDbLine
 10
572.992857
 20
294.95
 30
0.0
 11
569.05278
 21
294.95
 31
0.0
  0
LINE
  5
34C
100
AcDbEntity
  8
LAY-1
  6
CONTINUOUS
 62
     3
100
AcDbLine
 10
560.732934
 20
294.95
 30
0.0
 11
554.05278
 21
294.95
 31
0.0
  0
ARC
  5
34D
100
AcDbEntity
  8
LAY-1
  6
CONTINUOUS
 62
     3
100
AcDbCircle
 10
661.335714
 20
373.909388
 30
0.0
 40
4.593813
100
AcDbArc
 50
41.252282
 51
138.747718
  0
ARC
  5
34E
100
AcDbEntity
  8
LAY-1
  6
CONTINUOUS
 62
     3
100
AcDbCircle
 10
657.355754
 20
377.4
 30
0.0
 40
0.7
100
AcDbArc
 50
270.0
 51
318.747718
  0
ARC
  5
34F
100
AcDbEntity
  8
LAY-1
  6
CONTINUOUS
 62
     3
100
AcDbCircle
 10
665.315675
 20
377.4
 30
0.0
 40
0.7
100
AcDbArc
 50
221.252282
 51
270.0
  0
ARC
  5
350
100
AcDbEntity
  8
LAY-1
  6
CONTINUOUS
 62
     3
100
AcDbCircle
 10
665.315675
 20
289.0
 30
0.0
 40
0.7
100
AcDbArc
 50
90.0
 51
138.747718
  0
ARC
  5
351
100
AcDbEntity
  8
LAY-1
  6
CONTINUOUS
 62
     3
100
AcDbCircle
 10
661.335714
 20
292.490612
 30
0.0
 40
4.593813
100
AcDbArc
 50
221.252282
 51
318.747718
  0
ARC
  5
352
100
AcDbEntity
  8
LAY-1
  6
CONTINUOUS
 62
     3
100
AcDbCircle
 10
657.355754
 20
289.0
 30
0.0
 40
0.7
100
AcDbArc
 50
41.252282
 51
90.0
  0
LINE
  5
353
100
AcDbEntity
  8
LAY-1
  6
CONTINUOUS
 62
     3
100
AcDbLine
 10
657.882023
 20
376.938437
 30
0.0
 11
657.882023
 21
289.461563
 31
0.0
  0
LINE
  5
354
100
AcDbEntity
  8
LAY-1
  6
CONTINUOUS
 62
     3
100
AcDbLine
 10
664.789405
 20
376.938437
 30
0.0
 11
664.789405
 21
289.461563
 31
0.0
  0
ARC
  5
355
100
AcDbEntity
  8
LAY-1
  6
CONTINUOUS
 62
     3
100
AcDbCircle
 10
676.335714
 20
373.909388
 30
0.0
 40
4.593813
100
AcDbArc
 50
41.252282
 51
138.747718
  0
ARC
  5
356
100
AcDbEntity
  8
LAY-1
  6
CONTINUOUS
 62
     3
100
AcDbCircle
 10
672.355754
 20
377.4
 30
0.0
 40
0.7
100
AcDbArc
 50
270.0
 51
318.747718
  0
ARC
  5
357
100
AcDbEntity
  8
LAY-1
  6
CONTINUOUS
 62
     3
100
AcDbCircle
 10
680.315675
 20
377.4
 30
0.0
 40
0.7
100
AcDbArc
 50
221.252282
 51
270.0
  0
ARC
  5
358
100
AcDbEntity
  8
LAY-1
  6
CONTINUOUS
 62
     3
100
AcDbCircle
 10
680.315675
 20
289.0
 30
0.0
 40
0.7
100
AcDbArc
 50
90.0
 51
138.747718
  0
ARC
  5
359
100
AcDbEntity
  8
LAY-1
  6
CONTINUOUS
 62
     3
100
AcDbCircle
 10
676.335714
 20
292.490612
 30
0.0
 40
4.593813
100
AcDbArc
 50
221.252282
 51
318.747718
  0
ARC
  5
35A
100
AcDbEntity
  8
LAY-1
  6
CONTINUOUS
 62
     3
100
AcDbCircle
 10
672.355754
 20
289.0
 30
0.0
 40
0.7
100
AcDbArc
 50
41.252282
 51
90.0
  0
LINE
  5
35B
100
AcDbEntity
  8
LAY-1
  6
CONTINUOUS
 62
     3
100
AcDbLine
 10
672.882023
 20
376.938437
 30
0.0
 11
672.882023
 21
289.461563
 31
0.0
  0
LINE
  5
35C
100
AcDbEntity
  8
LAY-1
  6
CONTINUOUS
 62
     3
100
AcDbLine
 10
679.789405
 20
376.938437
 30
0.0
 11
679.789405
 21
289.461563
 31
0.0
  0
LINE
  5
35D
100
AcDbEntity
  8
LAY-1
  6
CONTINUOUS
 62
     3
100
AcDbLine
 10
665.315675
 20
376.7
 30
0.0
 11
672.355754
 21
376.7
 31
0.0
  0
LINE
  5
35E
100
AcDbEntity
  8
LAY-1
  6
CONTINUOUS
 62
     3
100
AcDbLine
 10
672.355754
 20
289.7
 30
0.0
 11
665.315675
 21
289.7
 31
0.0
  0
LINE
  5
35F
100
AcDbEntity
  8
LAY-1
  6
CONTINUOUS
 62
     3
100
AcDbLine
 10
650.835714
 20
384.2
 30
0.0
 11
653.435714
 21
384.2
 31
0.0
  0
LINE
  5
360
100
AcDbEntity
  8
LAY-1
  6
CONTINUOUS
 62
     3
100
AcDbLine
 10
650.835714
 20
282.2
 30
0.0
 11
653.435714
 21
282.2
 31
0.0
  0
LINE
  5
361
100
AcDbEntity
  8
LAY-1
  6
CONTINUOUS
 62
     3
100
AcDbLine
 10
648.835714
 20
377.7
 30
0.0
 11
650.835714
 21
377.7
 31
0.0
  0
LINE
  5
362
100
AcDbEntity
  8
LAY-1
  6
CONTINUOUS
 62
     3
100
AcDbLine
 10
653.435714
 20
376.7
 30
0.0
 11
657.355754
 21
376.7
 31
0.0
  0
LINE
  5
363
100
AcDbEntity
  8
LAY-1
  6
CONTINUOUS
 62
     3
100
AcDbLine
 10
648.835714
 20
288.7
 30
0.0
 11
650.835714
 21
288.7
 31
0.0
  0
LINE
  5
364
100
AcDbEntity
  8
LAY-1
  6
CONTINUOUS
 62
     3
100
AcDbLine
 10
657.355754
 20
289.7
 30
0.0
 11
653.435714
 21
289.7
 31
0.0
  0
LINE
  5
365
100
AcDbEntity
  8
LAY-1
  6
CONTINUOUS
 62
     3
100
AcDbLine
 10
648.835714
 20
377.7
 30
0.0
 11
648.835714
 21
288.7
 31
0.0
  0
LINE
  5
366
100
AcDbEntity
  8
LAY-1
  6
CONTINUOUS
 62
     3
100
AcDbLine
 10
650.835714
 20
384.2
 30
0.0
 11
650.835714
 21
282.2
 31
0.0
  0
LINE
  5
367
100
AcDbEntity
  8
LAY-1
  6
CONTINUOUS
 62
     3
100
AcDbLine
 10
653.435714
 20
384.2
 30
0.0
 11
653.435714
 21
282.2
 31
0.0
  0
LINE
  5
368
100
AcDbEntity
  8
LAY-1
  6
CONTINUOUS
 62
     3
100
AcDbLine
 10
686.835714
 20
384.2
 30
0.0
 11
684.235714
 21
384.2
 31
0.0
  0
LINE
  5
369
100
AcDbEntity
  8
LAY-1
  6
CONTINUOUS
 62
     3
100
AcDbLine
 10
684.235714
 20
282.2
 30
0.0
 11
686.835714
 21
282.2
 31
0.0
  0
LINE
  5
36A
100
AcDbEntity
  8
LAY-1
  6
CONTINUOUS
 62
     3
100
AcDbLine
 10
686.835714
 20
377.7
 30
0.0
 11
688.835714
 21
377.7
 31
0.0
  0
LINE
  5
36B
100
AcDbEntity
  8
LAY-1
  6
CONTINUOUS
 62
     3
100
AcDbLine
 10
686.835714
 20
288.7
 30
0.0
 11
688.835714
 21
288.7
 31
0.0
  0
LINE
  5
36C
100
AcDbEntity
  8
LAY-1
  6
CONTINUOUS
 62
     3
100
AcDbLine
 10
688.835714
 20
377.7
 30
0.0
 11
688.835714
 21
288.7
 31
0.0
  0
LINE
  5
36D
100
AcDbEntity
  8
LAY-1
  6
CONTINUOUS
 62
     3
100
AcDbLine
 10
686.835714
 20
384.2
 30
0.0
 11
686.835714
 21
282.2
 31
0.0
  0
LINE
  5
36E
100
AcDbEntity
  8
LAY-1
  6
CONTINUOUS
 62
     3
100
AcDbLine
 10
684.235714
 20
384.2
 30
0.0
 11
684.235714
 21
282.2
 31
0.0
  0
LINE
  5
36F
100
AcDbEntity
  8
LAY-1
  6
CONTINUOUS
 62
     3
100
AcDbLine
 10
680.315675
 20
376.7
 30
0.0
 11
684.235714
 21
376.7
 31
0.0
  0
LINE
  5
370
100
AcDbEntity
  8
LAY-1
  6
CONTINUOUS
 62
     3
100
AcDbLine
 10
684.235714
 20
289.7
 30
0.0
 11
680.315675
 21
289.7
 31
0.0
  0
LINE
  5
371
100
AcDbEntity
  8
LAY-1
  6
EXLTYPE3
 62
     1
100
AcDbLine
 10
645.54418
 20
333.2
 30
0.0
 11
692.64418
 21
333.2
 31
0.0
  0
LINE
  5
372
100
AcDbEntity
  8
LAY-1
  6
CONTINUOUS
 62
     3
100
AcDbLine
 10
798.078571
 20
389.2
 30
0.0
 11
795.478571
 21
389.2
 31
0.0
  0
LINE
  5
373
100
AcDbEntity
  8
LAY-1
  6
CONTINUOUS
 62
     3
100
AcDbLine
 10
795.478571
 20
277.2
 30
0.0
 11
798.078571
 21
277.2
 31
0.0
  0
LINE
  5
374
100
AcDbEntity
  8
LAY-1
  6
CONTINUOUS
 62
     3
100
AcDbLine
 10
798.078571
 20
382.7
 30
0.0
 11
800.278571
 21
382.7
 31
0.0
  0
LINE
  5
375
100
AcDbEntity
  8
LAY-1
  6
CONTINUOUS
 62
     3
100
AcDbLine
 10
798.078571
 20
283.7
 30
0.0
 11
800.278571
 21
283.7
 31
0.0
  0
LINE
  5
376
100
AcDbEntity
  8
LAY-1
  6
CONTINUOUS
 62
     3
100
AcDbLine
 10
800.278571
 20
382.7
 30
0.0
 11
800.278571
 21
283.7
 31
0.0
  0
LINE
  5
377
100
AcDbEntity
  8
LAY-1
  6
CONTINUOUS
 62
     3
100
AcDbLine
 10
798.078571
 20
389.2
 30
0.0
 11
798.078571
 21
277.2
 31
0.0
  0
LINE
  5
378
100
AcDbEntity
  8
LAY-1
  6
CONTINUOUS
 62
     3
100
AcDbLine
 10
795.478571
 20
389.2
 30
0.0
 11
795.478571
 21
277.2
 31
0.0
  0
LINE
  5
379
100
AcDbEntity
  8
LAY-1
  6
CONTINUOUS
 62
     3
100
AcDbLine
 10
762.478571
 20
389.2
 30
0.0
 11
765.078571
 21
389.2
 31
0.0
  0
LINE
  5
37A
100
AcDbEntity
  8
LAY-1
  6
CONTINUOUS
 62
     3
100
AcDbLine
 10
762.478571
 20
277.2
 30
0.0
 11
765.078571
 21
277.2
 31
0.0
  0
LINE
  5
37B
100
AcDbEntity
  8
LAY-1
  6
CONTINUOUS
 62
     3
100
AcDbLine
 10
760.278571
 20
382.7
 30
0.0
 11
762.478571
 21
382.7
 31
0.0
  0
LINE
  5
37C
100
AcDbEntity
  8
LAY-1
  6
CONTINUOUS
 62
     3
100
AcDbLine
 10
760.278571
 20
283.7
 30
0.0
 11
762.478571
 21
283.7
 31
0.0
  0
LINE
  5
37D
100
AcDbEntity
  8
LAY-1
  6
CONTINUOUS
 62
     3
100
AcDbLine
 10
760.278571
 20
382.7
 30
0.0
 11
760.278571
 21
283.7
 31
0.0
  0
LINE
  5
37E
100
AcDbEntity
  8
LAY-1
  6
CONTINUOUS
 62
     3
100
AcDbLine
 10
762.478571
 20
389.2
 30
0.0
 11
762.478571
 21
277.2
 31
0.0
  0
LINE
  5
37F
100
AcDbEntity
  8
LAY-1
  6
CONTINUOUS
 62
     3
100
AcDbLine
 10
765.078571
 20
389.2
 30
0.0
 11
765.078571
 21
277.2
 31
0.0
  0
ARC
  5
380
100
AcDbEntity
  8
LAY-1
  6
CONTINUOUS
 62
     3
100
AcDbCircle
 10
768.798611
 20
382.4
 30
0.0
 40
0.7
100
AcDbArc
 50
270.0
 51
318.747718
  0
ARC
  5
381
100
AcDbEntity
  8
LAY-1
  6
CONTINUOUS
 62
     3
100
AcDbCircle
 10
772.778571
 20
378.909388
 30
0.0
 40
4.593813
100
AcDbArc
 50
41.252282
 51
138.747718
  0
ARC
  5
382
100
AcDbEntity
  8
LAY-1
  6
CONTINUOUS
 62
     3
100
AcDbCircle
 10
776.758532
 20
382.4
 30
0.0
 40
0.7
100
AcDbArc
 50
221.252282
 51
270.0
  0
LINE
  5
383
100
AcDbEntity
  8
LAY-1
  6
CONTINUOUS
 62
     3
100
AcDbLine
 10
765.078571
 20
381.7
 30
0.0
 11
768.798611
 21
381.7
 31
0.0
  0
ARC
  5
384
100
AcDbEntity
  8
LAY-1
  6
CONTINUOUS
 62
     3
100
AcDbCircle
 10
776.758532
 20
284.0
 30
0.0
 40
0.7
100
AcDbArc
 50
90.0
 51
138.747718
  0
ARC
  5
385
100
AcDbEntity
  8
LAY-1
  6
CONTINUOUS
 62
     3
100
AcDbCircle
 10
772.778571
 20
287.490612
 30
0.0
 40
4.593813
100
AcDbArc
 50
221.252282
 51
318.747718
  0
ARC
  5
386
100
AcDbEntity
  8
LAY-1
  6
CONTINUOUS
 62
     3
100
AcDbCircle
 10
768.798611
 20
284.0
 30
0.0
 40
0.7
100
AcDbArc
 50
41.252282
 51
90.0
  0
LINE
  5
387
100
AcDbEntity
  8
LAY-1
  6
CONTINUOUS
 62
     3
100
AcDbLine
 10
768.798611
 20
284.7
 30
0.0
 11
765.078571
 21
284.7
 31
0.0
  0
LINE
  5
388
100
AcDbEntity
  8
LAY-1
  6
CONTINUOUS
 62
     3
100
AcDbLine
 10
776.232262
 20
381.938437
 30
0.0
 11
776.232262
 21
284.461563
 31
0.0
  0
LINE
  5
389
100
AcDbEntity
  8
LAY-1
  6
CONTINUOUS
 62
     3
100
AcDbLine
 10
769.324881
 20
381.938437
 30
0.0
 11
769.324881
 21
284.461563
 31
0.0
  0
LINE
  5
38A
100
AcDbEntity
  8
LAY-1
  6
EXLTYPE3
 62
     1
100
AcDbLine
 10
756.703691
 20
333.2
 30
0.0
 11
805.503691
 21
333.2
 31
0.0
  0
ARC
  5
38B
100
AcDbEntity
  8
LAY-1
  6
CONTINUOUS
 62
     3
100
AcDbCircle
 10
783.798611
 20
382.4
 30
0.0
 40
0.7
100
AcDbArc
 50
270.0
 51
318.747718
  0
ARC
  5
38C
100
AcDbEntity
  8
LAY-1
  6
CONTINUOUS
 62
     3
100
AcDbCircle
 10
787.778571
 20
378.909388
 30
0.0
 40
4.593813
100
AcDbArc
 50
41.252282
 51
138.747718
  0
ARC
  5
38D
100
AcDbEntity
  8
LAY-1
  6
CONTINUOUS
 62
     3
100
AcDbCircle
 10
791.758532
 20
382.4
 30
0.0
 40
0.7
100
AcDbArc
 50
221.252282
 51
270.0
  0
ARC
  5
38E
100
AcDbEntity
  8
LAY-1
  6
CONTINUOUS
 62
     3
100
AcDbCircle
 10
791.758532
 20
284.0
 30
0.0
 40
0.7
100
AcDbArc
 50
90.0
 51
138.747718
  0
ARC
  5
38F
100
AcDbEntity
  8
LAY-1
  6
CONTINUOUS
 62
     3
100
AcDbCircle
 10
787.778571
 20
287.490612
 30
0.0
 40
4.593813
100
AcDbArc
 50
221.252282
 51
318.747718
  0
ARC
  5
390
100
AcDbEntity
  8
LAY-1
  6
CONTINUOUS
 62
     3
100
AcDbCircle
 10
783.798611
 20
284.0
 30
0.0
 40
0.7
100
AcDbArc
 50
41.252282
 51
90.0
  0
LINE
  5
391
100
AcDbEntity
  8
LAY-1
  6
CONTINUOUS
 62
     3
100
AcDbLine
 10
791.232262
 20
381.938437
 30
0.0
 11
791.232262
 21
284.461563
 31
0.0
  0
LINE
  5
392
100
AcDbEntity
  8
LAY-1
  6
CONTINUOUS
 62
     3
100
AcDbLine
 10
784.324881
 20
381.938437
 30
0.0
 11
784.324881
 21
284.461563
 31
0.0
  0
LINE
  5
393
100
AcDbEntity
  8
LAY-1
  6
CONTINUOUS
 62
     3
100
AcDbLine
 10
776.758532
 20
381.7
 30
0.0
 11
783.798611
 21
381.7
 31
0.0
  0
LINE
  5
394
100
AcDbEntity
  8
LAY-1
  6
CONTINUOUS
 62
     3
100
AcDbLine
 10
791.758532
 20
381.7
 30
0.0
 11
795.478571
 21
381.7
 31
0.0
  0
LINE
  5
395
100
AcDbEntity
  8
LAY-1
  6
CONTINUOUS
 62
     3
100
AcDbLine
 10
795.478571
 20
284.7
 30
0.0
 11
791.758532
 21
284.7
 31
0.0
  0
LINE
  5
396
100
AcDbEntity
  8
LAY-1
  6
CONTINUOUS
 62
     3
100
AcDbLine
 10
783.798611
 20
284.7
 30
0.0
 11
776.758532
 21
284.7
 31
0.0
  0
LINE
  5
397
100
AcDbEntity
  8
LAY-1
  6
CONTINUOUS
 62
     3
100
AcDbLine
 10
91.321429
 20
98.95
 30
0.0
 11
93.521429
 21
98.95
 31
0.0
  0
LINE
  5
398
100
AcDbEntity
  8
LAY-1
  6
CONTINUOUS
 62
     3
100
AcDbLine
 10
91.321429
 20
222.45
 30
0.0
 11
93.521429
 21
222.45
 31
0.0
  0
LINE
  5
399
100
AcDbEntity
  8
LAY-1
  6
CONTINUOUS
 62
     3
100
AcDbLine
 10
89.121429
 20
215.7
 30
0.0
 11
91.321429
 21
215.7
 31
0.0
  0
LINE
  5
39A
100
AcDbEntity
  8
LAY-1
  6
CONTINUOUS
 62
     3
100
AcDbLine
 10
89.121429
 20
105.7
 30
0.0
 11
91.321429
 21
105.7
 31
0.0
  0
LINE
  5
39B
100
AcDbEntity
  8
LAY-1
  6
CONTINUOUS
 62
     3
100
AcDbLine
 10
89.121429
 20
215.7
 30
0.0
 11
89.121429
 21
105.7
 31
0.0
  0
LINE
  5
39C
100
AcDbEntity
  8
LAY-1
  6
CONTINUOUS
 62
     3
100
AcDbLine
 10
91.321429
 20
222.45
 30
0.0
 11
91.321429
 21
98.95
 31
0.0
  0
LINE
  5
39D
100
AcDbEntity
  8
LAY-1
  6
CONTINUOUS
 62
     3
100
AcDbLine
 10
93.521429
 20
222.45
 30
0.0
 11
93.521429
 21
98.95
 31
0.0
  0
LINE
  5
39E
100
AcDbEntity
  8
LAY-1
  6
CONTINUOUS
 62
     3
100
AcDbLine
 10
129.721429
 20
98.95
 30
0.0
 11
131.921429
 21
98.95
 31
0.0
  0
LINE
  5
39F
100
AcDbEntity
  8
LAY-1
  6
CONTINUOUS
 62
     3
100
AcDbLine
 10
131.921429
 20
222.45
 30
0.0
 11
129.721429
 21
222.45
 31
0.0
  0
LINE
  5
3A0
100
AcDbEntity
  8
LAY-1
  6
CONTINUOUS
 62
     3
100
AcDbLine
 10
131.921429
 20
215.7
 30
0.0
 11
134.121429
 21
215.7
 31
0.0
  0
LINE
  5
3A1
100
AcDbEntity
  8
LAY-1
  6
CONTINUOUS
 62
     3
100
AcDbLine
 10
131.921429
 20
105.7
 30
0.0
 11
134.121429
 21
105.7
 31
0.0
  0
LINE
  5
3A2
100
AcDbEntity
  8
LAY-1
  6
CONTINUOUS
 62
     3
100
AcDbLine
 10
134.121429
 20
215.7
 30
0.0
 11
134.121429
 21
105.7
 31
0.0
  0
LINE
  5
3A3
100
AcDbEntity
  8
LAY-1
  6
CONTINUOUS
 62
     3
100
AcDbLine
 10
131.921429
 20
222.45
 30
0.0
 11
131.921429
 21
98.95
 31
0.0
  0
LINE
  5
3A4
100
AcDbEntity
  8
LAY-1
  6
CONTINUOUS
 62
     3
100
AcDbLine
 10
129.721429
 20
222.45
 30
0.0
 11
129.721429
 21
98.95
 31
0.0
  0
ARC
  5
3A5
100
AcDbEntity
  8
LAY-1
  6
CONTINUOUS
 62
     3
100
AcDbCircle
 10
100.141468
 20
215.4
 30
0.0
 40
0.7
100
AcDbArc
 50
270.0
 51
318.747718
  0
ARC
  5
3A6
100
AcDbEntity
  8
LAY-1
  6
CONTINUOUS
 62
     3
100
AcDbCircle
 10
104.121429
 20
211.909388
 30
0.0
 40
4.593813
100
AcDbArc
 50
41.252282
 51
138.747718
  0
ARC
  5
3A7
100
AcDbEntity
  8
LAY-1
  6
CONTINUOUS
 62
     3
100
AcDbCircle
 10
108.101389
 20
215.4
 30
0.0
 40
0.7
100
AcDbArc
 50
221.252282
 51
270.0
  0
LINE
  5
3A8
100
AcDbEntity
  8
LAY-1
  6
CONTINUOUS
 62
     3
100
AcDbLine
 10
93.521429
 20
214.7
 30
0.0
 11
100.141468
 21
214.7
 31
0.0
  0
ARC
  5
3A9
100
AcDbEntity
  8
LAY-1
  6
CONTINUOUS
 62
     3
100
AcDbCircle
 10
108.101389
 20
106.0
 30
0.0
 40
0.7
100
AcDbArc
 50
90.0
 51
138.747718
  0
ARC
  5
3AA
100
AcDbEntity
  8
LAY-1
  6
CONTINUOUS
 62
     3
100
AcDbCircle
 10
104.121429
 20
109.490612
 30
0.0
 40
4.593813
100
AcDbArc
 50
221.252282
 51
318.747718
  0
ARC
  5
3AB
100
AcDbEntity
  8
LAY-1
  6
CONTINUOUS
 62
     3
100
AcDbCircle
 10
100.141468
 20
106.0
 30
0.0
 40
0.7
100
AcDbArc
 50
41.252282
 51
90.0
  0
LINE
  5
3AC
100
AcDbEntity
  8
LAY-1
  6
CONTINUOUS
 62
     3
100
AcDbLine
 10
100.141468
 20
106.7
 30
0.0
 11
93.521429
 21
106.7
 31
0.0
  0
LINE
  5
3AD
100
AcDbEntity
  8
LAY-1
  6
CONTINUOUS
 62
     3
100
AcDbLine
 10
107.575119
 20
214.938437
 30
0.0
 11
107.575119
 21
106.461563
 31
0.0
  0
LINE
  5
3AE
100
AcDbEntity
  8
LAY-1
  6
CONTINUOUS
 62
     3
100
AcDbLine
 10
100.667738
 20
214.938437
 30
0.0
 11
100.667738
 21
106.461563
 31
0.0
  0
ARC
  5
3AF
100
AcDbEntity
  8
LAY-1
  6
CONTINUOUS
 62
     3
100
AcDbCircle
 10
115.141468
 20
215.4
 30
0.0
 40
0.7
100
AcDbArc
 50
270.0
 51
318.747718
  0
ARC
  5
3B0
100
AcDbEntity
  8
LAY-1
  6
CONTINUOUS
 62
     3
100
AcDbCircle
 10
119.121429
 20
211.909388
 30
0.0
 40
4.593813
100
AcDbArc
 50
41.252282
 51
138.747718
  0
ARC
  5
3B1
100
AcDbEntity
  8
LAY-1
  6
CONTINUOUS
 62
     3
100
AcDbCircle
 10
123.101389
 20
215.4
 30
0.0
 40
0.7
100
AcDbArc
 50
221.252282
 51
270.0
  0
ARC
  5
3B2
100
AcDbEntity
  8
LAY-1
  6
CONTINUOUS
 62
     3
100
AcDbCircle
 10
123.101389
 20
106.0
 30
0.0
 40
0.7
100
AcDbArc
 50
90.0
 51
138.747718
  0
ARC
  5
3B3
100
AcDbEntity
  8
LAY-1
  6
CONTINUOUS
 62
     3
100
AcDbCircle
 10
119.121429
 20
109.490612
 30
0.0
 40
4.593813
100
AcDbArc
 50
221.252282
 51
318.747718
  0
ARC
  5
3B4
100
AcDbEntity
  8
LAY-1
  6
CONTINUOUS
 62
     3
100
AcDbCircle
 10
115.141468
 20
106.0
 30
0.0
 40
0.7
100
AcDbArc
 50
41.252282
 51
90.0
  0
LINE
  5
3B5
100
AcDbEntity
  8
LAY-1
  6
CONTINUOUS
 62
     3
100
AcDbLine
 10
122.575119
 20
214.938437
 30
0.0
 11
122.575119
 21
106.461563
 31
0.0
  0
LINE
  5
3B6
100
AcDbEntity
  8
LAY-1
  6
CONTINUOUS
 62
     3
100
AcDbLine
 10
115.667738
 20
214.938437
 30
0.0
 11
115.667738
 21
106.461563
 31
0.0
  0
LINE
  5
3B7
100
AcDbEntity
  8
LAY-1
  6
CONTINUOUS
 62
     3
100
AcDbLine
 10
123.101389
 20
214.7
 30
0.0
 11
129.721429
 21
214.7
 31
0.0
  0
LINE
  5
3B8
100
AcDbEntity
  8
LAY-1
  6
CONTINUOUS
 62
     3
100
AcDbLine
 10
129.721429
 20
106.7
 30
0.0
 11
123.101389
 21
106.7
 31
0.0
  0
LINE
  5
3B9
100
AcDbEntity
  8
LAY-1
  6
EXLTYPE3
 62
     1
100
AcDbLine
 10
84.767738
 20
160.7
 30
0.0
 11
140.467738
 21
160.7
 31
0.0
  0
LINE
  5
3BA
100
AcDbEntity
  8
LAY-1
  6
CONTINUOUS
 62
     3
100
AcDbLine
 10
108.101389
 20
214.7
 30
0.0
 11
115.141468
 21
214.7
 31
0.0
  0
LINE
  5
3BB
100
AcDbEntity
  8
LAY-1
  6
CONTINUOUS
 62
     3
100
AcDbLine
 10
115.141468
 20
106.7
 30
0.0
 11
108.101389
 21
106.7
 31
0.0
  0
LINE
  5
3BC
100
AcDbEntity
  8
LAY-1
  6
CONTINUOUS
 62
     3
100
AcDbLine
 10
202.764286
 20
93.45
 30
0.0
 11
204.964286
 21
93.45
 31
0.0
  0
LINE
  5
3BD
100
AcDbEntity
  8
LAY-1
  6
CONTINUOUS
 62
     3
100
AcDbLine
 10
200.564286
 20
220.7
 30
0.0
 11
202.764286
 21
220.7
 31
0.0
  0
LINE
  5
3BE
100
AcDbEntity
  8
LAY-1
  6
CONTINUOUS
 62
     3
100
AcDbLine
 10
200.564286
 20
100.7
 30
0.0
 11
202.764286
 21
100.7
 31
0.0
  0
LINE
  5
3BF
100
AcDbEntity
  8
LAY-1
  6
CONTINUOUS
 62
     3
100
AcDbLine
 10
200.564286
 20
220.7
 30
0.0
 11
200.564286
 21
100.7
 31
0.0
  0
LINE
  5
3C0
100
AcDbEntity
  8
LAY-1
  6
CONTINUOUS
 62
     3
100
AcDbLine
 10
202.764286
 20
227.95
 30
0.0
 11
202.764286
 21
93.45
 31
0.0
  0
LINE
  5
3C1
100
AcDbEntity
  8
LAY-1
  6
CONTINUOUS
 62
     3
100
AcDbLine
 10
204.964286
 20
227.95
 30
0.0
 11
204.964286
 21
93.45
 31
0.0
  0
LINE
  5
3C2
100
AcDbEntity
  8
LAY-1
  6
CONTINUOUS
 62
     3
100
AcDbLine
 10
202.764286
 20
227.95
 30
0.0
 11
204.964286
 21
227.95
 31
0.0
  0
LINE
  5
3C3
100
AcDbEntity
  8
LAY-1
  6
CONTINUOUS
 62
     3
100
AcDbLine
 10
243.364286
 20
227.95
 30
0.0
 11
241.164286
 21
227.95
 31
0.0
  0
LINE
  5
3C4
100
AcDbEntity
  8
LAY-1
  6
CONTINUOUS
 62
     3
100
AcDbLine
 10
241.164286
 20
93.45
 30
0.0
 11
243.364286
 21
93.45
 31
0.0
  0
LINE
  5
3C5
100
AcDbEntity
  8
LAY-1
  6
CONTINUOUS
 62
     3
100
AcDbLine
 10
243.364286
 20
220.7
 30
0.0
 11
245.564286
 21
220.7
 31
0.0
  0
LINE
  5
3C6
100
AcDbEntity
  8
LAY-1
  6
CONTINUOUS
 62
     3
100
AcDbLine
 10
243.364286
 20
100.7
 30
0.0
 11
245.564286
 21
100.7
 31
0.0
  0
LINE
  5
3C7
100
AcDbEntity
  8
LAY-1
  6
CONTINUOUS
 62
     3
100
AcDbLine
 10
245.564286
 20
220.7
 30
0.0
 11
245.564286
 21
100.7
 31
0.0
  0
LINE
  5
3C8
100
AcDbEntity
  8
LAY-1
  6
CONTINUOUS
 62
     3
100
AcDbLine
 10
243.364286
 20
227.95
 30
0.0
 11
243.364286
 21
93.45
 31
0.0
  0
LINE
  5
3C9
100
AcDbEntity
  8
LAY-1
  6
CONTINUOUS
 62
     3
100
AcDbLine
 10
241.164286
 20
227.95
 30
0.0
 11
241.164286
 21
93.45
 31
0.0
  0
ARC
  5
3CA
100
AcDbEntity
  8
LAY-1
  6
CONTINUOUS
 62
     3
100
AcDbCircle
 10
226.584325
 20
220.4
 30
0.0
 40
0.7
100
AcDbArc
 50
270.0
 51
318.747718
  0
ARC
  5
3CB
100
AcDbEntity
  8
LAY-1
  6
CONTINUOUS
 62
     3
100
AcDbCircle
 10
230.564286
 20
216.909388
 30
0.0
 40
4.593813
100
AcDbArc
 50
41.252282
 51
138.747718
  0
ARC
  5
3CC
100
AcDbEntity
  8
LAY-1
  6
CONTINUOUS
 62
     3
100
AcDbCircle
 10
234.544246
 20
220.4
 30
0.0
 40
0.7
100
AcDbArc
 50
221.252282
 51
270.0
  0
LINE
  5
3CD
100
AcDbEntity
  8
LAY-1
  6
CONTINUOUS
 62
     3
100
AcDbLine
 10
234.544246
 20
219.7
 30
0.0
 11
241.164286
 21
219.7
 31
0.0
  0
ARC
  5
3CE
100
AcDbEntity
  8
LAY-1
  6
CONTINUOUS
 62
     3
100
AcDbCircle
 10
234.544246
 20
101.0
 30
0.0
 40
0.7
100
AcDbArc
 50
90.0
 51
138.747718
  0
ARC
  5
3CF
100
AcDbEntity
  8
LAY-1
  6
CONTINUOUS
 62
     3
100
AcDbCircle
 10
230.564286
 20
104.490612
 30
0.0
 40
4.593813
100
AcDbArc
 50
221.252282
 51
318.747718
  0
ARC
  5
3D0
100
AcDbEntity
  8
LAY-1
  6
CONTINUOUS
 62
     3
100
AcDbCircle
 10
226.584325
 20
101.0
 30
0.0
 40
0.7
100
AcDbArc
 50
41.252282
 51
90.0
  0
LINE
  5
3D1
100
AcDbEntity
  8
LAY-1
  6
CONTINUOUS
 62
     3
100
AcDbLine
 10
241.164286
 20
101.7
 30
0.0
 11
234.544246
 21
101.7
 31
0.0
  0
LINE
  5
3D2
100
AcDbEntity
  8
LAY-1
  6
CONTINUOUS
 62
     3
100
AcDbLine
 10
234.017977
 20
219.938437
 30
0.0
 11
234.017977
 21
101.461563
 31
0.0
  0
LINE
  5
3D3
100
AcDbEntity
  8
LAY-1
  6
CONTINUOUS
 62
     3
100
AcDbLine
 10
227.110595
 20
219.938437
 30
0.0
 11
227.110595
 21
101.461563
 31
0.0
  0
LINE
  5
3D4
100
AcDbEntity
  8
LAY-1
  6
EXLTYPE3
 62
     1
100
AcDbLine
 10
197.046309
 20
160.7
 30
0.0
 11
248.246309
 21
160.7
 31
0.0
  0
ARC
  5
3D5
100
AcDbEntity
  8
LAY-1
  6
CONTINUOUS
 62
     3
100
AcDbCircle
 10
211.584325
 20
220.4
 30
0.0
 40
0.7
100
AcDbArc
 50
270.0
 51
318.747718
  0
ARC
  5
3D6
100
AcDbEntity
  8
LAY-1
  6
CONTINUOUS
 62
     3
100
AcDbCircle
 10
215.564286
 20
216.909388
 30
0.0
 40
4.593813
100
AcDbArc
 50
41.252282
 51
138.747718
  0
ARC
  5
3D7
100
AcDbEntity
  8
LAY-1
  6
CONTINUOUS
 62
     3
100
AcDbCircle
 10
219.544246
 20
220.4
 30
0.0
 40
0.7
100
AcDbArc
 50
221.252282
 51
270.0
  0
ARC
  5
3D8
100
AcDbEntity
  8
LAY-1
  6
CONTINUOUS
 62
     3
100
AcDbCircle
 10
219.544246
 20
101.0
 30
0.0
 40
0.7
100
AcDbArc
 50
90.0
 51
138.747718
  0
ARC
  5
3D9
100
AcDbEntity
  8
LAY-1
  6
CONTINUOUS
 62
     3
100
AcDbCircle
 10
215.564286
 20
104.490612
 30
0.0
 40
4.593813
100
AcDbArc
 50
221.252282
 51
318.747718
  0
ARC
  5
3DA
100
AcDbEntity
  8
LAY-1
  6
CONTINUOUS
 62
     3
100
AcDbCircle
 10
211.584325
 20
101.0
 30
0.0
 40
0.7
100
AcDbArc
 50
41.252282
 51
90.0
  0
LINE
  5
3DB
100
AcDbEntity
  8
LAY-1
  6
CONTINUOUS
 62
     3
100
AcDbLine
 10
219.017977
 20
219.938437
 30
0.0
 11
219.017977
 21
101.461563
 31
0.0
  0
LINE
  5
3DC
100
AcDbEntity
  8
LAY-1
  6
CONTINUOUS
 62
     3
100
AcDbLine
 10
212.110595
 20
219.938437
 30
0.0
 11
212.110595
 21
101.461563
 31
0.0
  0
LINE
  5
3DD
100
AcDbEntity
  8
LAY-1
  6
CONTINUOUS
 62
     3
100
AcDbLine
 10
204.964286
 20
219.7
 30
0.0
 11
211.584325
 21
219.7
 31
0.0
  0
LINE
  5
3DE
100
AcDbEntity
  8
LAY-1
  6
CONTINUOUS
 62
     3
100
AcDbLine
 10
219.544246
 20
219.7
 30
0.0
 11
226.584325
 21
219.7
 31
0.0
  0
LINE
  5
3DF
100
AcDbEntity
  8
LAY-1
  6
CONTINUOUS
 62
     3
100
AcDbLine
 10
226.584325
 20
101.7
 30
0.0
 11
219.544246
 21
101.7
 31
0.0
  0
LINE
  5
3E0
100
AcDbEntity
  8
LAY-1
  6
CONTINUOUS
 62
     3
100
AcDbLine
 10
211.584325
 20
101.7
 30
0.0
 11
204.964286
 21
101.7
 31
0.0
  0
LINE
  5
3E1
100
AcDbEntity
  8
LAY-1
  6
CONTINUOUS
 62
     3
100
AcDbLine
 10
316.407143
 20
233.95
 30
0.0
 11
316.407143
 21
87.45
 31
0.0
  0
LINE
  5
3E2
100
AcDbEntity
  8
LAY-1
  6
CONTINUOUS
 62
     3
100
AcDbLine
 10
314.207143
 20
233.95
 30
0.0
 11
314.207143
 21
87.45
 31
0.0
  0
LINE
  5
3E3
100
AcDbEntity
  8
LAY-1
  6
CONTINUOUS
 62
     3
100
AcDbLine
 10
312.007143
 20
225.7
 30
0.0
 11
312.007143
 21
95.7
 31
0.0
  0
LINE
  5
3E4
100
AcDbEntity
  8
LAY-1
  6
CONTINUOUS
 62
     3
100
AcDbLine
 10
312.007143
 20
95.7
 30
0.0
 11
314.207143
 21
95.7
 31
0.0
  0
LINE
  5
3E5
100
AcDbEntity
  8
LAY-1
  6
CONTINUOUS
 62
     3
100
AcDbLine
 10
312.007143
 20
225.7
 30
0.0
 11
314.207143
 21
225.7
 31
0.0
  0
LINE
  5
3E6
100
AcDbEntity
  8
LAY-1
  6
CONTINUOUS
 62
     3
100
AcDbLine
 10
314.207143
 20
87.45
 30
0.0
 11
316.407143
 21
87.45
 31
0.0
  0
LINE
  5
3E7
100
AcDbEntity
  8
LAY-1
  6
CONTINUOUS
 62
     3
100
AcDbLine
 10
314.207143
 20
233.95
 30
0.0
 11
316.407143
 21
233.95
 31
0.0
  0
LINE
  5
3E8
100
AcDbEntity
  8
LAY-1
  6
CONTINUOUS
 62
     3
100
AcDbLine
 10
352.607143
 20
233.95
 30
0.0
 11
352.607143
 21
87.45
 31
0.0
  0
LINE
  5
3E9
100
AcDbEntity
  8
LAY-1
  6
CONTINUOUS
 62
     3
100
AcDbLine
 10
354.807143
 20
233.95
 30
0.0
 11
354.807143
 21
87.45
 31
0.0
  0
LINE
  5
3EA
100
AcDbEntity
  8
LAY-1
  6
CONTINUOUS
 62
     3
100
AcDbLine
 10
338.553452
 20
224.938437
 30
0.0
 11
338.553452
 21
96.461563
 31
0.0
  0
LINE
  5
3EB
100
AcDbEntity
  8
LAY-1
  6
CONTINUOUS
 62
     3
100
AcDbLine
 10
345.460834
 20
224.938437
 30
0.0
 11
345.460834
 21
96.461563
 31
0.0
  0
LINE
  5
3EC
100
AcDbEntity
  8
LAY-1
  6
CONTINUOUS
 62
     3
100
AcDbLine
 10
357.007143
 20
225.7
 30
0.0
 11
357.007143
 21
95.7
 31
0.0
  0
LINE
  5
3ED
100
AcDbEntity
  8
LAY-1
  6
CONTINUOUS
 62
     3
100
AcDbLine
 10
352.607143
 20
96.7
 30
0.0
 11
345.987103
 21
96.7
 31
0.0
  0
LINE
  5
3EE
100
AcDbEntity
  8
LAY-1
  6
CONTINUOUS
 62
     3
100
AcDbLine
 10
354.807143
 20
95.7
 30
0.0
 11
357.007143
 21
95.7
 31
0.0
  0
ARC
  5
3EF
100
AcDbEntity
  8
LAY-1
  6
CONTINUOUS
 62
     3
100
AcDbCircle
 10
338.027182
 20
96.0
 30
0.0
 40
0.7
100
AcDbArc
 50
41.252282
 51
90.0
  0
ARC
  5
3F0
100
AcDbEntity
  8
LAY-1
  6
CONTINUOUS
 62
     3
100
AcDbCircle
 10
342.007143
 20
99.490612
 30
0.0
 40
4.593813
100
AcDbArc
 50
221.252282
 51
318.747718
  0
ARC
  5
3F1
100
AcDbEntity
  8
LAY-1
  6
CONTINUOUS
 62
     3
100
AcDbCircle
 10
345.987103
 20
96.0
 30
0.0
 40
0.7
100
AcDbArc
 50
90.0
 51
138.747718
  0
LINE
  5
3F2
100
AcDbEntity
  8
LAY-1
  6
CONTINUOUS
 62
     3
100
AcDbLine
 10
345.987103
 20
224.7
 30
0.0
 11
352.607143
 21
224.7
 31
0.0
  0
LINE
  5
3F3
100
AcDbEntity
  8
LAY-1
  6
CONTINUOUS
 62
     3
100
AcDbLine
 10
354.807143
 20
225.7
 30
0.0
 11
357.007143
 21
225.7
 31
0.0
  0
ARC
  5
3F4
100
AcDbEntity
  8
LAY-1
  6
CONTINUOUS
 62
     3
100
AcDbCircle
 10
345.987103
 20
225.4
 30
0.0
 40
0.7
100
AcDbArc
 50
221.252282
 51
270.0
  0
ARC
  5
3F5
100
AcDbEntity
  8
LAY-1
  6
CONTINUOUS
 62
     3
100
AcDbCircle
 10
342.007143
 20
221.909388
 30
0.0
 40
4.593813
100
AcDbArc
 50
41.252282
 51
138.747718
  0
ARC
  5
3F6
100
AcDbEntity
  8
LAY-1
  6
CONTINUOUS
 62
     3
100
AcDbCircle
 10
338.027182
 20
225.4
 30
0.0
 40
0.7
100
AcDbArc
 50
270.0
 51
318.747718
  0
LINE
  5
3F7
100
AcDbEntity
  8
LAY-1
  6
CONTINUOUS
 62
     3
100
AcDbLine
 10
352.607143
 20
87.45
 30
0.0
 11
354.807143
 21
87.45
 31
0.0
  0
LINE
  5
3F8
100
AcDbEntity
  8
LAY-1
  6
CONTINUOUS
 62
     3
100
AcDbLine
 10
354.807143
 20
233.95
 30
0.0
 11
352.607143
 21
233.95
 31
0.0
  0
LINE
  5
3F9
100
AcDbEntity
  8
LAY-1
  6
EXLTYPE3
 62
     1
100
AcDbLine
 10
306.946309
 20
160.7
 30
0.0
 11
361.046309
 21
160.7
 31
0.0
  0
LINE
  5
3FA
100
AcDbEntity
  8
LAY-1
  6
CONTINUOUS
 62
     3
100
AcDbLine
 10
323.553452
 20
224.938437
 30
0.0
 11
323.553452
 21
96.461563
 31
0.0
  0
LINE
  5
3FB
100
AcDbEntity
  8
LAY-1
  6
CONTINUOUS
 62
     3
100
AcDbLine
 10
330.460834
 20
224.938437
 30
0.0
 11
330.460834
 21
96.461563
 31
0.0
  0
ARC
  5
3FC
100
AcDbEntity
  8
LAY-1
  6
CONTINUOUS
 62
     3
100
AcDbCircle
 10
323.027182
 20
96.0
 30
0.0
 40
0.7
100
AcDbArc
 50
41.252282
 51
90.0
  0
ARC
  5
3FD
100
AcDbEntity
  8
LAY-1
  6
CONTINUOUS
 62
     3
100
AcDbCircle
 10
327.007143
 20
99.490612
 30
0.0
 40
4.593813
100
AcDbArc
 50
221.252282
 51
318.747718
  0
ARC
  5
3FE
100
AcDbEntity
  8
LAY-1
  6
CONTINUOUS
 62
     3
100
AcDbCircle
 10
330.987103
 20
96.0
 30
0.0
 40
0.7
100
AcDbArc
 50
90.0
 51
138.747718
  0
ARC
  5
3FF
100
AcDbEntity
  8
LAY-1
  6
CONTINUOUS
 62
     3
100
AcDbCircle
 10
330.987103
 20
225.4
 30
0.0
 40
0.7
100
AcDbArc
 50
221.252282
 51
270.0
  0
ARC
  5
400
100
AcDbEntity
  8
LAY-1
  6
CONTINUOUS
 62
     3
100
AcDbCircle
 10
327.007143
 20
221.909388
 30
0.0
 40
4.593813
100
AcDbArc
 50
41.252282
 51
138.747718
  0
ARC
  5
401
100
AcDbEntity
  8
LAY-1
  6
CONTINUOUS
 62
     3
100
AcDbCircle
 10
323.027182
 20
225.4
 30
0.0
 40
0.7
100
AcDbArc
 50
270.0
 51
318.747718
  0
LINE
  5
402
100
AcDbEntity
  8
LAY-1
  6
CONTINUOUS
 62
     3
100
AcDbLine
 10
316.407143
 20
224.7
 30
0.0
 11
323.027182
 21
224.7
 31
0.0
  0
LINE
  5
403
100
AcDbEntity
  8
LAY-1
  6
CONTINUOUS
 62
     3
100
AcDbLine
 10
330.987103
 20
224.7
 30
0.0
 11
338.027182
 21
224.7
 31
0.0
  0
LINE
  5
404
100
AcDbEntity
  8
LAY-1
  6
CONTINUOUS
 62
     3
100
AcDbLine
 10
338.027182
 20
96.7
 30
0.0
 11
330.987103
 21
96.7
 31
0.0
  0
LINE
  5
405
100
AcDbEntity
  8
LAY-1
  6
CONTINUOUS
 62
     3
100
AcDbLine
 10
323.027182
 20
96.7
 30
0.0
 11
316.407143
 21
96.7
 31
0.0
  0
LINE
  5
406
100
AcDbEntity
  8
LAY-1
  6
CONTINUOUS
 62
     3
100
AcDbLine
 10
427.85
 20
242.2
 30
0.0
 11
427.85
 21
79.2
 31
0.0
  0
LINE
  5
407
100
AcDbEntity
  8
LAY-1
  6
CONTINUOUS
 62
     3
100
AcDbLine
 10
425.65
 20
242.2
 30
0.0
 11
425.65
 21
79.2
 31
0.0
  0
LINE
  5
408
100
AcDbEntity
  8
LAY-1
  6
CONTINUOUS
 62
     3
100
AcDbLine
 10
434.996309
 20
232.438437
 30
0.0
 11
434.996309
 21
88.961563
 31
0.0
  0
LINE
  5
409
100
AcDbEntity
  8
LAY-1
  6
CONTINUOUS
 62
     3
100
AcDbLine
 10
441.903691
 20
232.438437
 30
0.0
 11
441.903691
 21
88.961563
 31
0.0
  0
LINE
  5
40A
100
AcDbEntity
  8
LAY-1
  6
CONTINUOUS
 62
     3
100
AcDbLine
 10
423.45
 20
233.2
 30
0.0
 11
423.45
 21
88.2
 31
0.0
  0
LINE
  5
40B
100
AcDbEntity
  8
LAY-1
  6
CONTINUOUS
 62
     3
100
AcDbLine
 10
434.47004
 20
89.2
 30
0.0
 11
427.85
 21
89.2
 31
0.0
  0
LINE
  5
40C
100
AcDbEntity
  8
LAY-1
  6
CONTINUOUS
 62
     3
100
AcDbLine
 10
423.45
 20
88.2
 30
0.0
 11
425.65
 21
88.2
 31
0.0
  0
ARC
  5
40D
100
AcDbEntity
  8
LAY-1
  6
CONTINUOUS
 62
     3
100
AcDbCircle
 10
434.47004
 20
88.5
 30
0.0
 40
0.7
100
AcDbArc
 50
41.252282
 51
90.0
  0
ARC
  5
40E
100
AcDbEntity
  8
LAY-1
  6
CONTINUOUS
 62
     3
100
AcDbCircle
 10
438.45
 20
91.990612
 30
0.0
 40
4.593813
100
AcDbArc
 50
221.252282
 51
318.747718
  0
ARC
  5
40F
100
AcDbEntity
  8
LAY-1
  6
CONTINUOUS
 62
     3
100
AcDbCircle
 10
442.42996
 20
88.5
 30
0.0
 40
0.7
100
AcDbArc
 50
90.0
 51
138.747718
  0
LINE
  5
410
100
AcDbEntity
  8
LAY-1
  6
CONTINUOUS
 62
     3
100
AcDbLine
 10
427.85
 20
232.2
 30
0.0
 11
434.47004
 21
232.2
 31
0.0
  0
LINE
  5
411
100
AcDbEntity
  8
LAY-1
  6
CONTINUOUS
 62
     3
100
AcDbLine
 10
423.45
 20
233.2
 30
0.0
 11
425.65
 21
233.2
 31
0.0
  0
ARC
  5
412
100
AcDbEntity
  8
LAY-1
  6
CONTINUOUS
 62
     3
100
AcDbCircle
 10
442.42996
 20
232.9
 30
0.0
 40
0.7
100
AcDbArc
 50
221.252282
 51
270.0
  0
ARC
  5
413
100
AcDbEntity
  8
LAY-1
  6
CONTINUOUS
 62
     3
100
AcDbCircle
 10
438.45
 20
229.409388
 30
0.0
 40
4.593813
100
AcDbArc
 50
41.252282
 51
138.747718
  0
ARC
  5
414
100
AcDbEntity
  8
LAY-1
  6
CONTINUOUS
 62
     3
100
AcDbCircle
 10
434.47004
 20
232.9
 30
0.0
 40
0.7
100
AcDbArc
 50
270.0
 51
318.747718
  0
LINE
  5
415
100
AcDbEntity
  8
LAY-1
  6
CONTINUOUS
 62
     3
100
AcDbLine
 10
425.65
 20
79.2
 30
0.0
 11
427.85
 21
79.2
 31
0.0
  0
LINE
  5
416
100
AcDbEntity
  8
LAY-1
  6
CONTINUOUS
 62
     3
100
AcDbLine
 10
425.65
 20
242.2
 30
0.0
 11
427.85
 21
242.2
 31
0.0
  0
LINE
  5
417
100
AcDbEntity
  8
LAY-1
  6
CONTINUOUS
 62
     3
100
AcDbLine
 10
464.05
 20
242.2
 30
0.0
 11
464.05
 21
79.2
 31
0.0
  0
LINE
  5
418
100
AcDbEntity
  8
LAY-1
  6
CONTINUOUS
 62
     3
100
AcDbLine
 10
466.25
 20
242.2
 30
0.0
 11
466.25
 21
79.2
 31
0.0
  0
LINE
  5
419
100
AcDbEntity
  8
LAY-1
  6
CONTINUOUS
 62
     3
100
AcDbLine
 10
468.45
 20
233.2
 30
0.0
 11
468.45
 21
88.2
 31
0.0
  0
LINE
  5
41A
100
AcDbEntity
  8
LAY-1
  6
CONTINUOUS
 62
     3
100
AcDbLine
 10
466.25
 20
88.2
 30
0.0
 11
468.45
 21
88.2
 31
0.0
  0
LINE
  5
41B
100
AcDbEntity
  8
LAY-1
  6
CONTINUOUS
 62
     3
100
AcDbLine
 10
466.25
 20
233.2
 30
0.0
 11
468.45
 21
233.2
 31
0.0
  0
LINE
  5
41C
100
AcDbEntity
  8
LAY-1
  6
CONTINUOUS
 62
     3
100
AcDbLine
 10
464.05
 20
79.2
 30
0.0
 11
466.25
 21
79.2
 31
0.0
  0
LINE
  5
41D
100
AcDbEntity
  8
LAY-1
  6
CONTINUOUS
 62
     3
100
AcDbLine
 10
466.25
 20
242.2
 30
0.0
 11
464.05
 21
242.2
 31
0.0
  0
LINE
  5
41E
100
AcDbEntity
  8
LAY-1
  6
EXLTYPE3
 62
     1
100
AcDbLine
 10
420.939166
 20
160.7
 30
0.0
 11
472.439166
 21
160.7
 31
0.0
  0
LINE
  5
41F
100
AcDbEntity
  8
LAY-1
  6
CONTINUOUS
 62
     3
100
AcDbLine
 10
449.996309
 20
232.438437
 30
0.0
 11
449.996309
 21
88.961563
 31
0.0
  0
LINE
  5
420
100
AcDbEntity
  8
LAY-1
  6
CONTINUOUS
 62
     3
100
AcDbLine
 10
456.903691
 20
232.438437
 30
0.0
 11
456.903691
 21
88.961563
 31
0.0
  0
ARC
  5
421
100
AcDbEntity
  8
LAY-1
  6
CONTINUOUS
 62
     3
100
AcDbCircle
 10
449.47004
 20
88.5
 30
0.0
 40
0.7
100
AcDbArc
 50
41.252282
 51
90.0
  0
ARC
  5
422
100
AcDbEntity
  8
LAY-1
  6
CONTINUOUS
 62
     3
100
AcDbCircle
 10
453.45
 20
91.990612
 30
0.0
 40
4.593813
100
AcDbArc
 50
221.252282
 51
318.747718
  0
ARC
  5
423
100
AcDbEntity
  8
LAY-1
  6
CONTINUOUS
 62
     3
100
AcDbCircle
 10
457.42996
 20
88.5
 30
0.0
 40
0.7
100
AcDbArc
 50
90.0
 51
138.747718
  0
ARC
  5
424
100
AcDbEntity
  8
LAY-1
  6
CONTINUOUS
 62
     3
100
AcDbCircle
 10
457.42996
 20
232.9
 30
0.0
 40
0.7
100
AcDbArc
 50
221.252282
 51
270.0
  0
ARC
  5
425
100
AcDbEntity
  8
LAY-1
  6
CONTINUOUS
 62
     3
100
AcDbCircle
 10
453.45
 20
229.409388
 30
0.0
 40
4.593813
100
AcDbArc
 50
41.252282
 51
138.747718
  0
ARC
  5
426
100
AcDbEntity
  8
LAY-1
  6
CONTINUOUS
 62
     3
100
AcDbCircle
 10
449.47004
 20
232.9
 30
0.0
 40
0.7
100
AcDbArc
 50
270.0
 51
318.747718
  0
LINE
  5
427
100
AcDbEntity
  8
LAY-1
  6
CONTINUOUS
 62
     3
100
AcDbLine
 10
442.42996
 20
232.2
 30
0.0
 11
449.47004
 21
232.2
 31
0.0
  0
LINE
  5
428
100
AcDbEntity
  8
LAY-1
  6
CONTINUOUS
 62
     3
100
AcDbLine
 10
457.42996
 20
232.2
 30
0.0
 11
464.05
 21
232.2
 31
0.0
  0
LINE
  5
429
100
AcDbEntity
  8
LAY-1
  6
CONTINUOUS
 62
     3
100
AcDbLine
 10
464.05
 20
89.2
 30
0.0
 11
457.42996
 21
89.2
 31
0.0
  0
LINE
  5
42A
100
AcDbEntity
  8
LAY-1
  6
CONTINUOUS
 62
     3
100
AcDbLine
 10
449.47004
 20
89.2
 30
0.0
 11
442.42996
 21
89.2
 31
0.0
  0
LINE
  5
42B
100
AcDbEntity
  8
LAY-1
  6
CONTINUOUS
 62
     3
100
AcDbLine
 10
539.292857
 20
250.45
 30
0.0
 11
539.292857
 21
70.95
 31
0.0
  0
LINE
  5
42C
100
AcDbEntity
  8
LAY-1
  6
CONTINUOUS
 62
     3
100
AcDbLine
 10
537.092857
 20
250.45
 30
0.0
 11
537.092857
 21
70.95
 31
0.0
  0
LINE
  5
42D
100
AcDbEntity
  8
LAY-1
  6
CONTINUOUS
 62
     3
100
AcDbLine
 10
534.892857
 20
242.2
 30
0.0
 11
534.892857
 21
79.2
 31
0.0
  0
LINE
  5
42E
100
AcDbEntity
  8
LAY-1
  6
CONTINUOUS
 62
     3
100
AcDbLine
 10
534.892857
 20
79.2
 30
0.0
 11
537.092857
 21
79.2
 31
0.0
  0
LINE
  5
42F
100
AcDbEntity
  8
LAY-1
  6
CONTINUOUS
 62
     3
100
AcDbLine
 10
534.892857
 20
242.2
 30
0.0
 11
537.092857
 21
242.2
 31
0.0
  0
LINE
  5
430
100
AcDbEntity
  8
LAY-1
  6
CONTINUOUS
 62
     3
100
AcDbLine
 10
537.092857
 20
70.95
 30
0.0
 11
539.292857
 21
70.95
 31
0.0
  0
LINE
  5
431
100
AcDbEntity
  8
LAY-1
  6
CONTINUOUS
 62
     3
100
AcDbLine
 10
537.092857
 20
250.45
 30
0.0
 11
539.292857
 21
250.45
 31
0.0
  0
LINE
  5
432
100
AcDbEntity
  8
LAY-1
  6
CONTINUOUS
 62
     3
100
AcDbLine
 10
575.492857
 20
250.45
 30
0.0
 11
575.492857
 21
70.95
 31
0.0
  0
LINE
  5
433
100
AcDbEntity
  8
LAY-1
  6
CONTINUOUS
 62
     3
100
AcDbLine
 10
577.692857
 20
250.45
 30
0.0
 11
577.692857
 21
70.95
 31
0.0
  0
LINE
  5
434
100
AcDbEntity
  8
LAY-1
  6
CONTINUOUS
 62
     3
100
AcDbLine
 10
579.892857
 20
242.2
 30
0.0
 11
579.892857
 21
79.2
 31
0.0
  0
LINE
  5
435
100
AcDbEntity
  8
LAY-1
  6
CONTINUOUS
 62
     3
100
AcDbLine
 10
577.692857
 20
79.2
 30
0.0
 11
579.892857
 21
79.2
 31
0.0
  0
LINE
  5
436
100
AcDbEntity
  8
LAY-1
  6
CONTINUOUS
 62
     3
100
AcDbLine
 10
577.692857
 20
242.2
 30
0.0
 11
579.892857
 21
242.2
 31
0.0
  0
LINE
  5
437
100
AcDbEntity
  8
LAY-1
  6
CONTINUOUS
 62
     3
100
AcDbLine
 10
575.492857
 20
70.95
 30
0.0
 11
577.692857
 21
70.95
 31
0.0
  0
LINE
  5
438
100
AcDbEntity
  8
LAY-1
  6
CONTINUOUS
 62
     3
100
AcDbLine
 10
577.692857
 20
250.45
 30
0.0
 11
575.492857
 21
250.45
 31
0.0
  0
LINE
  5
439
100
AcDbEntity
  8
LAY-1
  6
CONTINUOUS
 62
     3
100
AcDbLine
 10
553.680298
 20
241.445067
 30
0.0
 11
553.680298
 21
79.915302
 31
0.0
  0
LINE
  5
43A
100
AcDbEntity
  8
LAY-1
  6
CONTINUOUS
 62
     3
100
AcDbLine
 10
546.14617
 20
241.484574
 30
0.0
 11
546.14617
 21
79.94272
 31
0.0
  0
LINE
  5
43B
100
AcDbEntity
  8
LAY-1
  6
CONTINUOUS
 62
     3
100
AcDbLine
 10
545.528995
 20
80.2
 30
0.0
 11
539.292857
 21
80.2
 31
0.0
  0
ARC
  5
43C
100
AcDbEntity
  8
LAY-1
  6
CONTINUOUS
 62
     3
100
AcDbCircle
 10
545.528995
 20
79.3
 30
0.0
 40
0.9
100
AcDbArc
 50
45.572186
 51
90.0
  0
ARC
  5
43D
100
AcDbEntity
  8
LAY-1
  6
CONTINUOUS
 62
     3
100
AcDbCircle
 10
549.933739
 20
83.793611
 30
0.0
 40
5.392401
100
AcDbArc
 50
225.572186
 51
314.011984
  0
ARC
  5
43E
100
AcDbEntity
  8
LAY-1
  6
CONTINUOUS
 62
     3
100
AcDbCircle
 10
554.305755
 20
79.268151
 30
0.0
 40
0.9
100
AcDbArc
 50
91.86379
 51
134.011984
  0
LINE
  5
43F
100
AcDbEntity
  8
LAY-1
  6
CONTINUOUS
 62
     3
100
AcDbLine
 10
539.292857
 20
241.2
 30
0.0
 11
543.433338
 21
241.2
 31
0.0
  0
ARC
  5
440
100
AcDbEntity
  8
LAY-1
  6
CONTINUOUS
 62
     3
100
AcDbCircle
 10
554.297601
 20
242.1
 30
0.0
 40
0.9
100
AcDbArc
 50
225.572186
 51
270.0
  0
ARC
  5
441
100
AcDbEntity
  8
LAY-1
  6
CONTINUOUS
 62
     3
100
AcDbCircle
 10
545.520842
 20
242.131849
 30
0.0
 40
0.9
100
AcDbArc
 50
271.86379
 51
314.011984
  0
ARC
  5
442
100
AcDbEntity
  8
LAY-1
  6
CONTINUOUS
 62
     3
100
AcDbCircle
 10
549.892857
 20
237.606389
 30
0.0
 40
5.392401
100
AcDbArc
 50
45.572186
 51
134.011984
  0
ARC
  5
443
100
AcDbEntity
  8
LAY-1
  6
CONTINUOUS
 62
     3
100
AcDbCircle
 10
543.555363
 20
302.5324
 30
0.0
 40
61.332521
100
AcDbArc
 50
269.886006
 51
271.86379
  0
LINE
  5
444
100
AcDbEntity
  8
LAY-1
  6
EXLTYPE3
 62
     1
100
AcDbLine
 10
529.0
 20
160.7
 30
0.0
 11
585.0
 21
160.7
 31
0.0
  0
LINE
  5
445
100
AcDbEntity
  8
LAY-1
  6
CONTINUOUS
 62
     3
100
AcDbLine
 10
568.680298
 20
241.445067
 30
0.0
 11
568.680298
 21
79.915302
 31
0.0
  0
LINE
  5
446
100
AcDbEntity
  8
LAY-1
  6
CONTINUOUS
 62
     3
100
AcDbLine
 10
561.14617
 20
241.484574
 30
0.0
 11
561.14617
 21
79.94272
 31
0.0
  0
ARC
  5
447
100
AcDbEntity
  8
LAY-1
  6
CONTINUOUS
 62
     3
100
AcDbCircle
 10
560.528995
 20
79.3
 30
0.0
 40
0.9
100
AcDbArc
 50
45.572186
 51
90.0
  0
ARC
  5
448
100
AcDbEntity
  8
LAY-1
  6
CONTINUOUS
 62
     3
100
AcDbCircle
 10
564.933739
 20
83.793611
 30
0.0
 40
5.392401
100
AcDbArc
 50
225.572186
 51
314.011984
  0
ARC
  5
449
100
AcDbEntity
  8
LAY-1
  6
CONTINUOUS
 62
     3
100
AcDbCircle
 10
569.305755
 20
79.268151
 30
0.0
 40
0.9
100
AcDbArc
 50
91.86379
 51
134.011984
  0
ARC
  5
44A
100
AcDbEntity
  8
LAY-1
  6
CONTINUOUS
 62
     3
100
AcDbCircle
 10
569.297601
 20
242.1
 30
0.0
 40
0.9
100
AcDbArc
 50
225.572186
 51
270.0
  0
ARC
  5
44B
100
AcDbEntity
  8
LAY-1
  6
CONTINUOUS
 62
     3
100
AcDbCircle
 10
560.520842
 20
242.131849
 30
0.0
 40
0.9
100
AcDbArc
 50
271.86379
 51
314.011984
  0
ARC
  5
44C
100
AcDbEntity
  8
LAY-1
  6
CONTINUOUS
 62
     3
100
AcDbCircle
 10
564.892857
 20
237.606389
 30
0.0
 40
5.392401
100
AcDbArc
 50
45.572186
 51
134.011984
  0
LINE
  5
44D
100
AcDbEntity
  8
LAY-1
  6
CONTINUOUS
 62
     3
100
AcDbLine
 10
569.297601
 20
241.2
 30
0.0
 11
575.492857
 21
241.2
 31
0.0
  0
LINE
  5
44E
100
AcDbEntity
  8
LAY-1
  6
CONTINUOUS
 62
     3
100
AcDbLine
 10
575.492857
 20
80.2
 30
0.0
 11
569.276484
 21
80.2
 31
0.0
  0
LINE
  5
44F
100
AcDbEntity
  8
LAY-1
  6
CONTINUOUS
 62
     3
100
AcDbLine
 10
560.528995
 20
80.2
 30
0.0
 11
554.276484
 21
80.2
 31
0.0
  0
LINE
  5
450
100
AcDbEntity
  8
LAY-1
  6
CONTINUOUS
 62
     3
100
AcDbLine
 10
554.297601
 20
241.2
 30
0.0
 11
560.550113
 21
241.2
 31
0.0
  0
LINE
  5
451
100
AcDbEntity
  8
LAY-2
  6
CONTINUOUS
 62
     2
100
AcDbLine
 10
227.810562
 20
579.975
 30
0.0
 11
229.989438
 21
579.975
 31
0.0
  0
LINE
  5
452
100
AcDbEntity
  8
LAY-2
  6
CONTINUOUS
 62
     2
100
AcDbLine
 10
226.263241
 20
579.6
 30
0.0
 11
231.536759
 21
579.6
 31
0.0
  0
LINE
  5
453
100
AcDbEntity
  8
LAY-2
  6
CONTINUOUS
 62
     2
100
AcDbLine
 10
225.373405
 20
579.225
 30
0.0
 11
232.426595
 21
579.225
 31
0.0
  0
LINE
  5
454
100
AcDbEntity
  8
LAY-2
  6
CONTINUOUS
 62
     2
100
AcDbLine
 10
224.7
 20
578.85
 30
0.0
 11
233.1
 21
578.85
 31
0.0
  0
LINE
  5
455
100
AcDbEntity
  8
LAY-2
  6
CONTINUOUS
 62
     2
100
AcDbLine
 10
224.150066
 20
578.475
 30
0.0
 11
233.649934
 21
578.475
 31
0.0
  0
LINE
  5
456
100
AcDbEntity
  8
LAY-2
  6
CONTINUOUS
 62
     2
100
AcDbLine
 10
223.684398
 20
578.1
 30
0.0
 11
234.115602
 21
578.1
 31
0.0
  0
LINE
  5
457
100
AcDbEntity
  8
LAY-2
  6
CONTINUOUS
 62
     2
100
AcDbLine
 10
210.15
 20
577.725
 30
0.0
 11
222.233635
 21
577.725
 31
0.0
  0
LINE
  5
458
100
AcDbEntity
  8
LAY-2
  6
CONTINUOUS
 62
     2
100
AcDbLine
 10
223.282004
 20
577.725
 30
0.0
 11
234.517996
 21
577.725
 31
0.0
  0
LINE
  5
459
100
AcDbEntity
  8
LAY-2
  6
CONTINUOUS
 62
     2
100
AcDbLine
 10
235.566365
 20
577.725
 30
0.0
 11
244.65
 21
577.725
 31
0.0
  0
LINE
  5
45A
100
AcDbEntity
  8
LAY-2
  6
CONTINUOUS
 62
     2
100
AcDbLine
 10
245.925
 20
577.725
 30
0.0
 11
255.975
 21
577.725
 31
0.0
  0
LINE
  5
45B
100
AcDbEntity
  8
LAY-2
  6
CONTINUOUS
 62
     2
100
AcDbLine
 10
257.1
 20
577.725
 30
0.0
 11
259.65
 21
577.725
 31
0.0
  0
LINE
  5
45C
100
AcDbEntity
  8
LAY-2
  6
CONTINUOUS
 62
     2
100
AcDbLine
 10
264.9
 20
577.725
 30
0.0
 11
267.45
 21
577.725
 31
0.0
  0
LINE
  5
45D
100
AcDbEntity
  8
LAY-2
  6
CONTINUOUS
 62
     2
100
AcDbLine
 10
210.15
 20
577.35
 30
0.0
 11
221.934474
 21
577.35
 31
0.0
  0
LINE
  5
45E
100
AcDbEntity
  8
LAY-2
  6
CONTINUOUS
 62
     2
100
AcDbLine
 10
222.930075
 20
577.35
 30
0.0
 11
234.869925
 21
577.35
 31
0.0
  0
LINE
  5
45F
100
AcDbEntity
  8
LAY-2
  6
CONTINUOUS
 62
     2
100
AcDbLine
 10
235.865526
 20
577.35
 30
0.0
 11
244.65
 21
577.35
 31
0.0
  0
LINE
  5
460
100
AcDbEntity
  8
LAY-2
  6
CONTINUOUS
 62
     2
100
AcDbLine
 10
245.925
 20
577.35
 30
0.0
 11
255.975
 21
577.35
 31
0.0
  0
LINE
  5
461
100
AcDbEntity
  8
LAY-2
  6
CONTINUOUS
 62
     2
100
AcDbLine
 10
257.1
 20
577.35
 30
0.0
 11
259.896783
 21
577.35
 31
0.0
  0
LINE
  5
462
100
AcDbEntity
  8
LAY-2
  6
CONTINUOUS
 62
     2
100
AcDbLine
 10
264.9
 20
577.35
 30
0.0
 11
267.45
 21
577.35
 31
0.0
  0
LINE
  5
463
100
AcDbEntity
  8
LAY-2
  6
CONTINUOUS
 62
     2
100
AcDbLine
 10
210.15
 20
576.975
 30
0.0
 11
221.66706
 21
576.975
 31
0.0
  0
LINE
  5
464
100
AcDbEntity
  8
LAY-2
  6
CONTINUOUS
 62
     2
100
AcDbLine
 10
222.620121
 20
576.975
 30
0.0
 11
226.951443
 21
576.975
 31
0.0
  0
LINE
  5
465
100
AcDbEntity
  8
LAY-2
  6
CONTINUOUS
 62
     2
100
AcDbLine
 10
230.848557
 20
576.975
 30
0.0
 11
235.179879
 21
576.975
 31
0.0
  0
LINE
  5
466
100
AcDbEntity
  8
LAY-2
  6
CONTINUOUS
 62
     2
100
AcDbLine
 10
236.13294
 20
576.975
 30
0.0
 11
244.65
 21
576.975
 31
0.0
  0
LINE
  5
467
100
AcDbEntity
  8
LAY-2
  6
CONTINUOUS
 62
     2
100
AcDbLine
 10
245.925
 20
576.975
 30
0.0
 11
255.975
 21
576.975
 31
0.0
  0
LINE
  5
468
100
AcDbEntity
  8
LAY-2
  6
CONTINUOUS
 62
     2
100
AcDbLine
 10
257.1
 20
576.975
 30
0.0
 11
260.143566
 21
576.975
 31
0.0
  0
LINE
  5
469
100
AcDbEntity
  8
LAY-2
  6
CONTINUOUS
 62
     2
100
AcDbLine
 10
264.9
 20
576.975
 30
0.0
 11
267.45
 21
576.975
 31
0.0
  0
LINE
  5
46A
100
AcDbEntity
  8
LAY-2
  6
CONTINUOUS
 62
     2
100
AcDbLine
 10
210.15
 20
576.6
 30
0.0
 11
221.427982
 21
576.6
 31
0.0
  0
LINE
  5
46B
100
AcDbEntity
  8
LAY-2
  6
CONTINUOUS
 62
     2
100
AcDbLine
 10
222.346184
 20
576.6
 30
0.0
 11
226.195837
 21
576.6
 31
0.0
  0
LINE
  5
46C
100
AcDbEntity
  8
LAY-2
  6
CONTINUOUS
 62
     2
100
AcDbLine
 10
231.604163
 20
576.6
 30
0.0
 11
235.453816
 21
576.6
 31
0.0
  0
LINE
  5
46D
100
AcDbEntity
  8
LAY-2
  6
CONTINUOUS
 62
     2
100
AcDbLine
 10
236.372018
 20
576.6
 30
0.0
 11
244.65
 21
576.6
 31
0.0
  0
LINE
  5
46E
100
AcDbEntity
  8
LAY-2
  6
CONTINUOUS
 62
     2
100
AcDbLine
 10
245.925
 20
576.6
 30
0.0
 11
255.975
 21
576.6
 31
0.0
  0
LINE
  5
46F
100
AcDbEntity
  8
LAY-2
  6
CONTINUOUS
 62
     2
100
AcDbLine
 10
257.1
 20
576.6
 30
0.0
 11
260.390349
 21
576.6
 31
0.0
  0
LINE
  5
470
100
AcDbEntity
  8
LAY-2
  6
CONTINUOUS
 62
     2
100
AcDbLine
 10
264.9
 20
576.6
 30
0.0
 11
267.45
 21
576.6
 31
0.0
  0
LINE
  5
471
100
AcDbEntity
  8
LAY-2
  6
CONTINUOUS
 62
     2
100
AcDbLine
 10
210.15
 20
576.225
 30
0.0
 11
221.214597
 21
576.225
 31
0.0
  0
LINE
  5
472
100
AcDbEntity
  8
LAY-2
  6
CONTINUOUS
 62
     2
100
AcDbLine
 10
222.103907
 20
576.225
 30
0.0
 11
225.652405
 21
576.225
 31
0.0
  0
LINE
  5
473
100
AcDbEntity
  8
LAY-2
  6
CONTINUOUS
 62
     2
100
AcDbLine
 10
232.147595
 20
576.225
 30
0.0
 11
235.696093
 21
576.225
 31
0.0
  0
LINE
  5
474
100
AcDbEntity
  8
LAY-2
  6
CONTINUOUS
 62
     2
100
AcDbLine
 10
236.585403
 20
576.225
 30
0.0
 11
244.65
 21
576.225
 31
0.0
  0
LINE
  5
475
100
AcDbEntity
  8
LAY-2
  6
CONTINUOUS
 62
     2
100
AcDbLine
 10
245.925
 20
576.225
 30
0.0
 11
255.975
 21
576.225
 31
0.0
  0
LINE
  5
476
100
AcDbEntity
  8
LAY-2
  6
CONTINUOUS
 62
     2
100
AcDbLine
 10
257.1
 20
576.225
 30
0.0
 11
260.637132
 21
576.225
 31
0.0
  0
LINE
  5
477
100
AcDbEntity
  8
LAY-2
  6
CONTINUOUS
 62
     2
100
AcDbLine
 10
264.9
 20
576.225
 30
0.0
 11
267.45
 21
576.225
 31
0.0
  0
LINE
  5
478
100
AcDbEntity
  8
LAY-2
  6
CONTINUOUS
 62
     2
100
AcDbLine
 10
210.15
 20
575.85
 30
0.0
 11
221.024814
 21
575.85
 31
0.0
  0
LINE
  5
479
100
AcDbEntity
  8
LAY-2
  6
CONTINUOUS
 62
     2
100
AcDbLine
 10
221.890007
 20
575.85
 30
0.0
 11
225.225765
 21
575.85
 31
0.0
  0
LINE
  5
47A
100
AcDbEntity
  8
LAY-2
  6
CONTINUOUS
 62
     2
100
AcDbLine
 10
227.58162
 20
575.85
 30
0.0
 11
230.21838
 21
575.85
 31
0.0
  0
LINE
  5
47B
100
AcDbEntity
  8
LAY-2
  6
CONTINUOUS
 62
     2
100
AcDbLine
 10
232.574235
 20
575.85
 30
0.0
 11
235.909993
 21
575.85
 31
0.0
  0
LINE
  5
47C
100
AcDbEntity
  8
LAY-2
  6
CONTINUOUS
 62
     2
100
AcDbLine
 10
236.775186
 20
575.85
 30
0.0
 11
244.65
 21
575.85
 31
0.0
  0
LINE
  5
47D
100
AcDbEntity
  8
LAY-2
  6
CONTINUOUS
 62
     2
100
AcDbLine
 10
245.925
 20
575.85
 30
0.0
 11
255.975
 21
575.85
 31
0.0
  0
LINE
  5
47E
100
AcDbEntity
  8
LAY-2
  6
CONTINUOUS
 62
     2
100
AcDbLine
 10
257.1
 20
575.85
 30
0.0
 11
260.883915
 21
575.85
 31
0.0
  0
LINE
  5
47F
100
AcDbEntity
  8
LAY-2
  6
CONTINUOUS
 62
     2
100
AcDbLine
 10
264.9
 20
575.85
 30
0.0
 11
267.45
 21
575.85
 31
0.0
  0
LINE
  5
480
100
AcDbEntity
  8
LAY-2
  6
CONTINUOUS
 62
     2
100
AcDbLine
 10
210.15
 20
575.475
 30
0.0
 11
220.856964
 21
575.475
 31
0.0
  0
LINE
  5
481
100
AcDbEntity
  8
LAY-2
  6
CONTINUOUS
 62
     2
100
AcDbLine
 10
221.701953
 20
575.475
 30
0.0
 11
224.878573
 21
575.475
 31
0.0
  0
LINE
  5
482
100
AcDbEntity
  8
LAY-2
  6
CONTINUOUS
 62
     2
100
AcDbLine
 10
226.8
 20
575.475
 30
0.0
 11
231.0
 21
575.475
 31
0.0
  0
LINE
  5
483
100
AcDbEntity
  8
LAY-2
  6
CONTINUOUS
 62
     2
100
AcDbLine
 10
232.921427
 20
575.475
 30
0.0
 11
236.098047
 21
575.475
 31
0.0
  0
LINE
  5
484
100
AcDbEntity
  8
LAY-2
  6
CONTINUOUS
 62
     2
100
AcDbLine
 10
236.943036
 20
575.475
 30
0.0
 11
244.65
 21
575.475
 31
0.0
  0
LINE
  5
485
100
AcDbEntity
  8
LAY-2
  6
CONTINUOUS
 62
     2
100
AcDbLine
 10
245.925
 20
575.475
 30
0.0
 11
255.975
 21
575.475
 31
0.0
  0
LINE
  5
486
100
AcDbEntity
  8
LAY-2
  6
CONTINUOUS
 62
     2
100
AcDbLine
 10
257.1
 20
575.475
 30
0.0
 11
261.130699
 21
575.475
 31
0.0
  0
LINE
  5
487
100
AcDbEntity
  8
LAY-2
  6
CONTINUOUS
 62
     2
100
AcDbLine
 10
264.9
 20
575.475
 30
0.0
 11
267.45
 21
575.475
 31
0.0
  0
LINE
  5
488
100
AcDbEntity
  8
LAY-2
  6
CONTINUOUS
 62
     2
100
AcDbLine
 10
215.4
 20
575.1
 30
0.0
 11
218.025
 21
575.1
 31
0.0
  0
LINE
  5
489
100
AcDbEntity
  8
LAY-2
  6
CONTINUOUS
 62
     2
100
AcDbLine
 10
221.537765
 20
575.1
 30
0.0
 11
224.591578
 21
575.1
 31
0.0
  0
LINE
  5
48A
100
AcDbEntity
  8
LAY-2
  6
CONTINUOUS
 62
     2
100
AcDbLine
 10
226.292199
 20
575.1
 30
0.0
 11
231.507801
 21
575.1
 31
0.0
  0
LINE
  5
48B
100
AcDbEntity
  8
LAY-2
  6
CONTINUOUS
 62
     2
100
AcDbLine
 10
233.208422
 20
575.1
 30
0.0
 11
236.262235
 21
575.1
 31
0.0
  0
LINE
  5
48C
100
AcDbEntity
  8
LAY-2
  6
CONTINUOUS
 62
     2
100
AcDbLine
 10
241.757281
 20
575.1
 30
0.0
 11
244.65
 21
575.1
 31
0.0
  0
LINE
  5
48D
100
AcDbEntity
  8
LAY-2
  6
CONTINUOUS
 62
     2
100
AcDbLine
 10
245.925
 20
575.1
 30
0.0
 11
248.55
 21
575.1
 31
0.0
  0
LINE
  5
48E
100
AcDbEntity
  8
LAY-2
  6
CONTINUOUS
 62
     2
100
AcDbLine
 10
257.1
 20
575.1
 30
0.0
 11
261.377482
 21
575.1
 31
0.0
  0
LINE
  5
48F
100
AcDbEntity
  8
LAY-2
  6
CONTINUOUS
 62
     2
100
AcDbLine
 10
264.9
 20
575.1
 30
0.0
 11
267.45
 21
575.1
 31
0.0
  0
LINE
  5
490
100
AcDbEntity
  8
LAY-2
  6
CONTINUOUS
 62
     2
100
AcDbLine
 10
215.4
 20
574.725
 30
0.0
 11
218.025
 21
574.725
 31
0.0
  0
LINE
  5
491
100
AcDbEntity
  8
LAY-2
  6
CONTINUOUS
 62
     2
100
AcDbLine
 10
221.395876
 20
574.725
 30
0.0
 11
224.353367
 21
574.725
 31
0.0
  0
LINE
  5
492
100
AcDbEntity
  8
LAY-2
  6
CONTINUOUS
 62
     2
100
AcDbLine
 10
225.915038
 20
574.725
 30
0.0
 11
231.884962
 21
574.725
 31
0.0
  0
LINE
  5
493
100
AcDbEntity
  8
LAY-2
  6
CONTINUOUS
 62
     2
100
AcDbLine
 10
233.446633
 20
574.725
 30
0.0
 11
236.404124
 21
574.725
 31
0.0
  0
LINE
  5
494
100
AcDbEntity
  8
LAY-2
  6
CONTINUOUS
 62
     2
100
AcDbLine
 10
241.419218
 20
574.725
 30
0.0
 11
244.311938
 21
574.725
 31
0.0
  0
LINE
  5
495
100
AcDbEntity
  8
LAY-2
  6
CONTINUOUS
 62
     2
100
AcDbLine
 10
245.925
 20
574.725
 30
0.0
 11
248.55
 21
574.725
 31
0.0
  0
LINE
  5
496
100
AcDbEntity
  8
LAY-2
  6
CONTINUOUS
 62
     2
100
AcDbLine
 10
257.1
 20
574.725
 30
0.0
 11
261.624265
 21
574.725
 31
0.0
  0
LINE
  5
497
100
AcDbEntity
  8
LAY-2
  6
CONTINUOUS
 62
     2
100
AcDbLine
 10
264.9
 20
574.725
 30
0.0
 11
267.45
 21
574.725
 31
0.0
  0
LINE
  5
498
100
AcDbEntity
  8
LAY-2
  6
CONTINUOUS
 62
     2
100
AcDbLine
 10
215.4
 20
574.35
 30
0.0
 11
218.025
 21
574.35
 31
0.0
  0
LINE
  5
499
100
AcDbEntity
  8
LAY-2
  6
CONTINUOUS
 62
     2
100
AcDbLine
 10
221.275041
 20
574.35
 30
0.0
 11
224.156584
 21
574.35
 31
0.0
  0
LINE
  5
49A
100
AcDbEntity
  8
LAY-2
  6
CONTINUOUS
 62
     2
100
AcDbLine
 10
225.623092
 20
574.35
 30
0.0
 11
232.176908
 21
574.35
 31
0.0
  0
LINE
  5
49B
100
AcDbEntity
  8
LAY-2
  6
CONTINUOUS
 62
     2
100
AcDbLine
 10
233.643416
 20
574.35
 30
0.0
 11
236.524959
 21
574.35
 31
0.0
  0
LINE
  5
49C
100
AcDbEntity
  8
LAY-2
  6
CONTINUOUS
 62
     2
100
AcDbLine
 10
241.081156
 20
574.35
 30
0.0
 11
243.973876
 21
574.35
 31
0.0
  0
LINE
  5
49D
100
AcDbEntity
  8
LAY-2
  6
CONTINUOUS
 62
     2
100
AcDbLine
 10
245.925
 20
574.35
 30
0.0
 11
248.55
 21
574.35
 31
0.0
  0
LINE
  5
49E
100
AcDbEntity
  8
LAY-2
  6
CONTINUOUS
 62
     2
100
AcDbLine
 10
257.1
 20
574.35
 30
0.0
 11
259.65
 21
574.35
 31
0.0
  0
LINE
  5
49F
100
AcDbEntity
  8
LAY-2
  6
CONTINUOUS
 62
     2
100
AcDbLine
 10
259.717555
 20
574.35
 30
0.0
 11
261.871048
 21
574.35
 31
0.0
  0
LINE
  5
4A0
100
AcDbEntity
  8
LAY-2
  6
CONTINUOUS
 62
     2
100
AcDbLine
 10
264.9
 20
574.35
 30
0.0
 11
267.45
 21
574.35
 31
0.0
  0
LINE
  5
4A1
100
AcDbEntity
  8
LAY-2
  6
CONTINUOUS
 62
     2
100
AcDbLine
 10
215.4
 20
573.975
 30
0.0
 11
218.025
 21
573.975
 31
0.0
  0
LINE
  5
4A2
100
AcDbEntity
  8
LAY-2
  6
CONTINUOUS
 62
     2
100
AcDbLine
 10
221.174272
 20
573.975
 30
0.0
 11
223.996239
 21
573.975
 31
0.0
  0
LINE
  5
4A3
100
AcDbEntity
  8
LAY-2
  6
CONTINUOUS
 62
     2
100
AcDbLine
 10
225.395004
 20
573.975
 30
0.0
 11
232.404996
 21
573.975
 31
0.0
  0
LINE
  5
4A4
100
AcDbEntity
  8
LAY-2
  6
CONTINUOUS
 62
     2
100
AcDbLine
 10
233.803761
 20
573.975
 30
0.0
 11
236.625728
 21
573.975
 31
0.0
  0
LINE
  5
4A5
100
AcDbEntity
  8
LAY-2
  6
CONTINUOUS
 62
     2
100
AcDbLine
 10
240.743094
 20
573.975
 30
0.0
 11
243.635814
 21
573.975
 31
0.0
  0
LINE
  5
4A6
100
AcDbEntity
  8
LAY-2
  6
CONTINUOUS
 62
     2
100
AcDbLine
 10
245.925
 20
573.975
 30
0.0
 11
248.55
 21
573.975
 31
0.0
  0
LINE
  5
4A7
100
AcDbEntity
  8
LAY-2
  6
CONTINUOUS
 62
     2
100
AcDbLine
 10
257.1
 20
573.975
 30
0.0
 11
259.65
 21
573.975
 31
0.0
  0
LINE
  5
4A8
100
AcDbEntity
  8
LAY-2
  6
CONTINUOUS
 62
     2
100
AcDbLine
 10
259.964338
 20
573.975
 30
0.0
 11
262.117831
 21
573.975
 31
0.0
  0
LINE
  5
4A9
100
AcDbEntity
  8
LAY-2
  6
CONTINUOUS
 62
     2
100
AcDbLine
 10
264.9
 20
573.975
 30
0.0
 11
267.45
 21
573.975
 31
0.0
  0
LINE
  5
4AA
100
AcDbEntity
  8
LAY-2
  6
CONTINUOUS
 62
     2
100
AcDbLine
 10
215.4
 20
573.6
 30
0.0
 11
218.025
 21
573.6
 31
0.0
  0
LINE
  5
4AB
100
AcDbEntity
  8
LAY-2
  6
CONTINUOUS
 62
     2
100
AcDbLine
 10
221.092792
 20
573.6
 30
0.0
 11
223.868847
 21
573.6
 31
0.0
  0
LINE
  5
4AC
100
AcDbEntity
  8
LAY-2
  6
CONTINUOUS
 62
     2
100
AcDbLine
 10
225.218883
 20
573.6
 30
0.0
 11
232.581117
 21
573.6
 31
0.0
  0
LINE
  5
4AD
100
AcDbEntity
  8
LAY-2
  6
CONTINUOUS
 62
     2
100
AcDbLine
 10
233.931153
 20
573.6
 30
0.0
 11
236.707208
 21
573.6
 31
0.0
  0
LINE
  5
4AE
100
AcDbEntity
  8
LAY-2
  6
CONTINUOUS
 62
     2
100
AcDbLine
 10
240.405032
 20
573.6
 30
0.0
 11
243.297752
 21
573.6
 31
0.0
  0
LINE
  5
4AF
100
AcDbEntity
  8
LAY-2
  6
CONTINUOUS
 62
     2
100
AcDbLine
 10
245.925
 20
573.6
 30
0.0
 11
248.55
 21
573.6
 31
0.0
  0
LINE
  5
4B0
100
AcDbEntity
  8
LAY-2
  6
CONTINUOUS
 62
     2
100
AcDbLine
 10
257.1
 20
573.6
 30
0.0
 11
259.65
 21
573.6
 31
0.0
  0
LINE
  5
4B1
100
AcDbEntity
  8
LAY-2
  6
CONTINUOUS
 62
     2
100
AcDbLine
 10
260.211121
 20
573.6
 30
0.0
 11
262.364614
 21
573.6
 31
0.0
  0
LINE
  5
4B2
100
AcDbEntity
  8
LAY-2
  6
CONTINUOUS
 62
     2
100
AcDbLine
 10
264.9
 20
573.6
 30
0.0
 11
267.45
 21
573.6
 31
0.0
  0
LINE
  5
4B3
100
AcDbEntity
  8
LAY-2
  6
CONTINUOUS
 62
     2
100
AcDbLine
 10
215.4
 20
573.225
 30
0.0
 11
218.025
 21
573.225
 31
0.0
  0
LINE
  5
4B4
100
AcDbEntity
  8
LAY-2
  6
CONTINUOUS
 62
     2
100
AcDbLine
 10
221.030002
 20
573.225
 30
0.0
 11
223.771952
 21
573.225
 31
0.0
  0
LINE
  5
4B5
100
AcDbEntity
  8
LAY-2
  6
CONTINUOUS
 62
     2
100
AcDbLine
 10
225.08752
 20
573.225
 30
0.0
 11
232.71248
 21
573.225
 31
0.0
  0
LINE
  5
4B6
100
AcDbEntity
  8
LAY-2
  6
CONTINUOUS
 62
     2
100
AcDbLine
 10
234.028048
 20
573.225
 30
0.0
 11
236.769998
 21
573.225
 31
0.0
  0
LINE
  5
4B7
100
AcDbEntity
  8
LAY-2
  6
CONTINUOUS
 62
     2
100
AcDbLine
 10
240.06697
 20
573.225
 30
0.0
 11
242.95969
 21
573.225
 31
0.0
  0
LINE
  5
4B8
100
AcDbEntity
  8
LAY-2
  6
CONTINUOUS
 62
     2
100
AcDbLine
 10
245.925
 20
573.225
 30
0.0
 11
255.975
 21
573.225
 31
0.0
  0
LINE
  5
4B9
100
AcDbEntity
  8
LAY-2
  6
CONTINUOUS
 62
     2
100
AcDbLine
 10
257.1
 20
573.225
 30
0.0
 11
259.65
 21
573.225
 31
0.0
  0
LINE
  5
4BA
100
AcDbEntity
  8
LAY-2
  6
CONTINUOUS
 62
     2
100
AcDbLine
 10
260.457904
 20
573.225
 30
0.0
 11
262.611397
 21
573.225
 31
0.0
  0
LINE
  5
4BB
100
AcDbEntity
  8
LAY-2
  6
CONTINUOUS
 62
     2
100
AcDbLine
 10
264.9
 20
573.225
 30
0.0
 11
267.45
 21
573.225
 31
0.0
  0
LINE
  5
4BC
100
AcDbEntity
  8
LAY-2
  6
CONTINUOUS
 62
     2
100
AcDbLine
 10
215.4
 20
572.85
 30
0.0
 11
218.025
 21
572.85
 31
0.0
  0
LINE
  5
4BD
100
AcDbEntity
  8
LAY-2
  6
CONTINUOUS
 62
     2
100
AcDbLine
 10
220.985456
 20
572.85
 30
0.0
 11
223.703848
 21
572.85
 31
0.0
  0
LINE
  5
4BE
100
AcDbEntity
  8
LAY-2
  6
CONTINUOUS
 62
     2
100
AcDbLine
 10
224.996396
 20
572.85
 30
0.0
 11
232.803604
 21
572.85
 31
0.0
  0
LINE
  5
4BF
100
AcDbEntity
  8
LAY-2
  6
CONTINUOUS
 62
     2
100
AcDbLine
 10
234.096152
 20
572.85
 30
0.0
 11
236.814544
 21
572.85
 31
0.0
  0
LINE
  5
4C0
100
AcDbEntity
  8
LAY-2
  6
CONTINUOUS
 62
     2
100
AcDbLine
 10
239.728908
 20
572.85
 30
0.0
 11
242.621627
 21
572.85
 31
0.0
  0
LINE
  5
4C1
100
AcDbEntity
  8
LAY-2
  6
CONTINUOUS
 62
     2
100
AcDbLine
 10
245.925
 20
572.85
 30
0.0
 11
255.975
 21
572.85
 31
0.0
  0
LINE
  5
4C2
100
AcDbEntity
  8
LAY-2
  6
CONTINUOUS
 62
     2
100
AcDbLine
 10
257.1
 20
572.85
 30
0.0
 11
259.65
 21
572.85
 31
0.0
  0
LINE
  5
4C3
100
AcDbEntity
  8
LAY-2
  6
CONTINUOUS
 62
     2
100
AcDbLine
 10
260.704687
 20
572.85
 30
0.0
 11
262.85818
 21
572.85
 31
0.0
  0
LINE
  5
4C4
100
AcDbEntity
  8
LAY-2
  6
CONTINUOUS
 62
     2
100
AcDbLine
 10
264.9
 20
572.85
 30
0.0
 11
267.45
 21
572.85
 31
0.0
  0
LINE
  5
4C5
100
AcDbEntity
  8
LAY-2
  6
CONTINUOUS
 62
     2
100
AcDbLine
 10
215.4
 20
572.475
 30
0.0
 11
218.025
 21
572.475
 31
0.0
  0
LINE
  5
4C6
100
AcDbEntity
  8
LAY-2
  6
CONTINUOUS
 62
     2
100
AcDbLine
 10
220.958849
 20
572.475
 30
0.0
 11
223.66341
 21
572.475
 31
0.0
  0
LINE
  5
4C7
100
AcDbEntity
  8
LAY-2
  6
CONTINUOUS
 62
     2
100
AcDbLine
 10
224.942728
 20
572.475
 30
0.0
 11
232.857272
 21
572.475
 31
0.0
  0
LINE
  5
4C8
100
AcDbEntity
  8
LAY-2
  6
CONTINUOUS
 62
     2
100
AcDbLine
 10
234.13659
 20
572.475
 30
0.0
 11
236.841151
 21
572.475
 31
0.0
  0
LINE
  5
4C9
100
AcDbEntity
  8
LAY-2
  6
CONTINUOUS
 62
     2
100
AcDbLine
 10
239.390846
 20
572.475
 30
0.0
 11
242.283565
 21
572.475
 31
0.0
  0
LINE
  5
4CA
100
AcDbEntity
  8
LAY-2
  6
CONTINUOUS
 62
     2
100
AcDbLine
 10
245.925
 20
572.475
 30
0.0
 11
255.975
 21
572.475
 31
0.0
  0
LINE
  5
4CB
100
AcDbEntity
  8
LAY-2
  6
CONTINUOUS
 62
     2
100
AcDbLine
 10
257.1
 20
572.475
 30
0.0
 11
259.65
 21
572.475
 31
0.0
  0
LINE
  5
4CC
100
AcDbEntity
  8
LAY-2
  6
CONTINUOUS
 62
     2
100
AcDbLine
 10
260.951471
 20
572.475
 30
0.0
 11
263.104963
 21
572.475
 31
0.0
  0
LINE
  5
4CD
100
AcDbEntity
  8
LAY-2
  6
CONTINUOUS
 62
     2
100
AcDbLine
 10
264.9
 20
572.475
 30
0.0
 11
267.45
 21
572.475
 31
0.0
  0
LINE
  5
4CE
100
AcDbEntity
  8
LAY-2
  6
CONTINUOUS
 62
     2
100
AcDbLine
 10
215.4
 20
572.1
 30
0.0
 11
218.025
 21
572.1
 31
0.0
  0
LINE
  5
4CF
100
AcDbEntity
  8
LAY-2
  6
CONTINUOUS
 62
     2
100
AcDbLine
 10
220.95
 20
572.1
 30
0.0
 11
223.65
 21
572.1
 31
0.0
  0
LINE
  5
4D0
100
AcDbEntity
  8
LAY-2
  6
CONTINUOUS
 62
     2
100
AcDbLine
 10
224.925
 20
572.1
 30
0.0
 11
232.875
 21
572.1
 31
0.0
  0
LINE
  5
4D1
100
AcDbEntity
  8
LAY-2
  6
CONTINUOUS
 62
     2
100
AcDbLine
 10
234.15
 20
572.1
 30
0.0
 11
236.85
 21
572.1
 31
0.0
  0
LINE
  5
4D2
100
AcDbEntity
  8
LAY-2
  6
CONTINUOUS
 62
     2
100
AcDbLine
 10
239.052784
 20
572.1
 30
0.0
 11
241.945503
 21
572.1
 31
0.0
  0
LINE
  5
4D3
100
AcDbEntity
  8
LAY-2
  6
CONTINUOUS
 62
     2
100
AcDbLine
 10
245.925
 20
572.1
 30
0.0
 11
255.975
 21
572.1
 31
0.0
  0
LINE
  5
4D4
100
AcDbEntity
  8
LAY-2
  6
CONTINUOUS
 62
     2
100
AcDbLine
 10
257.1
 20
572.1
 30
0.0
 11
259.65
 21
572.1
 31
0.0
  0
LINE
  5
4D5
100
AcDbEntity
  8
LAY-2
  6
CONTINUOUS
 62
     2
100
AcDbLine
 10
261.198254
 20
572.1
 30
0.0
 11
263.351746
 21
572.1
 31
0.0
  0
LINE
  5
4D6
100
AcDbEntity
  8
LAY-2
  6
CONTINUOUS
 62
     2
100
AcDbLine
 10
264.9
 20
572.1
 30
0.0
 11
267.45
 21
572.1
 31
0.0
  0
LINE
  5
4D7
100
AcDbEntity
  8
LAY-2
  6
CONTINUOUS
 62
     2
100
AcDbLine
 10
215.4
 20
571.725
 30
0.0
 11
218.025
 21
571.725
 31
0.0
  0
LINE
  5
4D8
100
AcDbEntity
  8
LAY-2
  6
CONTINUOUS
 62
     2
100
AcDbLine
 10
220.958849
 20
571.725
 30
0.0
 11
223.66341
 21
571.725
 31
0.0
  0
LINE
  5
4D9
100
AcDbEntity
  8
LAY-2
  6
CONTINUOUS
 62
     2
100
AcDbLine
 10
224.942728
 20
571.725
 30
0.0
 11
232.857272
 21
571.725
 31
0.0
  0
LINE
  5
4DA
100
AcDbEntity
  8
LAY-2
  6
CONTINUOUS
 62
     2
100
AcDbLine
 10
234.13659
 20
571.725
 30
0.0
 11
236.841151
 21
571.725
 31
0.0
  0
LINE
  5
4DB
100
AcDbEntity
  8
LAY-2
  6
CONTINUOUS
 62
     2
100
AcDbLine
 10
238.714722
 20
571.725
 30
0.0
 11
241.607441
 21
571.725
 31
0.0
  0
LINE
  5
4DC
100
AcDbEntity
  8
LAY-2
  6
CONTINUOUS
 62
     2
100
AcDbLine
 10
245.925
 20
571.725
 30
0.0
 11
255.975
 21
571.725
 31
0.0
  0
LINE
  5
4DD
100
AcDbEntity
  8
LAY-2
  6
CONTINUOUS
 62
     2
100
AcDbLine
 10
257.1
 20
571.725
 30
0.0
 11
259.65
 21
571.725
 31
0.0
  0
LINE
  5
4DE
100
AcDbEntity
  8
LAY-2
  6
CONTINUOUS
 62
     2
100
AcDbLine
 10
261.445037
 20
571.725
 30
0.0
 11
263.598529
 21
571.725
 31
0.0
  0
LINE
  5
4DF
100
AcDbEntity
  8
LAY-2
  6
CONTINUOUS
 62
     2
100
AcDbLine
 10
264.9
 20
571.725
 30
0.0
 11
267.45
 21
571.725
 31
0.0
  0
LINE
  5
4E0
100
AcDbEntity
  8
LAY-2
  6
CONTINUOUS
 62
     2
100
AcDbLine
 10
215.4
 20
571.35
 30
0.0
 11
218.025
 21
571.35
 31
0.0
  0
LINE
  5
4E1
100
AcDbEntity
  8
LAY-2
  6
CONTINUOUS
 62
     2
100
AcDbLine
 10
220.985456
 20
571.35
 30
0.0
 11
223.703848
 21
571.35
 31
0.0
  0
LINE
  5
4E2
100
AcDbEntity
  8
LAY-2
  6
CONTINUOUS
 62
     2
100
AcDbLine
 10
224.996396
 20
571.35
 30
0.0
 11
232.803604
 21
571.35
 31
0.0
  0
LINE
  5
4E3
100
AcDbEntity
  8
LAY-2
  6
CONTINUOUS
 62
     2
100
AcDbLine
 10
234.096152
 20
571.35
 30
0.0
 11
236.814544
 21
571.35
 31
0.0
  0
LINE
  5
4E4
100
AcDbEntity
  8
LAY-2
  6
CONTINUOUS
 62
     2
100
AcDbLine
 10
238.37666
 20
571.35
 30
0.0
 11
241.269379
 21
571.35
 31
0.0
  0
LINE
  5
4E5
100
AcDbEntity
  8
LAY-2
  6
CONTINUOUS
 62
     2
100
AcDbLine
 10
245.925
 20
571.35
 30
0.0
 11
255.975
 21
571.35
 31
0.0
  0
LINE
  5
4E6
100
AcDbEntity
  8
LAY-2
  6
CONTINUOUS
 62
     2
100
AcDbLine
 10
257.1
 20
571.35
 30
0.0
 11
259.65
 21
571.35
 31
0.0
  0
LINE
  5
4E7
100
AcDbEntity
  8
LAY-2
  6
CONTINUOUS
 62
     2
100
AcDbLine
 10
261.69182
 20
571.35
 30
0.0
 11
263.845312
 21
571.35
 31
0.0
  0
LINE
  5
4E8
100
AcDbEntity
  8
LAY-2
  6
CONTINUOUS
 62
     2
100
AcDbLine
 10
264.9
 20
571.35
 30
0.0
 11
267.45
 21
571.35
 31
0.0
  0
LINE
  5
4E9
100
AcDbEntity
  8
LAY-2
  6
CONTINUOUS
 62
     2
100
AcDbLine
 10
215.4
 20
570.975
 30
0.0
 11
218.025
 21
570.975
 31
0.0
  0
LINE
  5
4EA
100
AcDbEntity
  8
LAY-2
  6
CONTINUOUS
 62
     2
100
AcDbLine
 10
221.030002
 20
570.975
 30
0.0
 11
223.771952
 21
570.975
 31
0.0
  0
LINE
  5
4EB
100
AcDbEntity
  8
LAY-2
  6
CONTINUOUS
 62
     2
100
AcDbLine
 10
225.08752
 20
570.975
 30
0.0
 11
232.71248
 21
570.975
 31
0.0
  0
LINE
  5
4EC
100
AcDbEntity
  8
LAY-2
  6
CONTINUOUS
 62
     2
100
AcDbLine
 10
234.028048
 20
570.975
 30
0.0
 11
236.769998
 21
570.975
 31
0.0
  0
LINE
  5
4ED
100
AcDbEntity
  8
LAY-2
  6
CONTINUOUS
 62
     2
100
AcDbLine
 10
238.038597
 20
570.975
 30
0.0
 11
240.931317
 21
570.975
 31
0.0
  0
LINE
  5
4EE
100
AcDbEntity
  8
LAY-2
  6
CONTINUOUS
 62
     2
100
AcDbLine
 10
245.925
 20
570.975
 30
0.0
 11
248.55
 21
570.975
 31
0.0
  0
LINE
  5
4EF
100
AcDbEntity
  8
LAY-2
  6
CONTINUOUS
 62
     2
100
AcDbLine
 10
257.1
 20
570.975
 30
0.0
 11
259.65
 21
570.975
 31
0.0
  0
LINE
  5
4F0
100
AcDbEntity
  8
LAY-2
  6
CONTINUOUS
 62
     2
100
AcDbLine
 10
261.938603
 20
570.975
 30
0.0
 11
264.092096
 21
570.975
 31
0.0
  0
LINE
  5
4F1
100
AcDbEntity
  8
LAY-2
  6
CONTINUOUS
 62
     2
100
AcDbLine
 10
264.9
 20
570.975
 30
0.0
 11
267.45
 21
570.975
 31
0.0
  0
LINE
  5
4F2
100
AcDbEntity
  8
LAY-2
  6
CONTINUOUS
 62
     2
100
AcDbLine
 10
215.4
 20
570.6
 30
0.0
 11
218.025
 21
570.6
 31
0.0
  0
LINE
  5
4F3
100
AcDbEntity
  8
LAY-2
  6
CONTINUOUS
 62
     2
100
AcDbLine
 10
221.092792
 20
570.6
 30
0.0
 11
223.868847
 21
570.6
 31
0.0
  0
LINE
  5
4F4
100
AcDbEntity
  8
LAY-2
  6
CONTINUOUS
 62
     2
100
AcDbLine
 10
225.218883
 20
570.6
 30
0.0
 11
232.581117
 21
570.6
 31
0.0
  0
LINE
  5
4F5
100
AcDbEntity
  8
LAY-2
  6
CONTINUOUS
 62
     2
100
AcDbLine
 10
233.931153
 20
570.6
 30
0.0
 11
236.707208
 21
570.6
 31
0.0
  0
LINE
  5
4F6
100
AcDbEntity
  8
LAY-2
  6
CONTINUOUS
 62
     2
100
AcDbLine
 10
237.700535
 20
570.6
 30
0.0
 11
240.593255
 21
570.6
 31
0.0
  0
LINE
  5
4F7
100
AcDbEntity
  8
LAY-2
  6
CONTINUOUS
 62
     2
100
AcDbLine
 10
245.925
 20
570.6
 30
0.0
 11
248.55
 21
570.6
 31
0.0
  0
LINE
  5
4F8
100
AcDbEntity
  8
LAY-2
  6
CONTINUOUS
 62
     2
100
AcDbLine
 10
257.1
 20
570.6
 30
0.0
 11
259.65
 21
570.6
 31
0.0
  0
LINE
  5
4F9
100
AcDbEntity
  8
LAY-2
  6
CONTINUOUS
 62
     2
100
AcDbLine
 10
262.185386
 20
570.6
 30
0.0
 11
264.338879
 21
570.6
 31
0.0
  0
LINE
  5
4FA
100
AcDbEntity
  8
LAY-2
  6
CONTINUOUS
 62
     2
100
AcDbLine
 10
264.9
 20
570.6
 30
0.0
 11
267.45
 21
570.6
 31
0.0
  0
LINE
  5
4FB
100
AcDbEntity
  8
LAY-2
  6
CONTINUOUS
 62
     2
100
AcDbLine
 10
215.4
 20
570.225
 30
0.0
 11
218.025
 21
570.225
 31
0.0
  0
LINE
  5
4FC
100
AcDbEntity
  8
LAY-2
  6
CONTINUOUS
 62
     2
100
AcDbLine
 10
221.174272
 20
570.225
 30
0.0
 11
223.996239
 21
570.225
 31
0.0
  0
LINE
  5
4FD
100
AcDbEntity
  8
LAY-2
  6
CONTINUOUS
 62
     2
100
AcDbLine
 10
225.395004
 20
570.225
 30
0.0
 11
232.404996
 21
570.225
 31
0.0
  0
LINE
  5
4FE
100
AcDbEntity
  8
LAY-2
  6
CONTINUOUS
 62
     2
100
AcDbLine
 10
233.803761
 20
570.225
 30
0.0
 11
236.625728
 21
570.225
 31
0.0
  0
LINE
  5
4FF
100
AcDbEntity
  8
LAY-2
  6
CONTINUOUS
 62
     2
100
AcDbLine
 10
237.418534
 20
570.225
 30
0.0
 11
240.255193
 21
570.225
 31
0.0
  0
LINE
  5
500
100
AcDbEntity
  8
LAY-2
  6
CONTINUOUS
 62
     2
100
AcDbLine
 10
245.925
 20
570.225
 30
0.0
 11
248.55
 21
570.225
 31
0.0
  0
LINE
  5
501
100
AcDbEntity
  8
LAY-2
  6
CONTINUOUS
 62
     2
100
AcDbLine
 10
257.1
 20
570.225
 30
0.0
 11
259.65
 21
570.225
 31
0.0
  0
LINE
  5
502
100
AcDbEntity
  8
LAY-2
  6
CONTINUOUS
 62
     2
100
AcDbLine
 10
262.432169
 20
570.225
 30
0.0
 11
264.585662
 21
570.225
 31
0.0
  0
LINE
  5
503
100
AcDbEntity
  8
LAY-2
  6
CONTINUOUS
 62
     2
100
AcDbLine
 10
264.9
 20
570.225
 30
0.0
 11
267.45
 21
570.225
 31
0.0
  0
LINE
  5
504
100
AcDbEntity
  8
LAY-2
  6
CONTINUOUS
 62
     2
100
AcDbLine
 10
215.4
 20
569.85
 30
0.0
 11
218.025
 21
569.85
 31
0.0
  0
LINE
  5
505
100
AcDbEntity
  8
LAY-2
  6
CONTINUOUS
 62
     2
100
AcDbLine
 10
221.275041
 20
569.85
 30
0.0
 11
224.156584
 21
569.85
 31
0.0
  0
LINE
  5
506
100
AcDbEntity
  8
LAY-2
  6
CONTINUOUS
 62
     2
100
AcDbLine
 10
225.623092
 20
569.85
 30
0.0
 11
232.176908
 21
569.85
 31
0.0
  0
LINE
  5
507
100
AcDbEntity
  8
LAY-2
  6
CONTINUOUS
 62
     2
100
AcDbLine
 10
233.643416
 20
569.85
 30
0.0
 11
236.524959
 21
569.85
 31
0.0
  0
LINE
  5
508
100
AcDbEntity
  8
LAY-2
  6
CONTINUOUS
 62
     2
100
AcDbLine
 10
237.32725
 20
569.85
 30
0.0
 11
239.917131
 21
569.85
 31
0.0
  0
LINE
  5
509
100
AcDbEntity
  8
LAY-2
  6
CONTINUOUS
 62
     2
100
AcDbLine
 10
245.925
 20
569.85
 30
0.0
 11
248.55
 21
569.85
 31
0.0
  0
LINE
  5
50A
100
AcDbEntity
  8
LAY-2
  6
CONTINUOUS
 62
     2
100
AcDbLine
 10
257.1
 20
569.85
 30
0.0
 11
259.65
 21
569.85
 31
0.0
  0
LINE
  5
50B
100
AcDbEntity
  8
LAY-2
  6
CONTINUOUS
 62
     2
100
AcDbLine
 10
262.678952
 20
569.85
 30
0.0
 11
264.832445
 21
569.85
 31
0.0
  0
LINE
  5
50C
100
AcDbEntity
  8
LAY-2
  6
CONTINUOUS
 62
     2
100
AcDbLine
 10
264.9
 20
569.85
 30
0.0
 11
267.45
 21
569.85
 31
0.0
  0
LINE
  5
50D
100
AcDbEntity
  8
LAY-2
  6
CONTINUOUS
 62
     2
100
AcDbLine
 10
215.4
 20
569.475
 30
0.0
 11
218.025
 21
569.475
 31
0.0
  0
LINE
  5
50E
100
AcDbEntity
  8
LAY-2
  6
CONTINUOUS
 62
     2
100
AcDbLine
 10
221.395876
 20
569.475
 30
0.0
 11
224.353367
 21
569.475
 31
0.0
  0
LINE
  5
50F
100
AcDbEntity
  8
LAY-2
  6
CONTINUOUS
 62
     2
100
AcDbLine
 10
225.915038
 20
569.475
 30
0.0
 11
231.884962
 21
569.475
 31
0.0
  0
LINE
  5
510
100
AcDbEntity
  8
LAY-2
  6
CONTINUOUS
 62
     2
100
AcDbLine
 10
233.446633
 20
569.475
 30
0.0
 11
236.404124
 21
569.475
 31
0.0
  0
LINE
  5
511
100
AcDbEntity
  8
LAY-2
  6
CONTINUOUS
 62
     2
100
AcDbLine
 10
237.218078
 20
569.475
 30
0.0
 11
239.579069
 21
569.475
 31
0.0
  0
LINE
  5
512
100
AcDbEntity
  8
LAY-2
  6
CONTINUOUS
 62
     2
100
AcDbLine
 10
245.925
 20
569.475
 30
0.0
 11
248.55
 21
569.475
 31
0.0
  0
LINE
  5
513
100
AcDbEntity
  8
LAY-2
  6
CONTINUOUS
 62
     2
100
AcDbLine
 10
257.1
 20
569.475
 30
0.0
 11
259.65
 21
569.475
 31
0.0
  0
LINE
  5
514
100
AcDbEntity
  8
LAY-2
  6
CONTINUOUS
 62
     2
100
AcDbLine
 10
262.925735
 20
569.475
 30
0.0
 11
267.45
 21
569.475
 31
0.0
  0
LINE
  5
515
100
AcDbEntity
  8
LAY-2
  6
CONTINUOUS
 62
     2
100
AcDbLine
 10
215.4
 20
569.1
 30
0.0
 11
218.025
 21
569.1
 31
0.0
  0
LINE
  5
516
100
AcDbEntity
  8
LAY-2
  6
CONTINUOUS
 62
     2
100
AcDbLine
 10
221.537765
 20
569.1
 30
0.0
 11
224.591578
 21
569.1
 31
0.0
  0
LINE
  5
517
100
AcDbEntity
  8
LAY-2
  6
CONTINUOUS
 62
     2
100
AcDbLine
 10
226.292199
 20
569.1
 30
0.0
 11
231.507801
 21
569.1
 31
0.0
  0
LINE
  5
518
100
AcDbEntity
  8
LAY-2
  6
CONTINUOUS
 62
     2
100
AcDbLine
 10
233.208422
 20
569.1
 30
0.0
 11
236.262235
 21
569.1
 31
0.0
  0
LINE
  5
519
100
AcDbEntity
  8
LAY-2
  6
CONTINUOUS
 62
     2
100
AcDbLine
 10
237.090302
 20
569.1
 30
0.0
 11
244.65
 21
569.1
 31
0.0
  0
LINE
  5
51A
100
AcDbEntity
  8
LAY-2
  6
CONTINUOUS
 62
     2
100
AcDbLine
 10
245.925
 20
569.1
 30
0.0
 11
255.975
 21
569.1
 31
0.0
  0
LINE
  5
51B
100
AcDbEntity
  8
LAY-2
  6
CONTINUOUS
 62
     2
100
AcDbLine
 10
257.1
 20
569.1
 30
0.0
 11
259.65
 21
569.1
 31
0.0
  0
LINE
  5
51C
100
AcDbEntity
  8
LAY-2
  6
CONTINUOUS
 62
     2
100
AcDbLine
 10
263.172518
 20
569.1
 30
0.0
 11
267.45
 21
569.1
 31
0.0
  0
LINE
  5
51D
100
AcDbEntity
  8
LAY-2
  6
CONTINUOUS
 62
     2
100
AcDbLine
 10
215.4
 20
568.725
 30
0.0
 11
218.025
 21
568.725
 31
0.0
  0
LINE
  5
51E
100
AcDbEntity
  8
LAY-2
  6
CONTINUOUS
 62
     2
100
AcDbLine
 10
221.701953
 20
568.725
 30
0.0
 11
224.878573
 21
568.725
 31
0.0
  0
LINE
  5
51F
100
AcDbEntity
  8
LAY-2
  6
CONTINUOUS
 62
     2
100
AcDbLine
 10
226.8
 20
568.725
 30
0.0
 11
231.0
 21
568.725
 31
0.0
  0
LINE
  5
520
100
AcDbEntity
  8
LAY-2
  6
CONTINUOUS
 62
     2
100
AcDbLine
 10
232.921427
 20
568.725
 30
0.0
 11
236.098047
 21
568.725
 31
0.0
  0
LINE
  5
521
100
AcDbEntity
  8
LAY-2
  6
CONTINUOUS
 62
     2
100
AcDbLine
 10
236.943036
 20
568.725
 30
0.0
 11
244.65
 21
568.725
 31
0.0
  0
LINE
  5
522
100
AcDbEntity
  8
LAY-2
  6
CONTINUOUS
 62
     2
100
AcDbLine
 10
245.925
 20
568.725
 30
0.0
 11
255.975
 21
568.725
 31
0.0
  0
LINE
  5
523
100
AcDbEntity
  8
LAY-2
  6
CONTINUOUS
 62
     2
100
AcDbLine
 10
257.1
 20
568.725
 30
0.0
 11
259.65
 21
568.725
 31
0.0
  0
LINE
  5
524
100
AcDbEntity
  8
LAY-2
  6
CONTINUOUS
 62
     2
100
AcDbLine
 10
263.419301
 20
568.725
 30
0.0
 11
267.45
 21
568.725
 31
0.0
  0
LINE
  5
525
100
AcDbEntity
  8
LAY-2
  6
CONTINUOUS
 62
     2
100
AcDbLine
 10
215.4
 20
568.35
 30
0.0
 11
218.025
 21
568.35
 31
0.0
  0
LINE
  5
526
100
AcDbEntity
  8
LAY-2
  6
CONTINUOUS
 62
     2
100
AcDbLine
 10
221.890007
 20
568.35
 30
0.0
 11
225.225765
 21
568.35
 31
0.0
  0
LINE
  5
527
100
AcDbEntity
  8
LAY-2
  6
CONTINUOUS
 62
     2
100
AcDbLine
 10
227.58162
 20
568.35
 30
0.0
 11
230.21838
 21
568.35
 31
0.0
  0
LINE
  5
528
100
AcDbEntity
  8
LAY-2
  6
CONTINUOUS
 62
     2
100
AcDbLine
 10
232.574235
 20
568.35
 30
0.0
 11
235.909993
 21
568.35
 31
0.0
  0
LINE
  5
529
100
AcDbEntity
  8
LAY-2
  6
CONTINUOUS
 62
     2
100
AcDbLine
 10
236.775186
 20
568.35
 30
0.0
 11
244.65
 21
568.35
 31
0.0
  0
LINE
  5
52A
100
AcDbEntity
  8
LAY-2
  6
CONTINUOUS
 62
     2
100
AcDbLine
 10
245.925
 20
568.35
 30
0.0
 11
255.975
 21
568.35
 31
0.0
  0
LINE
  5
52B
100
AcDbEntity
  8
LAY-2
  6
CONTINUOUS
 62
     2
100
AcDbLine
 10
257.1
 20
568.35
 30
0.0
 11
259.65
 21
568.35
 31
0.0
  0
LINE
  5
52C
100
AcDbEntity
  8
LAY-2
  6
CONTINUOUS
 62
     2
100
AcDbLine
 10
263.666085
 20
568.35
 30
0.0
 11
267.45
 21
568.35
 31
0.0
  0
LINE
  5
52D
100
AcDbEntity
  8
LAY-2
  6
CONTINUOUS
 62
     2
100
AcDbLine
 10
215.4
 20
567.975
 30
0.0
 11
218.025
 21
567.975
 31
0.0
  0
LINE
  5
52E
100
AcDbEntity
  8
LAY-2
  6
CONTINUOUS
 62
     2
100
AcDbLine
 10
222.103907
 20
567.975
 30
0.0
 11
225.652405
 21
567.975
 31
0.0
  0
LINE
  5
52F
100
AcDbEntity
  8
LAY-2
  6
CONTINUOUS
 62
     2
100
AcDbLine
 10
232.147595
 20
567.975
 30
0.0
 11
235.696093
 21
567.975
 31
0.0
  0
LINE
  5
530
100
AcDbEntity
  8
LAY-2
  6
CONTINUOUS
 62
     2
100
AcDbLine
 10
236.585403
 20
567.975
 30
0.0
 11
244.65
 21
567.975
 31
0.0
  0
LINE
  5
531
100
AcDbEntity
  8
LAY-2
  6
CONTINUOUS
 62
     2
100
AcDbLine
 10
245.925
 20
567.975
 30
0.0
 11
255.975
 21
567.975
 31
0.0
  0
LINE
  5
532
100
AcDbEntity
  8
LAY-2
  6
CONTINUOUS
 62
     2
100
AcDbLine
 10
257.1
 20
567.975
 30
0.0
 11
259.65
 21
567.975
 31
0.0
  0
LINE
  5
533
100
AcDbEntity
  8
LAY-2
  6
CONTINUOUS
 62
     2
100
AcDbLine
 10
263.912868
 20
567.975
 30
0.0
 11
267.45
 21
567.975
 31
0.0
  0
LINE
  5
534
100
AcDbEntity
  8
LAY-2
  6
CONTINUOUS
 62
     2
100
AcDbLine
 10
215.4
 20
567.6
 30
0.0
 11
218.025
 21
567.6
 31
0.0
  0
LINE
  5
535
100
AcDbEntity
  8
LAY-2
  6
CONTINUOUS
 62
     2
100
AcDbLine
 10
222.346184
 20
567.6
 30
0.0
 11
226.195837
 21
567.6
 31
0.0
  0
LINE
  5
536
100
AcDbEntity
  8
LAY-2
  6
CONTINUOUS
 62
     2
100
AcDbLine
 10
231.604163
 20
567.6
 30
0.0
 11
235.453816
 21
567.6
 31
0.0
  0
LINE
  5
537
100
AcDbEntity
  8
LAY-2
  6
CONTINUOUS
 62
     2
100
AcDbLine
 10
236.372018
 20
567.6
 30
0.0
 11
244.65
 21
567.6
 31
0.0
  0
LINE
  5
538
100
AcDbEntity
  8
LAY-2
  6
CONTINUOUS
 62
     2
100
AcDbLine
 10
245.925
 20
567.6
 30
0.0
 11
255.975
 21
567.6
 31
0.0
  0
LINE
  5
539
100
AcDbEntity
  8
LAY-2
  6
CONTINUOUS
 62
     2
100
AcDbLine
 10
257.1
 20
567.6
 30
0.0
 11
259.65
 21
567.6
 31
0.0
  0
LINE
  5
53A
100
AcDbEntity
  8
LAY-2
  6
CONTINUOUS
 62
     2
100
AcDbLine
 10
264.159651
 20
567.6
 30
0.0
 11
267.45
 21
567.6
 31
0.0
  0
LINE
  5
53B
100
AcDbEntity
  8
LAY-2
  6
CONTINUOUS
 62
     2
100
AcDbLine
 10
215.4
 20
567.225
 30
0.0
 11
218.025
 21
567.225
 31
0.0
  0
LINE
  5
53C
100
AcDbEntity
  8
LAY-2
  6
CONTINUOUS
 62
     2
100
AcDbLine
 10
222.620121
 20
567.225
 30
0.0
 11
226.951443
 21
567.225
 31
0.0
  0
LINE
  5
53D
100
AcDbEntity
  8
LAY-2
  6
CONTINUOUS
 62
     2
100
AcDbLine
 10
230.848557
 20
567.225
 30
0.0
 11
235.179879
 21
567.225
 31
0.0
  0
LINE
  5
53E
100
AcDbEntity
  8
LAY-2
  6
CONTINUOUS
 62
     2
100
AcDbLine
 10
236.13294
 20
567.225
 30
0.0
 11
244.65
 21
567.225
 31
0.0
  0
LINE
  5
53F
100
AcDbEntity
  8
LAY-2
  6
CONTINUOUS
 62
     2
100
AcDbLine
 10
245.925
 20
567.225
 30
0.0
 11
255.975
 21
567.225
 31
0.0
  0
LINE
  5
540
100
AcDbEntity
  8
LAY-2
  6
CONTINUOUS
 62
     2
100
AcDbLine
 10
257.1
 20
567.225
 30
0.0
 11
259.65
 21
567.225
 31
0.0
  0
LINE
  5
541
100
AcDbEntity
  8
LAY-2
  6
CONTINUOUS
 62
     2
100
AcDbLine
 10
264.406434
 20
567.225
 30
0.0
 11
267.45
 21
567.225
 31
0.0
  0
LINE
  5
542
100
AcDbEntity
  8
LAY-2
  6
CONTINUOUS
 62
     2
100
AcDbLine
 10
215.4
 20
566.85
 30
0.0
 11
218.025
 21
566.85
 31
0.0
  0
LINE
  5
543
100
AcDbEntity
  8
LAY-2
  6
CONTINUOUS
 62
     2
100
AcDbLine
 10
222.930075
 20
566.85
 30
0.0
 11
234.869925
 21
566.85
 31
0.0
  0
LINE
  5
544
100
AcDbEntity
  8
LAY-2
  6
CONTINUOUS
 62
     2
100
AcDbLine
 10
235.865526
 20
566.85
 30
0.0
 11
244.65
 21
566.85
 31
0.0
  0
LINE
  5
545
100
AcDbEntity
  8
LAY-2
  6
CONTINUOUS
 62
     2
100
AcDbLine
 10
245.925
 20
566.85
 30
0.0
 11
255.975
 21
566.85
 31
0.0
  0
LINE
  5
546
100
AcDbEntity
  8
LAY-2
  6
CONTINUOUS
 62
     2
100
AcDbLine
 10
257.1
 20
566.85
 30
0.0
 11
259.65
 21
566.85
 31
0.0
  0
LINE
  5
547
100
AcDbEntity
  8
LAY-2
  6
CONTINUOUS
 62
     2
100
AcDbLine
 10
264.653217
 20
566.85
 30
0.0
 11
267.45
 21
566.85
 31
0.0
  0
LINE
  5
548
100
AcDbEntity
  8
LAY-2
  6
CONTINUOUS
 62
     2
100
AcDbLine
 10
223.282004
 20
566.475
 30
0.0
 11
234.517996
 21
566.475
 31
0.0
  0
LINE
  5
549
100
AcDbEntity
  8
LAY-2
  6
CONTINUOUS
 62
     2
100
AcDbLine
 10
223.684398
 20
566.1
 30
0.0
 11
234.115602
 21
566.1
 31
0.0
  0
LINE
  5
54A
100
AcDbEntity
  8
LAY-2
  6
CONTINUOUS
 62
     2
100
AcDbLine
 10
224.150066
 20
565.725
 30
0.0
 11
233.649934
 21
565.725
 31
0.0
  0
LINE
  5
54B
100
AcDbEntity
  8
LAY-2
  6
CONTINUOUS
 62
     2
100
AcDbLine
 10
224.7
 20
565.35
 30
0.0
 11
233.1
 21
565.35
 31
0.0
  0
LINE
  5
54C
100
AcDbEntity
  8
LAY-2
  6
CONTINUOUS
 62
     2
100
AcDbLine
 10
225.373405
 20
564.975
 30
0.0
 11
232.426595
 21
564.975
 31
0.0
  0
LINE
  5
54D
100
AcDbEntity
  8
LAY-2
  6
CONTINUOUS
 62
     2
100
AcDbLine
 10
226.263241
 20
564.6
 30
0.0
 11
231.536759
 21
564.6
 31
0.0
  0
LINE
  5
54E
100
AcDbEntity
  8
LAY-2
  6
CONTINUOUS
 62
     2
100
AcDbLine
 10
227.810562
 20
564.225
 30
0.0
 11
229.989438
 21
564.225
 31
0.0
  0
LINE
  5
54F
100
AcDbEntity
  8
LAY-2
  6
CONTINUOUS
 62
     2
100
AcDbLine
 10
55.9
 20
60.7
 30
0.0
 11
836.0
 21
60.7
 31
0.0
  0
LINE
  5
550
100
AcDbEntity
  8
LAY-2
  6
CONTINUOUS
 62
     2
100
AcDbLine
 10
836.0
 20
60.7
 30
0.0
 11
836.0
 21
589.0
 31
0.0
  0
LINE
  5
551
100
AcDbEntity
  8
LAY-2
  6
CONTINUOUS
 62
     2
100
AcDbLine
 10
836.0
 20
589.0
 30
0.0
 11
55.9
 21
589.0
 31
0.0
  0
LINE
  5
552
100
AcDbEntity
  8
LAY-2
  6
CONTINUOUS
 62
     2
100
AcDbLine
 10
55.9
 20
589.0
 30
0.0
 11
55.9
 21
60.7
 31
0.0
  0
LINE
  5
553
100
AcDbEntity
  8
LAY-2
  6
CONTINUOUS
 62
     2
100
AcDbLine
 10
613.114286
 20
555.7
 30
0.0
 11
613.114286
 21
60.5
 31
0.0
  0
LINE
  5
554
100
AcDbEntity
  8
LAY-2
  6
CONTINUOUS
 62
     2
100
AcDbLine
 10
501.671429
 20
555.7
 30
0.0
 11
501.671429
 21
60.5
 31
0.0
  0
LINE
  5
555
100
AcDbEntity
  8
LAY-2
  6
CONTINUOUS
 62
     2
100
AcDbLine
 10
390.228571
 20
555.7
 30
0.0
 11
390.228571
 21
61.0
 31
0.0
  0
LINE
  5
556
100
AcDbEntity
  8
LAY-2
  6
CONTINUOUS
 62
     2
100
AcDbLine
 10
278.785714
 20
555.7
 30
0.0
 11
278.785714
 21
61.0
 31
0.0
  0
LINE
  5
557
100
AcDbEntity
  8
LAY-2
  6
CONTINUOUS
 62
     2
100
AcDbLine
 10
167.342857
 20
555.7
 30
0.0
 11
167.342857
 21
61.0
 31
0.0
  0
LINE
  5
558
100
AcDbEntity
  8
LAY-2
  6
CONTINUOUS
 62
     2
100
AcDbLine
 10
55.9
 20
260.7
 30
0.0
 11
836.0
 21
260.7
 31
0.0
  0
LINE
  5
559
100
AcDbEntity
  8
LAY-2
  6
CONTINUOUS
 62
     2
100
AcDbLine
 10
55.9
 20
270.7
 30
0.0
 11
836.0
 21
270.7
 31
0.0
  0
LINE
  5
55A
100
AcDbEntity
  8
LAY-2
  6
CONTINUOUS
 62
     2
100
AcDbLine
 10
55.9
 20
395.7
 30
0.0
 11
836.0
 21
395.7
 31
0.0
  0
LINE
  5
55B
100
AcDbEntity
  8
LAY-2
  6
CONTINUOUS
 62
     2
100
AcDbLine
 10
55.9
 20
405.7
 30
0.0
 11
836.0
 21
405.7
 31
0.0
  0
LINE
  5
55C
100
AcDbEntity
  8
LAY-2
  6
CONTINUOUS
 62
     2
100
AcDbLine
 10
55.9
 20
470.7
 30
0.0
 11
836.0
 21
470.7
 31
0.0
  0
LINE
  5
55D
100
AcDbEntity
  8
LAY-2
  6
CONTINUOUS
 62
     2
100
AcDbLine
 10
55.9
 20
480.7
 30
0.0
 11
836.0
 21
480.7
 31
0.0
  0
LINE
  5
55E
100
AcDbEntity
  8
LAY-2
  6
CONTINUOUS
 62
     2
100
AcDbLine
 10
55.9
 20
545.7
 30
0.0
 11
836.0
 21
545.7
 31
0.0
  0
LINE
  5
55F
100
AcDbEntity
  8
LAY-2
  6
CONTINUOUS
 62
     2
100
AcDbLine
 10
55.9
 20
555.7
 30
0.0
 11
836.0
 21
555.7
 31
0.0
  0
LINE
  5
560
100
AcDbEntity
  8
LAY-2
  6
CONTINUOUS
 62
     2
100
AcDbLine
 10
724.557143
 20
555.7
 30
0.0
 11
724.557143
 21
270.7
 31
0.0
  0
TEXT
  5
561
100
AcDbEntity
  8
LAY-2
  6
CONTINUOUS
 62
     7
100
AcDbText
 10
88.121429
 20
548.2
 30
0.0
 40
5.0
  1
２０Ａ×２５０Ｌ
 41
0.987
  7
EXCADSTD
 72
     5
 11
135.121429
 21
548.2
 31
0.0
100
AcDbText
  0
TEXT
  5
562
100
AcDbEntity
  8
LAY-2
  6
CONTINUOUS
 62
     7
100
AcDbText
 10
199.564286
 20
548.2
 30
0.0
 40
5.0
  1
２５Ａ×２５０Ｌ
 41
0.987
  7
EXCADSTD
 72
     5
 11
246.564286
 21
548.2
 31
0.0
100
AcDbText
  0
TEXT
  5
563
100
AcDbEntity
  8
LAY-2
  6
CONTINUOUS
 62
     7
100
AcDbText
 10
311.007143
 20
548.2
 30
0.0
 40
5.0
  1
３２Ａ×２５０Ｌ
 41
0.987
  7
EXCADSTD
 72
     5
 11
358.007143
 21
548.2
 31
0.0
100
AcDbText
  0
TEXT
  5
564
100
AcDbEntity
  8
LAY-2
  6
CONTINUOUS
 62
     7
100
AcDbText
 10
422.45
 20
548.2
 30
0.0
 40
5.0
  1
４０Ａ×２５０Ｌ
 41
0.987
  7
EXCADSTD
 72
     5
 11
469.45
 21
548.2
 31
0.0
100
AcDbText
  0
TEXT
  5
565
100
AcDbEntity
  8
LAY-2
  6
CONTINUOUS
 62
     7
100
AcDbText
 10
533.892857
 20
548.2
 30
0.0
 40
5.0
  1
５０Ａ×２５０Ｌ
 41
0.987
  7
EXCADSTD
 72
     5
 11
580.892857
 21
548.2
 31
0.0
100
AcDbText
  0
TEXT
  5
566
100
AcDbEntity
  8
LAY-2
  6
CONTINUOUS
 62
     7
100
AcDbText
 10
645.335714
 20
548.2
 30
0.0
 40
5.0
  1
６５Ａ×２５０Ｌ
 41
0.987
  7
EXCADSTD
 72
     5
 11
692.335714
 21
548.2
 31
0.0
100
AcDbText
  0
TEXT
  5
567
100
AcDbEntity
  8
LAY-2
  6
CONTINUOUS
 62
     7
100
AcDbText
 10
756.778571
 20
548.2
 30
0.0
 40
5.0
  1
８０Ａ×３００Ｌ
 41
0.987
  7
EXCADSTD
 72
     5
 11
803.778571
 21
548.2
 31
0.0
100
AcDbText
  0
TEXT
  5
568
100
AcDbEntity
  8
LAY-2
  6
CONTINUOUS
 62
     7
100
AcDbText
 10
642.335714
 20
473.2
 30
0.0
 40
5.0
  1
３００Ａ×３００Ｌ
 41
0.989333
  7
EXCADSTD
 72
     5
 11
695.335714
 21
473.2
 31
0.0
100
AcDbText
  0
TEXT
  5
569
100
AcDbEntity
  8
LAY-2
  6
CONTINUOUS
 62
     7
100
AcDbText
 10
530.892857
 20
473.2
 30
0.0
 40
5.0
  1
２５０Ａ×３００Ｌ
 41
0.989333
  7
EXCADSTD
 72
     5
 11
583.892857
 21
473.2
 31
0.0
100
AcDbText
  0
TEXT
  5
56A
100
AcDbEntity
  8
LAY-2
  6
CONTINUOUS
 62
     7
100
AcDbText
 10
419.45
 20
473.2
 30
0.0
 40
5.0
  1
２００Ａ×３００Ｌ
 41
0.989333
  7
EXCADSTD
 72
     5
 11
472.45
 21
473.2
 31
0.0
100
AcDbText
  0
TEXT
  5
56B
100
AcDbEntity
  8
LAY-2
  6
CONTINUOUS
 62
     7
100
AcDbText
 10
308.007143
 20
473.2
 30
0.0
 40
5.0
  1
１５０Ａ×３００Ｌ
 41
0.989333
  7
EXCADSTD
 72
     5
 11
361.007143
 21
473.2
 31
0.0
100
AcDbText
  0
TEXT
  5
56C
100
AcDbEntity
  8
LAY-2
  6
CONTINUOUS
 62
     7
100
AcDbText
 10
196.564286
 20
473.2
 30
0.0
 40
5.0
  1
１２５Ａ×３００Ｌ
 41
0.989333
  7
EXCADSTD
 72
     5
 11
249.564286
 21
473.2
 31
0.0
100
AcDbText
  0
TEXT
  5
56D
100
AcDbEntity
  8
LAY-2
  6
CONTINUOUS
 62
     7
100
AcDbText
 10
85.121429
 20
473.2
 30
0.0
 40
5.0
  1
１００Ａ×３００Ｌ
 41
0.989333
  7
EXCADSTD
 72
     5
 11
138.121429
 21
473.2
 31
0.0
100
AcDbText
  0
TEXT
  5
56E
100
AcDbEntity
  8
LAY-2
  6
CONTINUOUS
 62
     7
100
AcDbText
 10
753.778571
 20
473.2
 30
0.0
 40
5.0
  1
３５０Ａ×３５０Ｌ
 41
0.989333
  7
EXCADSTD
 72
     5
 11
806.778571
 21
473.2
 31
0.0
100
AcDbText
  0
TEXT
  5
56F
100
AcDbEntity
  8
LAY-2
  6
CONTINUOUS
 62
     7
100
AcDbText
 10
308.007143
 20
398.2
 30
0.0
 40
5.0
  1
５００Ａ×３５０Ｌ
 41
0.989333
  7
EXCADSTD
 72
     5
 11
361.007143
 21
398.2
 31
0.0
100
AcDbText
  0
TEXT
  5
570
100
AcDbEntity
  8
LAY-2
  6
CONTINUOUS
 62
     7
100
AcDbText
 10
196.564286
 20
398.2
 30
0.0
 40
5.0
  1
４５０Ａ×３５０Ｌ
 41
0.989333
  7
EXCADSTD
 72
     5
 11
249.564286
 21
398.2
 31
0.0
100
AcDbText
  0
TEXT
  5
571
100
AcDbEntity
  8
LAY-2
  6
CONTINUOUS
 62
     7
100
AcDbText
 10
85.121429
 20
398.2
 30
0.0
 40
5.0
  1
４００Ａ×３５０Ｌ
 41
0.989333
  7
EXCADSTD
 72
     5
 11
138.121429
 21
398.2
 31
0.0
100
AcDbText
  0
TEXT
  5
572
100
AcDbEntity
  8
LAY-2
  6
CONTINUOUS
 62
     7
100
AcDbText
 10
419.45
 20
398.2
 30
0.0
 40
5.0
  1
６００Ａ×４００Ｌ
 41
0.989333
  7
EXCADSTD
 72
     5
 11
472.45
 21
398.2
 31
0.0
100
AcDbText
  0
TEXT
  5
573
100
AcDbEntity
  8
LAY-2
  6
CONTINUOUS
 62
     7
100
AcDbText
 10
530.892857
 20
398.2
 30
0.0
 40
5.0
  1
７００Ａ×４００Ｌ
 41
0.989333
  7
EXCADSTD
 72
     5
 11
583.892857
 21
398.2
 31
0.0
100
AcDbText
  0
TEXT
  5
574
100
AcDbEntity
  8
LAY-2
  6
CONTINUOUS
 62
     7
100
AcDbText
 10
642.335714
 20
398.2
 30
0.0
 40
5.0
  1
８００Ａ×４００Ｌ
 41
0.989333
  7
EXCADSTD
 72
     5
 11
695.335714
 21
398.2
 31
0.0
100
AcDbText
  0
TEXT
  5
575
100
AcDbEntity
  8
LAY-2
  6
CONTINUOUS
 62
     7
100
AcDbText
 10
753.778571
 20
398.2
 30
0.0
 40
5.0
  1
９００Ａ×４００Ｌ
 41
0.989333
  7
EXCADSTD
 72
     5
 11
806.778571
 21
398.2
 31
0.0
100
AcDbText
  0
TEXT
  5
576
100
AcDbEntity
  8
LAY-2
  6
CONTINUOUS
 62
     7
100
AcDbText
 10
82.121429
 20
263.2
 30
0.0
 40
5.0
  1
１０００Ａ×４５０Ｌ
 41
0.9912
  7
EXCADSTD
 72
     5
 11
141.121429
 21
263.2
 31
0.0
100
AcDbText
  0
TEXT
  5
577
100
AcDbEntity
  8
LAY-2
  6
CONTINUOUS
 62
     7
100
AcDbText
 10
193.564286
 20
263.2
 30
0.0
 40
5.0
  1
１１００Ａ×４５０Ｌ
 41
0.9912
  7
EXCADSTD
 72
     5
 11
252.564286
 21
263.2
 31
0.0
100
AcDbText
  0
TEXT
  5
578
100
AcDbEntity
  8
LAY-2
  6
CONTINUOUS
 62
     7
100
AcDbText
 10
305.007143
 20
263.2
 30
0.0
 40
5.0
  1
１２００Ａ×４５０Ｌ
 41
0.9912
  7
EXCADSTD
 72
     5
 11
364.007143
 21
263.2
 31
0.0
100
AcDbText
  0
TEXT
  5
579
100
AcDbEntity
  8
LAY-2
  6
CONTINUOUS
 62
     7
100
AcDbText
 10
416.45
 20
263.2
 30
0.0
 40
5.0
  1
１３５０Ａ×４５０Ｌ
 41
0.9912
  7
EXCADSTD
 72
     5
 11
475.45
 21
263.2
 31
0.0
100
AcDbText
  0
TEXT
  5
57A
100
AcDbEntity
  8
LAY-2
  6
CONTINUOUS
 62
     7
100
AcDbText
 10
527.892857
 20
263.2
 30
0.0
 40
5.0
  1
１５００Ａ×４５０Ｌ
 41
0.9912
  7
EXCADSTD
 72
     5
 11
586.892857
 21
263.2
 31
0.0
100
AcDbText
  0
LINE
  5
57B
100
AcDbEntity
  8
LAY-2
  6
CONTINUOUS
 62
     2
100
AcDbLine
 10
215.4
 20
575.1
 30
0.0
 11
215.4
 21
566.475
 31
0.0
  0
LINE
  5
57C
100
AcDbEntity
  8
LAY-2
  6
CONTINUOUS
 62
     2
100
AcDbLine
 10
218.025
 20
575.1
 30
0.0
 11
218.025
 21
566.475
 31
0.0
  0
CIRCLE
  5
57D
100
AcDbEntity
  8
LAY-2
  6
CONTINUOUS
 62
     2
100
AcDbCircle
 10
228.9
 20
572.1
 30
0.0
 40
3.975
  0
CIRCLE
  5
57E
100
AcDbEntity
  8
LAY-2
  6
CONTINUOUS
 62
     2
100
AcDbCircle
 10
228.9
 20
572.1
 30
0.0
 40
5.25
  0
CIRCLE
  5
57F
100
AcDbEntity
  8
LAY-2
  6
CONTINUOUS
 62
     2
100
AcDbCircle
 10
228.9
 20
572.1
 30
0.0
 40
7.95
  0
LINE
  5
580
100
AcDbEntity
  8
LAY-2
  6
CONTINUOUS
 62
     2
100
AcDbLine
 10
210.15
 20
577.725
 30
0.0
 11
210.15
 21
575.1
 31
0.0
  0
LINE
  5
581
100
AcDbEntity
  8
LAY-2
  6
CONTINUOUS
 62
     2
100
AcDbLine
 10
215.4
 20
566.475
 30
0.0
 11
218.025
 21
566.475
 31
0.0
  0
ARC
  5
582
100
AcDbEntity
  8
LAY-2
  6
CONTINUOUS
 62
     2
100
AcDbCircle
 10
228.9
 20
572.1
 30
0.0
 40
8.722445
100
AcDbArc
 50
139.842723
 51
159.882882
  0
ARC
  5
583
100
AcDbEntity
  8
LAY-2
  6
CONTINUOUS
 62
     2
100
AcDbCircle
 10
228.9
 20
572.1
 30
0.0
 40
8.722445
100
AcDbArc
 50
20.117118
 51
40.157277
  0
LINE
  5
584
100
AcDbEntity
  8
LAY-2
  6
CONTINUOUS
 62
     2
100
AcDbLine
 10
244.65
 20
569.1
 30
0.0
 11
244.65
 21
566.475
 31
0.0
  0
LINE
  5
585
100
AcDbEntity
  8
LAY-2
  6
CONTINUOUS
 62
     2
100
AcDbLine
 10
244.65
 20
577.725
 30
0.0
 11
244.65
 21
575.1
 31
0.0
  0
ARC
  5
586
100
AcDbEntity
  8
LAY-2
  6
CONTINUOUS
 62
     2
100
AcDbCircle
 10
228.9
 20
572.1
 30
0.0
 40
8.722445
100
AcDbArc
 50
319.842723
 51
348.135428
  0
LINE
  5
587
100
AcDbEntity
  8
LAY-2
  6
CONTINUOUS
 62
     2
100
AcDbLine
 10
244.65
 20
575.1
 30
0.0
 11
239.241006
 21
569.1
 31
0.0
  0
LINE
  5
588
100
AcDbEntity
  8
LAY-2
  6
CONTINUOUS
 62
     2
100
AcDbLine
 10
241.757281
 20
575.1
 30
0.0
 11
237.436102
 21
570.306673
 31
0.0
  0
LINE
  5
589
100
AcDbEntity
  8
LAY-2
  6
CONTINUOUS
 62
     2
100
AcDbLine
 10
245.925
 20
577.725
 30
0.0
 11
245.925
 21
566.475
 31
0.0
  0
LINE
  5
58A
100
AcDbEntity
  8
LAY-2
  6
CONTINUOUS
 62
     2
100
AcDbLine
 10
248.55
 20
570.975
 30
0.0
 11
255.975
 21
570.975
 31
0.0
  0
LINE
  5
58B
100
AcDbEntity
  8
LAY-2
  6
CONTINUOUS
 62
     2
100
AcDbLine
 10
257.1
 20
577.725
 30
0.0
 11
257.1
 21
566.475
 31
0.0
  0
LINE
  5
58C
100
AcDbEntity
  8
LAY-2
  6
CONTINUOUS
 62
     2
100
AcDbLine
 10
267.45
 20
577.725
 30
0.0
 11
267.45
 21
566.475
 31
0.0
  0
LINE
  5
58D
100
AcDbEntity
  8
LAY-2
  6
CONTINUOUS
 62
     2
100
AcDbLine
 10
264.9
 20
566.475
 30
0.0
 11
259.65
 21
574.452654
 31
0.0
  0
LINE
  5
58E
100
AcDbEntity
  8
LAY-2
  6
CONTINUOUS
 62
     2
100
AcDbLine
 10
259.65
 20
577.725
 30
0.0
 11
264.9
 21
569.747346
 31
0.0
  0
LINE
  5
58F
100
AcDbEntity
  8
LAY-2
  6
CONTINUOUS
 62
     2
100
AcDbLine
 10
255.975
 20
577.725
 30
0.0
 11
255.975
 21
575.1
 31
0.0
  0
LINE
  5
590
100
AcDbEntity
  8
LAY-2
  6
CONTINUOUS
 62
     2
100
AcDbLine
 10
255.975
 20
573.225
 30
0.0
 11
255.975
 21
570.975
 31
0.0
  0
LINE
  5
591
100
AcDbEntity
  8
LAY-2
  6
CONTINUOUS
 62
     2
100
AcDbLine
 10
255.975
 20
569.1
 30
0.0
 11
255.975
 21
566.475
 31
0.0
  0
LINE
  5
592
100
AcDbEntity
  8
LAY-2
  6
CONTINUOUS
 62
     2
100
AcDbLine
 10
248.55
 20
575.1
 30
0.0
 11
255.975
 21
575.1
 31
0.0
  0
LINE
  5
593
100
AcDbEntity
  8
LAY-2
  6
CONTINUOUS
 62
     2
100
AcDbLine
 10
248.55
 20
570.975
 30
0.0
 11
248.55
 21
569.1
 31
0.0
  0
LINE
  5
594
100
AcDbEntity
  8
LAY-2
  6
CONTINUOUS
 62
     2
100
AcDbLine
 10
245.925
 20
566.475
 30
0.0
 11
255.975
 21
566.475
 31
0.0
  0
LINE
  5
595
100
AcDbEntity
  8
LAY-2
  6
CONTINUOUS
 62
     2
100
AcDbLine
 10
259.65
 20
574.452654
 30
0.0
 11
259.65
 21
566.475
 31
0.0
  0
LINE
  5
596
100
AcDbEntity
  8
LAY-2
  6
CONTINUOUS
 62
     2
100
AcDbLine
 10
257.1
 20
566.475
 30
0.0
 11
259.65
 21
566.475
 31
0.0
  0
LINE
  5
597
100
AcDbEntity
  8
LAY-2
  6
CONTINUOUS
 62
     2
100
AcDbLine
 10
264.9
 20
566.475
 30
0.0
 11
267.45
 21
566.475
 31
0.0
  0
LINE
  5
598
100
AcDbEntity
  8
LAY-2
  6
CONTINUOUS
 62
     2
100
AcDbLine
 10
264.9
 20
577.725
 30
0.0
 11
264.9
 21
569.747346
 31
0.0
  0
LINE
  5
599
100
AcDbEntity
  8
LAY-2
  6
CONTINUOUS
 62
     2
100
AcDbLine
 10
210.15
 20
575.1
 30
0.0
 11
215.4
 21
575.1
 31
0.0
  0
LINE
  5
59A
100
AcDbEntity
  8
LAY-2
  6
CONTINUOUS
 62
     2
100
AcDbLine
 10
218.025
 20
575.1
 30
0.0
 11
220.709698
 21
575.1
 31
0.0
  0
LINE
  5
59B
100
AcDbEntity
  8
LAY-2
  6
CONTINUOUS
 62
     2
100
AcDbLine
 10
237.090302
 20
575.1
 30
0.0
 11
241.757281
 21
575.1
 31
0.0
  0
LINE
  5
59C
100
AcDbEntity
  8
LAY-2
  6
CONTINUOUS
 62
     2
100
AcDbLine
 10
235.566365
 20
566.475
 30
0.0
 11
244.65
 21
566.475
 31
0.0
  0
LINE
  5
59D
100
AcDbEntity
  8
LAY-2
  6
CONTINUOUS
 62
     2
100
AcDbLine
 10
248.55
 20
575.1
 30
0.0
 11
248.55
 21
573.225
 31
0.0
  0
TEXT
  5
59E
100
AcDbEntity
  8
LAY-2
  6
CONTINUOUS
 62
     7
100
AcDbText
 10
284.95
 20
562.35
 30
0.0
 40
20.0
  1
ＬＳコネクタ　５０ｍｍ偏心用（２山）
 41
0.879667
  7
EXCADSTD
 72
     5
 11
661.95
 21
562.35
 31
0.0
100
AcDbText
  0
TEXT
  5
5A0
100
AcDbEntity
  8
LAY-2
  6
CONTINUOUS
 62
     1
100
AcDbText
 10
238.050002
 20
1.4
 30
0.0
 40
11.25
  1
スケールは１／１０となっています。必要に応じてサイズを１０倍して下さい。
 41
0.966667
  7
EXCADTTF1
 72
     5
 11
760.550002
 21
1.4
 31
0.0
100
AcDbText
  0
ENDSEC
  0
SECTION
  2
OBJECTS
  0
DICTIONARY
  5
19
100
AcDbDictionary
  3
ACAD_GROUP
350
1A
  3
ACAD_MLINESTYLE
350
1B
  0
DICTIONARY
  5
1A
102
{ACAD_REACTORS
330
19
102
}
100
AcDbDictionary
  0
DICTIONARY
  5
1B
102
{ACAD_REACTORS
330
19
102
}
100
AcDbDictionary
  3
STANDARD
350
1C
  0
MLINESTYLE
  5
1C
102
{ACAD_REACTORS
330
1B
102
}
100
AcDbMlineStyle
  2
Standard
 70
     0
  3

 62
     0
 51
90.0
 52
90.0
 71
     2
 49
0.5
 62
   256
  6
ByLayer
 49
-0.5
 62
   256
  6
ByLayer
  0
ENDSEC
  0
EOF
