  0
SECTION
  2
HEADER
  9
$ACADVER
  1
AC1014
  9
$ACADMAINTVER
 70
     0
  9
$DWGCODEPAGE
  3
DOS932
  9
$INSBASE
 10
0.0
 20
0.0
 30
0.0
  9
$EXTMIN
 10
31.378571
 20
-30.3
 30
0.0
  9
$EXTMAX
 10
811.478571
 20
559.6
 30
0.0
  9
$LIMMIN
 10
0.0
 20
0.0
  9
$LIMMAX
 10
841.0
 20
594.0
  9
$ORTHOMODE
 70
     0
  9
$REGENMODE
 70
     1
  9
$FILLMODE
 70
     1
  9
$QTEXTMODE
 70
     0
  9
$MIRRTEXT
 70
     1
  9
$DRAGMODE
 70
     2
  9
$LTSCALE
 40
1.0
  9
$OSMODE
 70
     0
  9
$ATTMODE
 70
     1
  9
$TEXTSIZE
 40
0.2
  9
$TRACEWID
 40
0.05
  9
$TEXTSTYLE
  7
STANDARD
  9
$CLAYER
  8
LAY-1
  9
$CELTYPE
  6
CONTINUOUS
  9
$CECOLOR
 62
   256
  9
$CELTSCALE
 40
1.0
  9
$DELOBJ
 70
     1
  9
$DISPSILH
 70
     0
  9
$DIMSCALE
 40
1.0
  9
$DIMASZ
 40
0.18
  9
$DIMEXO
 40
0.0625
  9
$DIMDLI
 40
0.38
  9
$DIMRND
 40
0.0
  9
$DIMDLE
 40
0.0
  9
$DIMEXE
 40
0.18
  9
$DIMTP
 40
0.0
  9
$DIMTM
 40
0.0
  9
$DIMTXT
 40
0.18
  9
$DIMCEN
 40
0.09
  9
$DIMTSZ
 40
0.0
  9
$DIMTOL
 70
     0
  9
$DIMLIM
 70
     0
  9
$DIMTIH
 70
     1
  9
$DIMTOH
 70
     1
  9
$DIMSE1
 70
     0
  9
$DIMSE2
 70
     0
  9
$DIMTAD
 70
     0
  9
$DIMZIN
 70
     0
  9
$DIMBLK
  1

  9
$DIMASO
 70
     1
  9
$DIMSHO
 70
     1
  9
$DIMPOST
  1

  9
$DIMAPOST
  1

  9
$DIMALT
 70
     0
  9
$DIMALTD
 70
     2
  9
$DIMALTF
 40
25.4
  9
$DIMLFAC
 40
1.0
  9
$DIMTOFL
 70
     0
  9
$DIMTVP
 40
0.0
  9
$DIMTIX
 70
     0
  9
$DIMSOXD
 70
     0
  9
$DIMSAH
 70
     0
  9
$DIMBLK1
  1

  9
$DIMBLK2
  1

  9
$DIMSTYLE
  2
STANDARD
  9
$DIMCLRD
 70
     0
  9
$DIMCLRE
 70
     0
  9
$DIMCLRT
 70
     0
  9
$DIMTFAC
 40
1.0
  9
$DIMGAP
 40
0.09
  9
$DIMJUST
 70
     0
  9
$DIMSD1
 70
     0
  9
$DIMSD2
 70
     0
  9
$DIMTOLJ
 70
     1
  9
$DIMTZIN
 70
     0
  9
$DIMALTZ
 70
     0
  9
$DIMALTTZ
 70
     0
  9
$DIMFIT
 70
     3
  9
$DIMUPT
 70
     0
  9
$DIMUNIT
 70
     2
  9
$DIMDEC
 70
     4
  9
$DIMTDEC
 70
     4
  9
$DIMALTU
 70
     2
  9
$DIMALTTD
 70
     2
  9
$DIMTXSTY
  7
STANDARD
  9
$DIMAUNIT
 70
     0
  9
$LUNITS
 70
     2
  9
$LUPREC
 70
     4
  9
$SKETCHINC
 40
0.1
  9
$FILLETRAD
 40
0.0
  9
$AUNITS
 70
     0
  9
$AUPREC
 70
     0
  9
$MENU
  1
acad
  9
$ELEVATION
 40
0.0
  9
$PELEVATION
 40
0.0
  9
$THICKNESS
 40
0.0
  9
$LIMCHECK
 70
     0
  9
$BLIPMODE
 70
     1
  9
$CHAMFERA
 40
0.0
  9
$CHAMFERB
 40
0.0
  9
$CHAMFERC
 40
0.0
  9
$CHAMFERD
 40
0.0
  9
$SKPOLY
 70
     0
  9
$TDCREATE
 40
2453500.197830208
  9
$TDUPDATE
 40
2453500.197830208
  9
$TDINDWG
 40
0.0000000000
  9
$TDUSRTIMER
 40
0.0000000000
  9
$USRTIMER
 70
     1
  9
$ANGBASE
 50
0.0
  9
$ANGDIR
 70
     0
  9
$PDMODE
 70
     0
  9
$PDSIZE
 40
0.0
  9
$PLINEWID
 40
0.0
  9
$COORDS
 70
     1
  9
$SPLFRAME
 70
     0
  9
$SPLINETYPE
 70
     6
  9
$SPLINESEGS
 70
     8
  9
$ATTDIA
 70
     0
  9
$ATTREQ
 70
     1
  9
$HANDLING
 70
     1
  9
$HANDSEED
  5
507
  9
$SURFTAB1
 70
     6
  9
$SURFTAB2
 70
     6
  9
$SURFTYPE
 70
     6
  9
$SURFU
 70
     6
  9
$SURFV
 70
     6
  9
$UCSNAME
  2

  9
$UCSORG
 10
0.0
 20
0.0
 30
0.0
  9
$UCSXDIR
 10
1.0
 20
0.0
 30
0.0
  9
$UCSYDIR
 10
0.0
 20
1.0
 30
0.0
  9
$PUCSNAME
  2

  9
$PUCSORG
 10
0.0
 20
0.0
 30
0.0
  9
$PUCSXDIR
 10
1.0
 20
0.0
 30
0.0
  9
$PUCSYDIR
 10
0.0
 20
1.0
 30
0.0
  9
$USERI1
 70
     0
  9
$USERI2
 70
     0
  9
$USERI3
 70
     0
  9
$USERI4
 70
     0
  9
$USERI5
 70
     0
  9
$USERR1
 40
0.0
  9
$USERR2
 40
0.0
  9
$USERR3
 40
0.0
  9
$USERR4
 40
0.0
  9
$USERR5
 40
0.0
  9
$WORLDVIEW
 70
     1
  9
$SHADEDGE
 70
     3
  9
$SHADEDIF
 70
    70
  9
$TILEMODE
 70
     1
  9
$MAXACTVP
 70
    16
  9
$PINSBASE
 10
0.0
 20
0.0
 30
0.0
  9
$PLIMCHECK
 70
     0
  9
$PEXTMIN
 10
1.000000E+20
 20
1.000000E+20
 30
1.000000E+20
  9
$PEXTMAX
 10
-1.000000E+20
 20
-1.000000E+20
 30
-1.000000E+20
  9
$PLIMMIN
 10
0.0
 20
0.0
  9
$PLIMMAX
 10
12.0
 20
9.0
  9
$UNITMODE
 70
     0
  9
$VISRETAIN
 70
     0
  9
$PLINEGEN
 70
     1
  9
$PSLTSCALE
 70
     0
  9
$TREEDEPTH
 70
  3020
  9
$PICKSTYLE
 70
     1
  9
$CMLSTYLE
  2
Standard
  9
$CMLJUST
 70
     0
  9
$CMLSCALE
 40
1.0
  9
$PROXYGRAPHICS
 70
     0
  9
$MEASUREMENT
 70
     0
  0
ENDSEC
  0
SECTION
  2
CLASSES
  0
CLASS
  1
LWPOLYLINE
  2
AcDbPolyline
  3
"AutoCAD"
 90
        0
280
     0
281
     1
  0
CLASS
  1
IMAGE
  2
AcDbRasterImage
  3
ISM
 90
      127
280
     0
281
     1
  0
CLASS
  1
OLE2FRAME
  2
AcDbOle2Frame
  3
""
 90
        0
280
     0
281
     1
  0
CLASS
  1
HATCH
  2
AcDbHatch
  3
"ACAD_SEDONA"
 90
        0
280
     0
281
     1
  0
CLASS
  1
DICTIONARYVAR
  2
AcDbDictionaryVar
  3
"AutoCAD"
 90
        0
280
     0
281
     0
  0
CLASS
  1
RASTERVARIABLES
  2
AcDbRasterVariables
  3
ISM
 90
        0
280
     0
281
     0
  0
CLASS
  1
IMAGEDEF
  2
AcDbRasterImageDef
  3
ISM
 90
        0
280
     0
281
     0
  0
CLASS
  1
IMAGEDEF_REACTOR
  2
AcDbRasterImageDefReactor
  3
ISM
 90
        1
280
     0
281
     0
  0
CLASS
  1
IDBUFFER
  2
AcDbIdBuffer
  3
"Acad"
 90
        0
280
     0
281
     0
  0
CLASS
  1
SPATIAL_FILTER
  2
AcDbSpatialFilter
  3
"Acad"
 90
        0
280
     0
281
     0
  0
CLASS
  1
XRECORD
  2
AcDbXrecord
  3
"<Built In>"
 90
        0
280
     0
281
     0
  0
CLASS
  1
SORTENTSTABLE
  2
AcDbSortentsTable
  3
"AutoCAD"
 90
        0
280
     0
281
     0
  0
CLASS
  1
LAYER_INDEX
  2
AcDbLayerIndex
  3
"Acad"
 90
        0
280
     0
281
     0
  0
CLASS
  1
SPATIAL_INDEX
  2
AcDbSpatialIndex
  3
"Acad"
 90
        0
280
     0
281
     0
  0
CLASS
  1
OBJECT_PTR
  2
CAseDLPNTableRecord
  3
"ASE-LPNTableRecord"
 90
        1
280
     0
281
     0
  0
CLASS
  1
LAYOUT
  2
AcDbLayout
  3
"AutoCAD 2000"
 90
        1
280
     0
281
     0
  0
CLASS
  1
PLOTSETTINGS
  2
AcDbPlotSettings
  3
"AutoCAD 2000"
 90
        1
280
     0
281
     0
  0
CLASS
  1
ACDBDICTIONARYWDFLT
  2
AcDbDictionaryWithDefault
  3
"AutoCAD 2000"
 90
        1
280
     0
281
     0
  0
CLASS
  1
ACDBPLACEHOLDER
  2
AcDbPlaceHolder
  3
"AutoCAD 2000"
 90
        1
280
     0
281
     0
  0
CLASS
  1
VBA_PROJECT
  2
AcDbVbaProject
  3
"acadvba"
 90
        1
280
     0
281
     0
  0
CLASS
  1
WIPEOUT
  2
AcDbWipeout
  3
WipeOut|AutoCAD Express Tool|expresstools@autodesk.com
 90
      127
280
     0
281
     1
  0
CLASS
  1
WIPEOUTVARIABLES
  2
AcDbWipeoutVariables
  3
WipeOut|AutoCAD Express Tool|expresstools@autodesk.com
 90
        0
280
     0
281
     0
  0
CLASS
  1
RTEXT
  2
RText
  3
RText|AutoCAD Express Tool|expresstools@autodesk.com
 90
        0
280
     0
281
     1
  0
CLASS
  1
ARCALIGNEDTEXT
  2
AcDbArcAlignedText
  3
ATEXT|AutoCAD Express Tool|expresstools@autodesk.com
 90
        0
280
     0
281
     1
  0
ENDSEC
  0
SECTION
  2
TABLES
  0
TABLE
  2
VPORT
  5
7
100
AcDbSymbolTable
 70
     1
  0
VPORT
  5
15
100
AcDbSymbolTableRecord
100
AcDbViewportTableRecord
  2
*ACTIVE
 70
     0
 10
0.0
 20
0.0
 11
1.0
 21
1.0
 12
421.428571
 22
264.65
 13
0.0
 23
0.0
 14
1.0
 24
1.0
 15
0.0
 25
0.0
 16
0.0
 26
0.0
 36
1.0
 17
0.0
 27
0.0
 37
0.0
 40
589.9
 41
1.722533
 42
50.0
 43
0.0
 44
0.0
 50
0.0
 51
0.0
 71
     0
 72
   100
 73
     1
 74
     1
 75
     0
 76
     0
 77
     0
 78
     0
  0
ENDTAB
  0
TABLE
  2
LTYPE
  5
4
100
AcDbSymbolTable
 70
     9
  0
LTYPE
  5
11
100
AcDbSymbolTableRecord
100
AcDbLinetypeTableRecord
  2
BYBLOCK
 70
    64
  3

 72
    65
 73
     0
 40
0.0
  0
LTYPE
  5
12
100
AcDbSymbolTableRecord
100
AcDbLinetypeTableRecord
  2
BYLAYER
 70
    64
  3

 72
    65
 73
     0
 40
0.0
  0
LTYPE
  5
13
100
AcDbSymbolTableRecord
100
AcDbLinetypeTableRecord
  2
CONTINUOUS
 70
    64
  3
実線
 72
    65
 73
     0
 40
0.0
  0
LTYPE
  5
1D
100
AcDbSymbolTableRecord
100
AcDbLinetypeTableRecord
  2
EXLTYPE1
 70
    64
  3
破線
 72
    65
 73
     2
 40
4.0
 49
3.0
 74
     0
 49
-1.0
 74
     0
  0
LTYPE
  5
1E
100
AcDbSymbolTableRecord
100
AcDbLinetypeTableRecord
  2
EXLTYPE2
 70
    64
  3
点線
 72
    65
 73
     2
 40
2.0
 49
1.0
 74
     0
 49
-1.0
 74
     0
  0
LTYPE
  5
1F
100
AcDbSymbolTableRecord
100
AcDbLinetypeTableRecord
  2
EXLTYPE3
 70
    64
  3
一点鎖線
 72
    65
 73
     4
 40
33.0
 49
30.0
 74
     0
 49
-1.0
 74
     0
 49
1.0
 74
     0
 49
-1.0
 74
     0
  0
LTYPE
  5
20
100
AcDbSymbolTableRecord
100
AcDbLinetypeTableRecord
  2
EXLTYPE4
 70
    64
  3
二点鎖線
 72
    65
 73
     6
 40
35.0
 49
30.0
 74
     0
 49
-1.0
 74
     0
 49
1.0
 74
     0
 49
-1.0
 74
     0
 49
1.0
 74
     0
 49
-1.0
 74
     0
  0
LTYPE
  5
21
100
AcDbSymbolTableRecord
100
AcDbLinetypeTableRecord
  2
EXLTYPE5
 70
    64
  3
三点鎖線
 72
    65
 73
     8
 40
37.0
 49
30.0
 74
     0
 49
-1.0
 74
     0
 49
1.0
 74
     0
 49
-1.0
 74
     0
 49
1.0
 74
     0
 49
-1.0
 74
     0
 49
1.0
 74
     0
 49
-1.0
 74
     0
  0
LTYPE
  5
22
100
AcDbSymbolTableRecord
100
AcDbLinetypeTableRecord
  2
EXLTYPE6
 70
    64
  3
四点鎖線
 72
    65
 73
    10
 40
39.0
 49
30.0
 74
     0
 49
-1.0
 74
     0
 49
1.0
 74
     0
 49
-1.0
 74
     0
 49
1.0
 74
     0
 49
-1.0
 74
     0
 49
1.0
 74
     0
 49
-1.0
 74
     0
 49
1.0
 74
     0
 49
-1.0
 74
     0
  0
ENDTAB
  0
TABLE
  2
LAYER
  5
2
100
AcDbSymbolTable
 70
     3
  0
LAYER
  5
14
100
AcDbSymbolTableRecord
100
AcDbLayerTableRecord
  2
0
 70
     0
 62
     7
  6
CONTINUOUS
  0
LAYER
  5
25
100
AcDbSymbolTableRecord
100
AcDbLayerTableRecord
  2
LAY-1
 70
    64
 62
     7
  6
CONTINUOUS
  0
LAYER
  5
26
100
AcDbSymbolTableRecord
100
AcDbLayerTableRecord
  2
LAY-2
 70
    64
 62
     7
  6
CONTINUOUS
  0
ENDTAB
  0
TABLE
  2
STYLE
  5
3
100
AcDbSymbolTable
 70
     4
  0
STYLE
  5
17
100
AcDbSymbolTableRecord
100
AcDbTextStyleTableRecord
  2
STANDARD
 70
     0
 40
0.0
 41
1.0
 50
0.0
 71
     0
 42
0.0
  3
monotxt
  4
extfont
  0
STYLE
  5
23
100
AcDbSymbolTableRecord
100
AcDbTextStyleTableRecord
  2
EXCADSTD
 70
    64
 40
0.0
 41
1.0
 50
0.0
 71
     0
 42
0.2
  3
monotxt
  4
extfont
  0
STYLE
  5
24
100
AcDbSymbolTableRecord
100
AcDbTextStyleTableRecord
  2
EXCADVERT
 70
    68
 40
0.0
 41
1.0
 50
0.0
 71
     0
 42
0.286885
  3
monotxt
  4
extfont
  0
STYLE
  5
505
100
AcDbSymbolTableRecord
100
AcDbTextStyleTableRecord
  2
EXCADTTF1
 70
    64
 40
0.0
 41
1.0
 50
0.0
 71
     0
 42
0.2
  3
MS Gothic.ttf
  4

1001
ACAD
1000
MS Gothic
1071
    32817
  0
ENDTAB
  0
TABLE
  2
VIEW
  5
5
100
AcDbSymbolTable
 70
     0
  0
ENDTAB
  0
TABLE
  2
UCS
  5
6
100
AcDbSymbolTable
 70
     0
  0
ENDTAB
  0
TABLE
  2
APPID
  5
8
100
AcDbSymbolTable
 70
     1
  0
APPID
  5
16
100
AcDbSymbolTableRecord
100
AcDbRegAppTableRecord
  2
ACAD
 70
     0
  0
ENDTAB
  0
TABLE
  2
DIMSTYLE
  5
9
100
AcDbSymbolTable
 70
     1
  0
DIMSTYLE
105
18
100
AcDbSymbolTableRecord
100
AcDbDimStyleTableRecord
  2
STANDARD
 70
     0
  3

  4

  5

  6

  7

 40
1.0
 41
0.18
 42
0.0625
 43
0.38
 44
0.18
 45
0.0
 46
0.0
 47
0.0
 48
0.0
 71
     0
 72
     0
 73
     1
 74
     1
 75
     0
 76
     0
 77
     0
 78
     0
140
0.18
141
0.09
142
0.0
143
25.4
144
1.0
145
0.0
146
1.0
147
0.09
170
     0
171
     2
172
     0
173
     0
174
     0
175
     0
176
     0
177
     0
178
     0
270
     2
271
     4
272
     4
273
     2
274
     2
275
     0
280
     0
281
     0
282
     0
283
     1
284
     0
285
     0
286
     0
287
     0
288
     0
340
17
  0
ENDTAB
  0
TABLE
  2
BLOCK_RECORD
  5
1
100
AcDbSymbolTable
 70
    14
  0
BLOCK_RECORD
  5
A
100
AcDbSymbolTableRecord
100
AcDbBlockTableRecord
  2
*MODEL_SPACE
  0
BLOCK_RECORD
  5
B
100
AcDbSymbolTableRecord
100
AcDbBlockTableRecord
  2
*PAPER_SPACE
  0
BLOCK_RECORD
  5
27
100
AcDbSymbolTableRecord
100
AcDbBlockTableRecord
  2
_EX_NORM
  0
BLOCK_RECORD
  5
28
100
AcDbSymbolTableRecord
100
AcDbBlockTableRecord
  2
_EX_BNORM
  0
BLOCK_RECORD
  5
29
100
AcDbSymbolTableRecord
100
AcDbBlockTableRecord
  2
_EX_BCIR
  0
BLOCK_RECORD
  5
2A
100
AcDbSymbolTableRecord
100
AcDbBlockTableRecord
  2
_EX_RCIVIL
  0
BLOCK_RECORD
  5
2B
100
AcDbSymbolTableRecord
100
AcDbBlockTableRecord
  2
_EX_SLANT
  0
BLOCK_RECORD
  5
2C
100
AcDbSymbolTableRecord
100
AcDbBlockTableRecord
  2
_EX_NONE
  0
BLOCK_RECORD
  5
2D
100
AcDbSymbolTableRecord
100
AcDbBlockTableRecord
  2
_EX_CIVIL
  0
BLOCK_RECORD
  5
2E
100
AcDbSymbolTableRecord
100
AcDbBlockTableRecord
  2
_EX_WCIR
  0
BLOCK_RECORD
  5
2F
100
AcDbSymbolTableRecord
100
AcDbBlockTableRecord
  2
_EX_WCIR2
  0
BLOCK_RECORD
  5
30
100
AcDbSymbolTableRecord
100
AcDbBlockTableRecord
  2
_EX_WNORM
  0
BLOCK_RECORD
  5
31
100
AcDbSymbolTableRecord
100
AcDbBlockTableRecord
  2
_EX_NNORM
  0
BLOCK_RECORD
  5
32
100
AcDbSymbolTableRecord
100
AcDbBlockTableRecord
  2
_EX_BBOX
  0
BLOCK_RECORD
  5
33
100
AcDbSymbolTableRecord
100
AcDbBlockTableRecord
  2
_EX_WBOX
  0
BLOCK_RECORD
  5
34
100
AcDbSymbolTableRecord
100
AcDbBlockTableRecord
  2
_EX_INTEGRAL
  0
ENDTAB
  0
ENDSEC
  0
SECTION
  2
BLOCKS
  0
BLOCK
  5
D
100
AcDbEntity
  8
0
100
AcDbBlockBegin
  2
*MODEL_SPACE
 70
     0
 10
0.0
 20
0.0
 30
0.0
  3
*MODEL_SPACE
  1

  0
ENDBLK
  5
E
100
AcDbEntity
  8
0
100
AcDbBlockEnd
  0
BLOCK
  5
F
100
AcDbEntity
 67
     1
  8
0
100
AcDbBlockBegin
  2
*PAPER_SPACE
 70
     0
 10
0.0
 20
0.0
 30
0.0
  3
*PAPER_SPACE
  1

  0
ENDBLK
  5
10
100
AcDbEntity
 67
     1
  8
0
100
AcDbBlockEnd
  0
BLOCK
  5
35
100
AcDbEntity
  8
0
100
AcDbBlockBegin
  2
_EX_NORM
 70
     0
 10
0.0
 20
0.0
 30
0.0
  3
_EX_NORM
  1

  0
LINE
  5
36
100
AcDbEntity
  8
0
  6
CONTINUOUS
 62
     0
100
AcDbLine
 10
0.0
 20
0.0
 30
0.0
 11
-1.0
 21
0.0
 31
0.0
  0
LINE
  5
37
100
AcDbEntity
  8
0
  6
CONTINUOUS
 62
     0
100
AcDbLine
 10
0.0
 20
0.0
 30
0.0
 11
-1.0
 21
0.166667
 31
0.0
  0
LINE
  5
38
100
AcDbEntity
  8
0
  6
CONTINUOUS
 62
     0
100
AcDbLine
 10
0.0
 20
0.0
 30
0.0
 11
-1.0
 21
-0.166667
 31
0.0
  0
ENDBLK
  5
39
100
AcDbEntity
  8
0
100
AcDbBlockEnd
  0
BLOCK
  5
3A
100
AcDbEntity
  8
0
100
AcDbBlockBegin
  2
_EX_BNORM
 70
     0
 10
0.0
 20
0.0
 30
0.0
  3
_EX_BNORM
  1

  0
LINE
  5
3B
100
AcDbEntity
  8
0
  6
CONTINUOUS
 62
     0
100
AcDbLine
 10
0.0
 20
0.0
 30
0.0
 11
-1.0
 21
0.0
 31
0.0
  0
LINE
  5
3C
100
AcDbEntity
  8
0
  6
CONTINUOUS
 62
     0
100
AcDbLine
 10
0.0
 20
0.0
 30
0.0
 11
-1.0
 21
0.166667
 31
0.0
  0
LINE
  5
3D
100
AcDbEntity
  8
0
  6
CONTINUOUS
 62
     0
100
AcDbLine
 10
0.0
 20
0.0
 30
0.0
 11
-1.0
 21
-0.166667
 31
0.0
  0
LINE
  5
3E
100
AcDbEntity
  8
0
  6
CONTINUOUS
 62
     0
100
AcDbLine
 10
0.0
 20
0.0
 30
0.0
 11
-1.0
 21
0.083333
 31
0.0
  0
LINE
  5
3F
100
AcDbEntity
  8
0
  6
CONTINUOUS
 62
     0
100
AcDbLine
 10
0.0
 20
0.0
 30
0.0
 11
-1.0
 21
-0.083333
 31
0.0
  0
LINE
  5
40
100
AcDbEntity
  8
0
  6
CONTINUOUS
 62
     0
100
AcDbLine
 10
-1.0
 20
0.166667
 30
0.0
 11
-1.0
 21
-0.166667
 31
0.0
  0
ENDBLK
  5
41
100
AcDbEntity
  8
0
100
AcDbBlockEnd
  0
BLOCK
  5
42
100
AcDbEntity
  8
0
100
AcDbBlockBegin
  2
_EX_BCIR
 70
     0
 10
0.0
 20
0.0
 30
0.0
  3
_EX_BCIR
  1

  0
LINE
  5
43
100
AcDbEntity
  8
0
  6
CONTINUOUS
 62
     0
100
AcDbLine
 10
0.0
 20
0.0
 30
0.0
 11
-1.0
 21
0.0
 31
0.0
  0
CIRCLE
  5
44
100
AcDbEntity
  8
0
  6
CONTINUOUS
 62
     0
100
AcDbCircle
 10
0.0
 20
0.0
 30
0.0
 40
0.5
  0
CIRCLE
  5
45
100
AcDbEntity
  8
0
  6
CONTINUOUS
 62
     0
100
AcDbCircle
 10
0.0
 20
0.0
 30
0.0
 40
0.25
  0
ENDBLK
  5
46
100
AcDbEntity
  8
0
100
AcDbBlockEnd
  0
BLOCK
  5
47
100
AcDbEntity
  8
0
100
AcDbBlockBegin
  2
_EX_RCIVIL
 70
     0
 10
0.0
 20
0.0
 30
0.0
  3
_EX_RCIVIL
  1

  0
LINE
  5
48
100
AcDbEntity
  8
0
  6
CONTINUOUS
 62
     0
100
AcDbLine
 10
0.0
 20
0.0
 30
0.0
 11
-1.0
 21
0.0
 31
0.0
  0
LINE
  5
49
100
AcDbEntity
  8
0
  6
CONTINUOUS
 62
     0
100
AcDbLine
 10
-1.0
 20
-0.25
 30
0.0
 11
0.0
 21
-0.25
 31
0.0
  0
LINE
  5
4A
100
AcDbEntity
  8
0
  6
CONTINUOUS
 62
     0
100
AcDbLine
 10
-1.0
 20
-0.125
 30
0.0
 11
0.0
 21
-0.125
 31
0.0
  0
ENDBLK
  5
4B
100
AcDbEntity
  8
0
100
AcDbBlockEnd
  0
BLOCK
  5
4C
100
AcDbEntity
  8
0
100
AcDbBlockBegin
  2
_EX_SLANT
 70
     0
 10
0.0
 20
0.0
 30
0.0
  3
_EX_SLANT
  1

  0
LINE
  5
4D
100
AcDbEntity
  8
0
  6
CONTINUOUS
 62
     0
100
AcDbLine
 10
0.0
 20
0.0
 30
0.0
 11
-1.0
 21
0.0
 31
0.0
  0
LINE
  5
4E
100
AcDbEntity
  8
0
  6
CONTINUOUS
 62
     0
100
AcDbLine
 10
0.707107
 20
0.707107
 30
0.0
 11
-0.707107
 21
-0.707107
 31
0.0
  0
ENDBLK
  5
4F
100
AcDbEntity
  8
0
100
AcDbBlockEnd
  0
BLOCK
  5
50
100
AcDbEntity
  8
0
100
AcDbBlockBegin
  2
_EX_NONE
 70
     0
 10
0.0
 20
0.0
 30
0.0
  3
_EX_NONE
  1

  0
LINE
  5
51
100
AcDbEntity
  8
0
  6
CONTINUOUS
 62
     0
100
AcDbLine
 10
0.0
 20
0.0
 30
0.0
 11
-1.0
 21
0.0
 31
0.0
  0
ENDBLK
  5
52
100
AcDbEntity
  8
0
100
AcDbBlockEnd
  0
BLOCK
  5
53
100
AcDbEntity
  8
0
100
AcDbBlockBegin
  2
_EX_CIVIL
 70
     0
 10
0.0
 20
0.0
 30
0.0
  3
_EX_CIVIL
  1

  0
LINE
  5
54
100
AcDbEntity
  8
0
  6
CONTINUOUS
 62
     0
100
AcDbLine
 10
0.0
 20
0.0
 30
0.0
 11
-1.0
 21
0.0
 31
0.0
  0
LINE
  5
55
100
AcDbEntity
  8
0
  6
CONTINUOUS
 62
     0
100
AcDbLine
 10
-1.0
 20
0.25
 30
0.0
 11
0.0
 21
0.25
 31
0.0
  0
LINE
  5
56
100
AcDbEntity
  8
0
  6
CONTINUOUS
 62
     0
100
AcDbLine
 10
-1.0
 20
0.125
 30
0.0
 11
0.0
 21
0.125
 31
0.0
  0
ENDBLK
  5
57
100
AcDbEntity
  8
0
100
AcDbBlockEnd
  0
BLOCK
  5
58
100
AcDbEntity
  8
0
100
AcDbBlockBegin
  2
_EX_WCIR
 70
     0
 10
0.0
 20
0.0
 30
0.0
  3
_EX_WCIR
  1

  0
LINE
  5
59
100
AcDbEntity
  8
0
  6
CONTINUOUS
 62
     0
100
AcDbLine
 10
0.0
 20
0.0
 30
0.0
 11
-1.0
 21
0.0
 31
0.0
  0
CIRCLE
  5
5A
100
AcDbEntity
  8
0
  6
CONTINUOUS
 62
     0
100
AcDbCircle
 10
0.0
 20
0.0
 30
0.0
 40
0.5
  0
ENDBLK
  5
5B
100
AcDbEntity
  8
0
100
AcDbBlockEnd
  0
BLOCK
  5
5C
100
AcDbEntity
  8
0
100
AcDbBlockBegin
  2
_EX_WCIR2
 70
     0
 10
0.0
 20
0.0
 30
0.0
  3
_EX_WCIR2
  1

  0
LINE
  5
5D
100
AcDbEntity
  8
0
  6
CONTINUOUS
 62
     0
100
AcDbLine
 10
-0.5
 20
0.0
 30
0.0
 11
-1.0
 21
0.0
 31
0.0
  0
CIRCLE
  5
5E
100
AcDbEntity
  8
0
  6
CONTINUOUS
 62
     0
100
AcDbCircle
 10
0.0
 20
0.0
 30
0.0
 40
0.5
  0
ENDBLK
  5
5F
100
AcDbEntity
  8
0
100
AcDbBlockEnd
  0
BLOCK
  5
60
100
AcDbEntity
  8
0
100
AcDbBlockBegin
  2
_EX_WNORM
 70
     0
 10
0.0
 20
0.0
 30
0.0
  3
_EX_WNORM
  1

  0
LINE
  5
61
100
AcDbEntity
  8
0
  6
CONTINUOUS
 62
     0
100
AcDbLine
 10
-1.0
 20
0.0
 30
0.0
 11
-1.0
 21
0.0
 31
0.0
  0
LINE
  5
62
100
AcDbEntity
  8
0
  6
CONTINUOUS
 62
     0
100
AcDbLine
 10
0.0
 20
0.0
 30
0.0
 11
-1.0
 21
0.166667
 31
0.0
  0
LINE
  5
63
100
AcDbEntity
  8
0
  6
CONTINUOUS
 62
     0
100
AcDbLine
 10
0.0
 20
0.0
 30
0.0
 11
-1.0
 21
-0.166667
 31
0.0
  0
LINE
  5
64
100
AcDbEntity
  8
0
  6
CONTINUOUS
 62
     0
100
AcDbLine
 10
-1.0
 20
0.166667
 30
0.0
 11
-1.0
 21
-0.166667
 31
0.0
  0
ENDBLK
  5
65
100
AcDbEntity
  8
0
100
AcDbBlockEnd
  0
BLOCK
  5
66
100
AcDbEntity
  8
0
100
AcDbBlockBegin
  2
_EX_NNORM
 70
     0
 10
0.0
 20
0.0
 30
0.0
  3
_EX_NNORM
  1

  0
LINE
  5
67
100
AcDbEntity
  8
0
  6
CONTINUOUS
 62
     0
100
AcDbLine
 10
0.0
 20
0.0
 30
0.0
 11
-1.0
 21
0.0
 31
0.0
  0
LINE
  5
68
100
AcDbEntity
  8
0
  6
CONTINUOUS
 62
     0
100
AcDbLine
 10
0.0
 20
0.0
 30
0.0
 11
-1.0
 21
0.166667
 31
0.0
  0
LINE
  5
69
100
AcDbEntity
  8
0
  6
CONTINUOUS
 62
     0
100
AcDbLine
 10
0.0
 20
0.0
 30
0.0
 11
-1.0
 21
-0.166667
 31
0.0
  0
LINE
  5
6A
100
AcDbEntity
  8
0
  6
CONTINUOUS
 62
     0
100
AcDbLine
 10
-1.0
 20
0.166667
 30
0.0
 11
-1.0
 21
-0.166667
 31
0.0
  0
ENDBLK
  5
6B
100
AcDbEntity
  8
0
100
AcDbBlockEnd
  0
BLOCK
  5
6C
100
AcDbEntity
  8
0
100
AcDbBlockBegin
  2
_EX_BBOX
 70
     0
 10
0.0
 20
0.0
 30
0.0
  3
_EX_BBOX
  1

  0
LINE
  5
6D
100
AcDbEntity
  8
0
  6
CONTINUOUS
 62
     0
100
AcDbLine
 10
0.0
 20
0.0
 30
0.0
 11
-1.0
 21
0.0
 31
0.0
  0
LINE
  5
6E
100
AcDbEntity
  8
0
  6
CONTINUOUS
 62
     0
100
AcDbLine
 10
-0.5
 20
0.5
 30
0.0
 11
0.5
 21
0.5
 31
0.0
  0
LINE
  5
6F
100
AcDbEntity
  8
0
  6
CONTINUOUS
 62
     0
100
AcDbLine
 10
0.5
 20
0.5
 30
0.0
 11
0.5
 21
-0.5
 31
0.0
  0
LINE
  5
70
100
AcDbEntity
  8
0
  6
CONTINUOUS
 62
     0
100
AcDbLine
 10
0.5
 20
-0.5
 30
0.0
 11
-0.5
 21
-0.5
 31
0.0
  0
LINE
  5
71
100
AcDbEntity
  8
0
  6
CONTINUOUS
 62
     0
100
AcDbLine
 10
-0.5
 20
-0.5
 30
0.0
 11
-0.5
 21
0.5
 31
0.0
  0
LINE
  5
72
100
AcDbEntity
  8
0
  6
CONTINUOUS
 62
     0
100
AcDbLine
 10
-0.25
 20
0.25
 30
0.0
 11
0.25
 21
0.25
 31
0.0
  0
LINE
  5
73
100
AcDbEntity
  8
0
  6
CONTINUOUS
 62
     0
100
AcDbLine
 10
0.25
 20
0.25
 30
0.0
 11
0.25
 21
-0.25
 31
0.0
  0
LINE
  5
74
100
AcDbEntity
  8
0
  6
CONTINUOUS
 62
     0
100
AcDbLine
 10
0.25
 20
-0.25
 30
0.0
 11
-0.25
 21
-0.25
 31
0.0
  0
LINE
  5
75
100
AcDbEntity
  8
0
  6
CONTINUOUS
 62
     0
100
AcDbLine
 10
-0.25
 20
-0.25
 30
0.0
 11
-0.25
 21
0.25
 31
0.0
  0
ENDBLK
  5
76
100
AcDbEntity
  8
0
100
AcDbBlockEnd
  0
BLOCK
  5
77
100
AcDbEntity
  8
0
100
AcDbBlockBegin
  2
_EX_WBOX
 70
     0
 10
0.0
 20
0.0
 30
0.0
  3
_EX_WBOX
  1

  0
LINE
  5
78
100
AcDbEntity
  8
0
  6
CONTINUOUS
 62
     0
100
AcDbLine
 10
-0.5
 20
0.0
 30
0.0
 11
-1.0
 21
0.0
 31
0.0
  0
LINE
  5
79
100
AcDbEntity
  8
0
  6
CONTINUOUS
 62
     0
100
AcDbLine
 10
-0.5
 20
0.5
 30
0.0
 11
0.5
 21
0.5
 31
0.0
  0
LINE
  5
7A
100
AcDbEntity
  8
0
  6
CONTINUOUS
 62
     0
100
AcDbLine
 10
0.5
 20
0.5
 30
0.0
 11
0.5
 21
-0.5
 31
0.0
  0
LINE
  5
7B
100
AcDbEntity
  8
0
  6
CONTINUOUS
 62
     0
100
AcDbLine
 10
0.5
 20
-0.5
 30
0.0
 11
-0.5
 21
-0.5
 31
0.0
  0
LINE
  5
7C
100
AcDbEntity
  8
0
  6
CONTINUOUS
 62
     0
100
AcDbLine
 10
-0.5
 20
-0.5
 30
0.0
 11
-0.5
 21
0.5
 31
0.0
  0
ENDBLK
  5
7D
100
AcDbEntity
  8
0
100
AcDbBlockEnd
  0
BLOCK
  5
7E
100
AcDbEntity
  8
0
100
AcDbBlockBegin
  2
_EX_INTEGRAL
 70
     0
 10
0.0
 20
0.0
 30
0.0
  3
_EX_INTEGRAL
  1

  0
LINE
  5
7F
100
AcDbEntity
  8
0
  6
CONTINUOUS
 62
     0
100
AcDbLine
 10
0.0
 20
0.0
 30
0.0
 11
-1.0
 21
0.0
 31
0.0
  0
ARC
  5
80
100
AcDbEntity
  8
0
  6
CONTINUOUS
 62
     0
100
AcDbCircle
 10
0.0
 20
0.0
 30
0.0
 40
0.707107
100
AcDbArc
 50
90.0
 51
180.0
  0
ARC
  5
81
100
AcDbEntity
  8
0
  6
CONTINUOUS
 62
     0
100
AcDbCircle
 10
0.0
 20
0.0
 30
0.0
 40
0.707107
100
AcDbArc
 50
270.0
 51
0.0
  0
ENDBLK
  5
82
100
AcDbEntity
  8
0
100
AcDbBlockEnd
  0
ENDSEC
  0
SECTION
  2
ENTITIES
  0
LINE
  5
83
100
AcDbEntity
  8
LAY-1
  6
CONTINUOUS
 62
     2
100
AcDbLine
 10
811.478571
 20
559.6
 30
0.0
 11
31.378571
 21
559.6
 31
0.0
  0
LINE
  5
84
100
AcDbEntity
  8
LAY-1
  6
CONTINUOUS
 62
     2
100
AcDbLine
 10
31.378571
 20
241.3
 30
0.0
 11
811.478571
 21
241.3
 31
0.0
  0
LINE
  5
85
100
AcDbEntity
  8
LAY-1
  6
CONTINUOUS
 62
     2
100
AcDbLine
 10
811.478571
 20
241.3
 30
0.0
 11
811.478571
 21
559.6
 31
0.0
  0
LINE
  5
86
100
AcDbEntity
  8
LAY-1
  6
CONTINUOUS
 62
     2
100
AcDbLine
 10
31.378571
 20
559.6
 30
0.0
 11
31.378571
 21
241.3
 31
0.0
  0
LINE
  5
87
100
AcDbEntity
  8
LAY-1
  6
CONTINUOUS
 62
     2
100
AcDbLine
 10
31.378571
 20
376.3
 30
0.0
 11
811.478571
 21
376.3
 31
0.0
  0
LINE
  5
88
100
AcDbEntity
  8
LAY-1
  6
CONTINUOUS
 62
     2
100
AcDbLine
 10
31.378571
 20
386.3
 30
0.0
 11
811.478571
 21
386.3
 31
0.0
  0
LINE
  5
89
100
AcDbEntity
  8
LAY-1
  6
CONTINUOUS
 62
     2
100
AcDbLine
 10
31.378571
 20
451.3
 30
0.0
 11
811.478571
 21
451.3
 31
0.0
  0
LINE
  5
8A
100
AcDbEntity
  8
LAY-1
  6
CONTINUOUS
 62
     2
100
AcDbLine
 10
31.378571
 20
461.3
 30
0.0
 11
811.478571
 21
461.3
 31
0.0
  0
LINE
  5
8B
100
AcDbEntity
  8
LAY-1
  6
CONTINUOUS
 62
     2
100
AcDbLine
 10
31.378571
 20
526.3
 30
0.0
 11
811.478571
 21
526.3
 31
0.0
  0
LINE
  5
8C
100
AcDbEntity
  8
LAY-1
  6
CONTINUOUS
 62
     2
100
AcDbLine
 10
31.378571
 20
536.3
 30
0.0
 11
811.478571
 21
536.3
 31
0.0
  0
LINE
  5
8D
100
AcDbEntity
  8
LAY-1
  6
CONTINUOUS
 62
     2
100
AcDbLine
 10
365.707143
 20
536.3
 30
0.0
 11
365.707143
 21
241.3
 31
0.0
  0
LINE
  5
8E
100
AcDbEntity
  8
LAY-1
  6
CONTINUOUS
 62
     3
100
AcDbLine
 10
122.169834
 20
499.683494
 30
0.0
 11
120.769834
 21
499.683494
 31
0.0
  0
LINE
  5
8F
100
AcDbEntity
  8
LAY-1
  6
CONTINUOUS
 62
     3
100
AcDbLine
 10
122.169834
 20
489.683494
 30
0.0
 11
120.769834
 21
489.683494
 31
0.0
  0
LINE
  5
90
100
AcDbEntity
  8
LAY-1
  6
CONTINUOUS
 62
     3
100
AcDbLine
 10
54.169834
 20
499.683494
 30
0.0
 11
55.569834
 21
499.683494
 31
0.0
  0
LINE
  5
91
100
AcDbEntity
  8
LAY-1
  6
CONTINUOUS
 62
     3
100
AcDbLine
 10
54.169834
 20
489.683494
 30
0.0
 11
55.569834
 21
489.683494
 31
0.0
  0
LINE
  5
92
100
AcDbEntity
  8
LAY-1
  6
CONTINUOUS
 62
     3
100
AcDbLine
 10
167.415448
 20
500.05
 30
0.0
 11
168.815448
 21
500.05
 31
0.0
  0
LINE
  5
93
100
AcDbEntity
  8
LAY-1
  6
CONTINUOUS
 62
     3
100
AcDbLine
 10
167.415448
 20
487.55
 30
0.0
 11
168.815448
 21
487.55
 31
0.0
  0
LINE
  5
94
100
AcDbEntity
  8
LAY-1
  6
CONTINUOUS
 62
     3
100
AcDbLine
 10
235.415448
 20
500.05
 30
0.0
 11
235.415448
 21
487.55
 31
0.0
  0
LINE
  5
95
100
AcDbEntity
  8
LAY-1
  6
CONTINUOUS
 62
     3
100
AcDbLine
 10
235.415448
 20
500.05
 30
0.0
 11
234.015448
 21
500.05
 31
0.0
  0
LINE
  5
96
100
AcDbEntity
  8
LAY-1
  6
CONTINUOUS
 62
     3
100
AcDbLine
 10
235.415448
 20
487.55
 30
0.0
 11
234.015448
 21
487.55
 31
0.0
  0
LINE
  5
97
100
AcDbEntity
  8
LAY-1
  6
CONTINUOUS
 62
     3
100
AcDbLine
 10
53.169834
 20
497.433494
 30
0.0
 11
54.169834
 21
497.433494
 31
0.0
  0
LINE
  5
98
100
AcDbEntity
  8
LAY-1
  6
CONTINUOUS
 62
     3
100
AcDbLine
 10
53.169834
 20
491.933494
 30
0.0
 11
54.169834
 21
491.933494
 31
0.0
  0
LINE
  5
99
100
AcDbEntity
  8
LAY-1
  6
CONTINUOUS
 62
     3
100
AcDbLine
 10
53.169834
 20
497.433494
 30
0.0
 11
53.169834
 21
491.933494
 31
0.0
  0
LINE
  5
9A
100
AcDbEntity
  8
LAY-1
  6
CONTINUOUS
 62
     3
100
AcDbLine
 10
54.169834
 20
499.683494
 30
0.0
 11
54.169834
 21
489.683494
 31
0.0
  0
LINE
  5
9B
100
AcDbEntity
  8
LAY-1
  6
CONTINUOUS
 62
     3
100
AcDbLine
 10
123.169834
 20
497.433494
 30
0.0
 11
122.169834
 21
497.433494
 31
0.0
  0
LINE
  5
9C
100
AcDbEntity
  8
LAY-1
  6
CONTINUOUS
 62
     3
100
AcDbLine
 10
123.169834
 20
491.933494
 30
0.0
 11
122.169834
 21
491.933494
 31
0.0
  0
LINE
  5
9D
100
AcDbEntity
  8
LAY-1
  6
CONTINUOUS
 62
     3
100
AcDbLine
 10
123.169834
 20
497.433494
 30
0.0
 11
123.169834
 21
491.933494
 31
0.0
  0
LINE
  5
9E
100
AcDbEntity
  8
LAY-1
  6
CONTINUOUS
 62
     3
100
AcDbLine
 10
122.169834
 20
499.683494
 30
0.0
 11
122.169834
 21
489.683494
 31
0.0
  0
LINE
  5
9F
100
AcDbEntity
  8
LAY-1
  6
CONTINUOUS
 62
     3
100
AcDbLine
 10
166.415448
 20
496.8
 30
0.0
 11
167.415448
 21
496.8
 31
0.0
  0
LINE
  5
A0
100
AcDbEntity
  8
LAY-1
  6
CONTINUOUS
 62
     3
100
AcDbLine
 10
166.415448
 20
490.8
 30
0.0
 11
167.415448
 21
490.8
 31
0.0
  0
LINE
  5
A1
100
AcDbEntity
  8
LAY-1
  6
CONTINUOUS
 62
     3
100
AcDbLine
 10
166.415448
 20
496.8
 30
0.0
 11
166.415448
 21
490.8
 31
0.0
  0
LINE
  5
A2
100
AcDbEntity
  8
LAY-1
  6
CONTINUOUS
 62
     3
100
AcDbLine
 10
167.415448
 20
500.05
 30
0.0
 11
167.415448
 21
487.55
 31
0.0
  0
LINE
  5
A3
100
AcDbEntity
  8
LAY-1
  6
CONTINUOUS
 62
     3
100
AcDbLine
 10
168.815448
 20
500.05
 30
0.0
 11
168.815448
 21
487.55
 31
0.0
  0
LINE
  5
A4
100
AcDbEntity
  8
LAY-1
  6
CONTINUOUS
 62
     3
100
AcDbLine
 10
234.015448
 20
500.05
 30
0.0
 11
234.015448
 21
487.55
 31
0.0
  0
LINE
  5
A5
100
AcDbEntity
  8
LAY-1
  6
CONTINUOUS
 62
     3
100
AcDbLine
 10
236.415448
 20
490.8
 30
0.0
 11
235.415448
 21
490.8
 31
0.0
  0
LINE
  5
A6
100
AcDbEntity
  8
LAY-1
  6
CONTINUOUS
 62
     3
100
AcDbLine
 10
236.415448
 20
496.8
 30
0.0
 11
235.415448
 21
496.8
 31
0.0
  0
LINE
  5
A7
100
AcDbEntity
  8
LAY-1
  6
CONTINUOUS
 62
     3
100
AcDbLine
 10
236.415448
 20
490.8
 30
0.0
 11
236.415448
 21
496.8
 31
0.0
  0
LINE
  5
A8
100
AcDbEntity
  8
LAY-1
  6
CONTINUOUS
 62
     3
100
AcDbLine
 10
346.658305
 20
500.55
 30
0.0
 11
345.058305
 21
500.55
 31
0.0
  0
LINE
  5
A9
100
AcDbEntity
  8
LAY-1
  6
CONTINUOUS
 62
     3
100
AcDbLine
 10
346.658305
 20
487.05
 30
0.0
 11
345.058305
 21
487.05
 31
0.0
  0
LINE
  5
AA
100
AcDbEntity
  8
LAY-1
  6
CONTINUOUS
 62
     3
100
AcDbLine
 10
278.658305
 20
500.55
 30
0.0
 11
280.258305
 21
500.55
 31
0.0
  0
LINE
  5
AB
100
AcDbEntity
  8
LAY-1
  6
CONTINUOUS
 62
     3
100
AcDbLine
 10
278.658305
 20
487.05
 30
0.0
 11
280.258305
 21
487.05
 31
0.0
  0
LINE
  5
AC
100
AcDbEntity
  8
LAY-1
  6
CONTINUOUS
 62
     3
100
AcDbLine
 10
347.658305
 20
497.65
 30
0.0
 11
346.658305
 21
497.65
 31
0.0
  0
LINE
  5
AD
100
AcDbEntity
  8
LAY-1
  6
CONTINUOUS
 62
     3
100
AcDbLine
 10
277.658305
 20
497.65
 30
0.0
 11
278.658305
 21
497.65
 31
0.0
  0
LINE
  5
AE
100
AcDbEntity
  8
LAY-1
  6
CONTINUOUS
 62
     3
100
AcDbLine
 10
347.658305
 20
489.95
 30
0.0
 11
346.658305
 21
489.95
 31
0.0
  0
LINE
  5
AF
100
AcDbEntity
  8
LAY-1
  6
CONTINUOUS
 62
     3
100
AcDbLine
 10
277.658305
 20
489.95
 30
0.0
 11
278.658305
 21
489.95
 31
0.0
  0
LINE
  5
B0
100
AcDbEntity
  8
LAY-1
  6
CONTINUOUS
 62
     3
100
AcDbLine
 10
347.658305
 20
497.65
 30
0.0
 11
347.658305
 21
489.95
 31
0.0
  0
LINE
  5
B1
100
AcDbEntity
  8
LAY-1
  6
CONTINUOUS
 62
     3
100
AcDbLine
 10
346.658305
 20
500.55
 30
0.0
 11
346.658305
 21
487.05
 31
0.0
  0
LINE
  5
B2
100
AcDbEntity
  8
LAY-1
  6
CONTINUOUS
 62
     3
100
AcDbLine
 10
345.058305
 20
500.55
 30
0.0
 11
345.058305
 21
487.05
 31
0.0
  0
LINE
  5
B3
100
AcDbEntity
  8
LAY-1
  6
CONTINUOUS
 62
     3
100
AcDbLine
 10
280.258305
 20
500.55
 30
0.0
 11
280.258305
 21
487.05
 31
0.0
  0
LINE
  5
B4
100
AcDbEntity
  8
LAY-1
  6
CONTINUOUS
 62
     3
100
AcDbLine
 10
278.658305
 20
500.55
 30
0.0
 11
278.658305
 21
487.05
 31
0.0
  0
LINE
  5
B5
100
AcDbEntity
  8
LAY-1
  6
CONTINUOUS
 62
     3
100
AcDbLine
 10
277.658305
 20
497.65
 30
0.0
 11
277.658305
 21
489.95
 31
0.0
  0
LINE
  5
B6
100
AcDbEntity
  8
LAY-1
  6
CONTINUOUS
 62
     3
100
AcDbLine
 10
458.411163
 20
500.8
 30
0.0
 11
456.811163
 21
500.8
 31
0.0
  0
LINE
  5
B7
100
AcDbEntity
  8
LAY-1
  6
CONTINUOUS
 62
     3
100
AcDbLine
 10
458.411163
 20
486.8
 30
0.0
 11
456.811163
 21
486.8
 31
0.0
  0
LINE
  5
B8
100
AcDbEntity
  8
LAY-1
  6
CONTINUOUS
 62
     3
100
AcDbLine
 10
390.411163
 20
500.8
 30
0.0
 11
392.011163
 21
500.8
 31
0.0
  0
LINE
  5
B9
100
AcDbEntity
  8
LAY-1
  6
CONTINUOUS
 62
     3
100
AcDbLine
 10
390.411163
 20
486.8
 30
0.0
 11
392.011163
 21
486.8
 31
0.0
  0
LINE
  5
BA
100
AcDbEntity
  8
LAY-1
  6
CONTINUOUS
 62
     3
100
AcDbLine
 10
459.411163
 20
497.8
 30
0.0
 11
458.411163
 21
497.8
 31
0.0
  0
LINE
  5
BB
100
AcDbEntity
  8
LAY-1
  6
CONTINUOUS
 62
     3
100
AcDbLine
 10
389.411163
 20
497.8
 30
0.0
 11
390.411163
 21
497.8
 31
0.0
  0
LINE
  5
BC
100
AcDbEntity
  8
LAY-1
  6
CONTINUOUS
 62
     3
100
AcDbLine
 10
459.411163
 20
489.8
 30
0.0
 11
458.411163
 21
489.8
 31
0.0
  0
LINE
  5
BD
100
AcDbEntity
  8
LAY-1
  6
CONTINUOUS
 62
     3
100
AcDbLine
 10
389.411163
 20
489.8
 30
0.0
 11
390.411163
 21
489.8
 31
0.0
  0
LINE
  5
BE
100
AcDbEntity
  8
LAY-1
  6
CONTINUOUS
 62
     3
100
AcDbLine
 10
459.411163
 20
497.8
 30
0.0
 11
459.411163
 21
489.8
 31
0.0
  0
LINE
  5
BF
100
AcDbEntity
  8
LAY-1
  6
CONTINUOUS
 62
     3
100
AcDbLine
 10
458.411163
 20
500.8
 30
0.0
 11
458.411163
 21
486.8
 31
0.0
  0
LINE
  5
C0
100
AcDbEntity
  8
LAY-1
  6
CONTINUOUS
 62
     3
100
AcDbLine
 10
456.811163
 20
500.8
 30
0.0
 11
456.811163
 21
486.8
 31
0.0
  0
LINE
  5
C1
100
AcDbEntity
  8
LAY-1
  6
CONTINUOUS
 62
     3
100
AcDbLine
 10
389.411163
 20
497.8
 30
0.0
 11
389.411163
 21
489.8
 31
0.0
  0
LINE
  5
C2
100
AcDbEntity
  8
LAY-1
  6
CONTINUOUS
 62
     3
100
AcDbLine
 10
390.411163
 20
500.8
 30
0.0
 11
390.411163
 21
486.8
 31
0.0
  0
LINE
  5
C3
100
AcDbEntity
  8
LAY-1
  6
CONTINUOUS
 62
     3
100
AcDbLine
 10
392.011163
 20
500.8
 30
0.0
 11
392.011163
 21
486.8
 31
0.0
  0
LINE
  5
C4
100
AcDbEntity
  8
LAY-1
  6
CONTINUOUS
 62
     3
100
AcDbLine
 10
120.769834
 20
499.683494
 30
0.0
 11
120.769834
 21
489.683494
 31
0.0
  0
LINE
  5
C5
100
AcDbEntity
  8
LAY-1
  6
CONTINUOUS
 62
     3
100
AcDbLine
 10
55.569834
 20
499.683494
 30
0.0
 11
55.569834
 21
489.683494
 31
0.0
  0
LINE
  5
C6
100
AcDbEntity
  8
LAY-1
  6
CONTINUOUS
 62
     3
100
AcDbLine
 10
569.74402
 20
501.55
 30
0.0
 11
568.14402
 21
501.55
 31
0.0
  0
LINE
  5
C7
100
AcDbEntity
  8
LAY-1
  6
CONTINUOUS
 62
     3
100
AcDbLine
 10
569.74402
 20
486.05
 30
0.0
 11
568.14402
 21
486.05
 31
0.0
  0
LINE
  5
C8
100
AcDbEntity
  8
LAY-1
  6
CONTINUOUS
 62
     3
100
AcDbLine
 10
501.74402
 20
501.55
 30
0.0
 11
503.34402
 21
501.55
 31
0.0
  0
LINE
  5
C9
100
AcDbEntity
  8
LAY-1
  6
CONTINUOUS
 62
     3
100
AcDbLine
 10
501.74402
 20
486.05
 30
0.0
 11
503.34402
 21
486.05
 31
0.0
  0
LINE
  5
CA
100
AcDbEntity
  8
LAY-1
  6
CONTINUOUS
 62
     3
100
AcDbLine
 10
570.74402
 20
498.55
 30
0.0
 11
569.74402
 21
498.55
 31
0.0
  0
LINE
  5
CB
100
AcDbEntity
  8
LAY-1
  6
CONTINUOUS
 62
     3
100
AcDbLine
 10
500.74402
 20
498.55
 30
0.0
 11
501.74402
 21
498.55
 31
0.0
  0
LINE
  5
CC
100
AcDbEntity
  8
LAY-1
  6
CONTINUOUS
 62
     3
100
AcDbLine
 10
570.74402
 20
489.05
 30
0.0
 11
569.74402
 21
489.05
 31
0.0
  0
LINE
  5
CD
100
AcDbEntity
  8
LAY-1
  6
CONTINUOUS
 62
     3
100
AcDbLine
 10
500.74402
 20
489.05
 30
0.0
 11
501.74402
 21
489.05
 31
0.0
  0
LINE
  5
CE
100
AcDbEntity
  8
LAY-1
  6
CONTINUOUS
 62
     3
100
AcDbLine
 10
570.74402
 20
498.55
 30
0.0
 11
570.74402
 21
489.05
 31
0.0
  0
LINE
  5
CF
100
AcDbEntity
  8
LAY-1
  6
CONTINUOUS
 62
     3
100
AcDbLine
 10
569.74402
 20
501.55
 30
0.0
 11
569.74402
 21
486.05
 31
0.0
  0
LINE
  5
D0
100
AcDbEntity
  8
LAY-1
  6
CONTINUOUS
 62
     3
100
AcDbLine
 10
568.14402
 20
501.55
 30
0.0
 11
568.14402
 21
486.05
 31
0.0
  0
LINE
  5
D1
100
AcDbEntity
  8
LAY-1
  6
CONTINUOUS
 62
     3
100
AcDbLine
 10
500.74402
 20
498.55
 30
0.0
 11
500.74402
 21
489.05
 31
0.0
  0
LINE
  5
D2
100
AcDbEntity
  8
LAY-1
  6
CONTINUOUS
 62
     3
100
AcDbLine
 10
501.74402
 20
501.55
 30
0.0
 11
501.74402
 21
486.05
 31
0.0
  0
LINE
  5
D3
100
AcDbEntity
  8
LAY-1
  6
CONTINUOUS
 62
     3
100
AcDbLine
 10
503.34402
 20
501.55
 30
0.0
 11
503.34402
 21
486.05
 31
0.0
  0
LINE
  5
D4
100
AcDbEntity
  8
LAY-1
  6
CONTINUOUS
 62
     3
100
AcDbLine
 10
682.350302
 20
502.55
 30
0.0
 11
680.550302
 21
502.55
 31
0.0
  0
LINE
  5
D5
100
AcDbEntity
  8
LAY-1
  6
CONTINUOUS
 62
     3
100
AcDbLine
 10
682.350302
 20
485.05
 30
0.0
 11
680.550302
 21
485.05
 31
0.0
  0
LINE
  5
D6
100
AcDbEntity
  8
LAY-1
  6
CONTINUOUS
 62
     3
100
AcDbLine
 10
604.350302
 20
502.55
 30
0.0
 11
606.150302
 21
502.55
 31
0.0
  0
LINE
  5
D7
100
AcDbEntity
  8
LAY-1
  6
CONTINUOUS
 62
     3
100
AcDbLine
 10
604.350302
 20
485.05
 30
0.0
 11
606.150302
 21
485.05
 31
0.0
  0
LINE
  5
D8
100
AcDbEntity
  8
LAY-1
  6
CONTINUOUS
 62
     3
100
AcDbLine
 10
683.350302
 20
499.55
 30
0.0
 11
682.350302
 21
499.55
 31
0.0
  0
LINE
  5
D9
100
AcDbEntity
  8
LAY-1
  6
CONTINUOUS
 62
     3
100
AcDbLine
 10
603.350302
 20
499.55
 30
0.0
 11
604.350302
 21
499.55
 31
0.0
  0
LINE
  5
DA
100
AcDbEntity
  8
LAY-1
  6
CONTINUOUS
 62
     3
100
AcDbLine
 10
683.350302
 20
488.05
 30
0.0
 11
682.350302
 21
488.05
 31
0.0
  0
LINE
  5
DB
100
AcDbEntity
  8
LAY-1
  6
CONTINUOUS
 62
     3
100
AcDbLine
 10
603.350302
 20
488.05
 30
0.0
 11
604.350302
 21
488.05
 31
0.0
  0
LINE
  5
DC
100
AcDbEntity
  8
LAY-1
  6
CONTINUOUS
 62
     3
100
AcDbLine
 10
683.350302
 20
499.55
 30
0.0
 11
683.350302
 21
488.05
 31
0.0
  0
LINE
  5
DD
100
AcDbEntity
  8
LAY-1
  6
CONTINUOUS
 62
     3
100
AcDbLine
 10
682.350302
 20
502.55
 30
0.0
 11
682.350302
 21
485.05
 31
0.0
  0
LINE
  5
DE
100
AcDbEntity
  8
LAY-1
  6
CONTINUOUS
 62
     3
100
AcDbLine
 10
680.550302
 20
502.55
 30
0.0
 11
680.550302
 21
485.05
 31
0.0
  0
LINE
  5
DF
100
AcDbEntity
  8
LAY-1
  6
CONTINUOUS
 62
     3
100
AcDbLine
 10
603.350302
 20
499.55
 30
0.0
 11
603.350302
 21
488.05
 31
0.0
  0
LINE
  5
E0
100
AcDbEntity
  8
LAY-1
  6
CONTINUOUS
 62
     3
100
AcDbLine
 10
604.350302
 20
502.55
 30
0.0
 11
604.350302
 21
485.05
 31
0.0
  0
LINE
  5
E1
100
AcDbEntity
  8
LAY-1
  6
CONTINUOUS
 62
     3
100
AcDbLine
 10
606.150302
 20
502.55
 30
0.0
 11
606.150302
 21
485.05
 31
0.0
  0
LINE
  5
E2
100
AcDbEntity
  8
LAY-1
  6
CONTINUOUS
 62
     3
100
AcDbLine
 10
797.773159
 20
503.05
 30
0.0
 11
795.973159
 21
503.05
 31
0.0
  0
LINE
  5
E3
100
AcDbEntity
  8
LAY-1
  6
CONTINUOUS
 62
     3
100
AcDbLine
 10
797.773159
 20
484.55
 30
0.0
 11
795.973159
 21
484.55
 31
0.0
  0
LINE
  5
E4
100
AcDbEntity
  8
LAY-1
  6
CONTINUOUS
 62
     3
100
AcDbLine
 10
719.773159
 20
503.05
 30
0.0
 11
721.573159
 21
503.05
 31
0.0
  0
LINE
  5
E5
100
AcDbEntity
  8
LAY-1
  6
CONTINUOUS
 62
     3
100
AcDbLine
 10
719.773159
 20
484.55
 30
0.0
 11
721.573159
 21
484.55
 31
0.0
  0
LINE
  5
E6
100
AcDbEntity
  8
LAY-1
  6
CONTINUOUS
 62
     3
100
AcDbLine
 10
798.773159
 20
500.05
 30
0.0
 11
797.773159
 21
500.05
 31
0.0
  0
LINE
  5
E7
100
AcDbEntity
  8
LAY-1
  6
CONTINUOUS
 62
     3
100
AcDbLine
 10
718.773159
 20
500.05
 30
0.0
 11
719.773159
 21
500.05
 31
0.0
  0
LINE
  5
E8
100
AcDbEntity
  8
LAY-1
  6
CONTINUOUS
 62
     3
100
AcDbLine
 10
798.773159
 20
487.55
 30
0.0
 11
797.773159
 21
487.55
 31
0.0
  0
LINE
  5
E9
100
AcDbEntity
  8
LAY-1
  6
CONTINUOUS
 62
     3
100
AcDbLine
 10
718.773159
 20
487.55
 30
0.0
 11
719.773159
 21
487.55
 31
0.0
  0
LINE
  5
EA
100
AcDbEntity
  8
LAY-1
  6
CONTINUOUS
 62
     3
100
AcDbLine
 10
798.773159
 20
500.05
 30
0.0
 11
798.773159
 21
487.55
 31
0.0
  0
LINE
  5
EB
100
AcDbEntity
  8
LAY-1
  6
CONTINUOUS
 62
     3
100
AcDbLine
 10
797.773159
 20
503.05
 30
0.0
 11
797.773159
 21
484.55
 31
0.0
  0
LINE
  5
EC
100
AcDbEntity
  8
LAY-1
  6
CONTINUOUS
 62
     3
100
AcDbLine
 10
795.973159
 20
503.05
 30
0.0
 11
795.973159
 21
484.55
 31
0.0
  0
LINE
  5
ED
100
AcDbEntity
  8
LAY-1
  6
CONTINUOUS
 62
     3
100
AcDbLine
 10
718.773159
 20
500.05
 30
0.0
 11
718.773159
 21
487.55
 31
0.0
  0
LINE
  5
EE
100
AcDbEntity
  8
LAY-1
  6
CONTINUOUS
 62
     3
100
AcDbLine
 10
719.773159
 20
503.05
 30
0.0
 11
719.773159
 21
484.55
 31
0.0
  0
LINE
  5
EF
100
AcDbEntity
  8
LAY-1
  6
CONTINUOUS
 62
     3
100
AcDbLine
 10
721.573159
 20
503.05
 30
0.0
 11
721.573159
 21
484.55
 31
0.0
  0
LINE
  5
F0
100
AcDbEntity
  8
LAY-1
  6
CONTINUOUS
 62
     3
100
AcDbLine
 10
129.016017
 20
429.3
 30
0.0
 11
127.216017
 21
429.3
 31
0.0
  0
LINE
  5
F1
100
AcDbEntity
  8
LAY-1
  6
CONTINUOUS
 62
     3
100
AcDbLine
 10
129.016017
 20
408.3
 30
0.0
 11
127.216017
 21
408.3
 31
0.0
  0
LINE
  5
F2
100
AcDbEntity
  8
LAY-1
  6
CONTINUOUS
 62
     3
100
AcDbLine
 10
51.016017
 20
429.3
 30
0.0
 11
52.816017
 21
429.3
 31
0.0
  0
LINE
  5
F3
100
AcDbEntity
  8
LAY-1
  6
CONTINUOUS
 62
     3
100
AcDbLine
 10
51.016017
 20
408.3
 30
0.0
 11
52.816017
 21
408.3
 31
0.0
  0
LINE
  5
F4
100
AcDbEntity
  8
LAY-1
  6
CONTINUOUS
 62
     3
100
AcDbLine
 10
130.016017
 20
426.3
 30
0.0
 11
129.016017
 21
426.3
 31
0.0
  0
LINE
  5
F5
100
AcDbEntity
  8
LAY-1
  6
CONTINUOUS
 62
     3
100
AcDbLine
 10
50.016017
 20
426.3
 30
0.0
 11
51.016017
 21
426.3
 31
0.0
  0
LINE
  5
F6
100
AcDbEntity
  8
LAY-1
  6
CONTINUOUS
 62
     3
100
AcDbLine
 10
130.016017
 20
411.3
 30
0.0
 11
129.016017
 21
411.3
 31
0.0
  0
LINE
  5
F7
100
AcDbEntity
  8
LAY-1
  6
CONTINUOUS
 62
     3
100
AcDbLine
 10
50.016017
 20
411.3
 30
0.0
 11
51.016017
 21
411.3
 31
0.0
  0
LINE
  5
F8
100
AcDbEntity
  8
LAY-1
  6
CONTINUOUS
 62
     3
100
AcDbLine
 10
130.016017
 20
426.3
 30
0.0
 11
130.016017
 21
411.3
 31
0.0
  0
LINE
  5
F9
100
AcDbEntity
  8
LAY-1
  6
CONTINUOUS
 62
     3
100
AcDbLine
 10
129.016017
 20
429.3
 30
0.0
 11
129.016017
 21
408.3
 31
0.0
  0
LINE
  5
FA
100
AcDbEntity
  8
LAY-1
  6
CONTINUOUS
 62
     3
100
AcDbLine
 10
127.216017
 20
429.3
 30
0.0
 11
127.216017
 21
408.3
 31
0.0
  0
LINE
  5
FB
100
AcDbEntity
  8
LAY-1
  6
CONTINUOUS
 62
     3
100
AcDbLine
 10
50.016017
 20
426.3
 30
0.0
 11
50.016017
 21
411.3
 31
0.0
  0
LINE
  5
FC
100
AcDbEntity
  8
LAY-1
  6
CONTINUOUS
 62
     3
100
AcDbLine
 10
51.016017
 20
429.3
 30
0.0
 11
51.016017
 21
408.3
 31
0.0
  0
LINE
  5
FD
100
AcDbEntity
  8
LAY-1
  6
CONTINUOUS
 62
     3
100
AcDbLine
 10
52.816017
 20
429.3
 30
0.0
 11
52.816017
 21
408.3
 31
0.0
  0
LINE
  5
FE
100
AcDbEntity
  8
LAY-1
  6
CONTINUOUS
 62
     2
100
AcDbLine
 10
254.264286
 20
536.3
 30
0.0
 11
254.264286
 21
241.3
 31
0.0
  0
LINE
  5
FF
100
AcDbEntity
  8
LAY-1
  6
CONTINUOUS
 62
     3
100
AcDbLine
 10
374.476021
 20
435.3
 30
0.0
 11
376.276021
 21
435.3
 31
0.0
  0
LINE
  5
100
100
AcDbEntity
  8
LAY-1
  6
CONTINUOUS
 62
     3
100
AcDbLine
 10
374.476021
 20
402.3
 30
0.0
 11
376.276021
 21
402.3
 31
0.0
  0
LINE
  5
101
100
AcDbEntity
  8
LAY-1
  6
CONTINUOUS
 62
     3
100
AcDbLine
 10
471.476021
 20
435.3
 30
0.0
 11
469.676021
 21
435.3
 31
0.0
  0
LINE
  5
102
100
AcDbEntity
  8
LAY-1
  6
CONTINUOUS
 62
     3
100
AcDbLine
 10
471.476021
 20
402.3
 30
0.0
 11
469.676021
 21
402.3
 31
0.0
  0
LINE
  5
103
100
AcDbEntity
  8
LAY-1
  6
CONTINUOUS
 62
     3
100
AcDbLine
 10
372.976021
 20
431.65
 30
0.0
 11
374.476021
 21
431.65
 31
0.0
  0
LINE
  5
104
100
AcDbEntity
  8
LAY-1
  6
CONTINUOUS
 62
     3
100
AcDbLine
 10
472.976021
 20
431.65
 30
0.0
 11
471.476021
 21
431.65
 31
0.0
  0
LINE
  5
105
100
AcDbEntity
  8
LAY-1
  6
CONTINUOUS
 62
     3
100
AcDbLine
 10
372.976021
 20
405.95
 30
0.0
 11
374.476021
 21
405.95
 31
0.0
  0
LINE
  5
106
100
AcDbEntity
  8
LAY-1
  6
CONTINUOUS
 62
     3
100
AcDbLine
 10
472.976021
 20
405.95
 30
0.0
 11
471.476021
 21
405.95
 31
0.0
  0
LINE
  5
107
100
AcDbEntity
  8
LAY-1
  6
CONTINUOUS
 62
     3
100
AcDbLine
 10
472.976021
 20
431.65
 30
0.0
 11
472.976021
 21
405.95
 31
0.0
  0
LINE
  5
108
100
AcDbEntity
  8
LAY-1
  6
CONTINUOUS
 62
     3
100
AcDbLine
 10
372.976021
 20
431.65
 30
0.0
 11
372.976021
 21
405.95
 31
0.0
  0
LINE
  5
109
100
AcDbEntity
  8
LAY-1
  6
CONTINUOUS
 62
     3
100
AcDbLine
 10
374.476021
 20
435.3
 30
0.0
 11
374.476021
 21
402.3
 31
0.0
  0
LINE
  5
10A
100
AcDbEntity
  8
LAY-1
  6
CONTINUOUS
 62
     3
100
AcDbLine
 10
376.276021
 20
435.3
 30
0.0
 11
376.276021
 21
402.3
 31
0.0
  0
LINE
  5
10B
100
AcDbEntity
  8
LAY-1
  6
CONTINUOUS
 62
     3
100
AcDbLine
 10
471.476021
 20
435.3
 30
0.0
 11
471.476021
 21
402.3
 31
0.0
  0
LINE
  5
10C
100
AcDbEntity
  8
LAY-1
  6
CONTINUOUS
 62
     3
100
AcDbLine
 10
469.676021
 20
435.3
 30
0.0
 11
469.676021
 21
402.3
 31
0.0
  0
LINE
  5
10D
100
AcDbEntity
  8
LAY-1
  6
CONTINUOUS
 62
     3
100
AcDbLine
 10
485.318878
 20
438.8
 30
0.0
 11
487.118878
 21
438.8
 31
0.0
  0
LINE
  5
10E
100
AcDbEntity
  8
LAY-1
  6
CONTINUOUS
 62
     3
100
AcDbLine
 10
485.318878
 20
398.8
 30
0.0
 11
487.118878
 21
398.8
 31
0.0
  0
LINE
  5
10F
100
AcDbEntity
  8
LAY-1
  6
CONTINUOUS
 62
     3
100
AcDbLine
 10
582.318878
 20
438.8
 30
0.0
 11
580.518878
 21
438.8
 31
0.0
  0
LINE
  5
110
100
AcDbEntity
  8
LAY-1
  6
CONTINUOUS
 62
     3
100
AcDbLine
 10
582.318878
 20
398.8
 30
0.0
 11
580.518878
 21
398.8
 31
0.0
  0
LINE
  5
111
100
AcDbEntity
  8
LAY-1
  6
CONTINUOUS
 62
     3
100
AcDbLine
 10
483.818878
 20
435.0
 30
0.0
 11
485.318878
 21
435.0
 31
0.0
  0
LINE
  5
112
100
AcDbEntity
  8
LAY-1
  6
CONTINUOUS
 62
     3
100
AcDbLine
 10
583.818878
 20
435.0
 30
0.0
 11
582.318878
 21
435.0
 31
0.0
  0
LINE
  5
113
100
AcDbEntity
  8
LAY-1
  6
CONTINUOUS
 62
     3
100
AcDbLine
 10
483.818878
 20
402.6
 30
0.0
 11
485.318878
 21
402.6
 31
0.0
  0
LINE
  5
114
100
AcDbEntity
  8
LAY-1
  6
CONTINUOUS
 62
     3
100
AcDbLine
 10
583.818878
 20
402.6
 30
0.0
 11
582.318878
 21
402.6
 31
0.0
  0
LINE
  5
115
100
AcDbEntity
  8
LAY-1
  6
CONTINUOUS
 62
     3
100
AcDbLine
 10
583.818878
 20
435.0
 30
0.0
 11
583.818878
 21
402.6
 31
0.0
  0
LINE
  5
116
100
AcDbEntity
  8
LAY-1
  6
CONTINUOUS
 62
     3
100
AcDbLine
 10
483.818878
 20
435.0
 30
0.0
 11
483.818878
 21
402.6
 31
0.0
  0
LINE
  5
117
100
AcDbEntity
  8
LAY-1
  6
CONTINUOUS
 62
     3
100
AcDbLine
 10
485.318878
 20
438.8
 30
0.0
 11
485.318878
 21
398.8
 31
0.0
  0
LINE
  5
118
100
AcDbEntity
  8
LAY-1
  6
CONTINUOUS
 62
     3
100
AcDbLine
 10
487.118878
 20
438.8
 30
0.0
 11
487.118878
 21
398.8
 31
0.0
  0
LINE
  5
119
100
AcDbEntity
  8
LAY-1
  6
CONTINUOUS
 62
     3
100
AcDbLine
 10
582.318878
 20
438.8
 30
0.0
 11
582.318878
 21
398.8
 31
0.0
  0
LINE
  5
11A
100
AcDbEntity
  8
LAY-1
  6
CONTINUOUS
 62
     3
100
AcDbLine
 10
580.518878
 20
438.8
 30
0.0
 11
580.518878
 21
398.8
 31
0.0
  0
LINE
  5
11B
100
AcDbEntity
  8
LAY-1
  6
CONTINUOUS
 62
     2
100
AcDbLine
 10
477.15
 20
536.3
 30
0.0
 11
477.15
 21
241.3
 31
0.0
  0
LINE
  5
11C
100
AcDbEntity
  8
LAY-1
  6
CONTINUOUS
 62
     2
100
AcDbLine
 10
700.035714
 20
536.3
 30
0.0
 11
700.035714
 21
461.3
 31
0.0
  0
LINE
  5
11D
100
AcDbEntity
  8
LAY-1
  6
CONTINUOUS
 62
     3
100
AcDbLine
 10
646.761735
 20
441.05
 30
0.0
 11
648.761735
 21
441.05
 31
0.0
  0
LINE
  5
11E
100
AcDbEntity
  8
LAY-1
  6
CONTINUOUS
 62
     3
100
AcDbLine
 10
646.761735
 20
396.55
 30
0.0
 11
648.761735
 21
396.55
 31
0.0
  0
LINE
  5
11F
100
AcDbEntity
  8
LAY-1
  6
CONTINUOUS
 62
     3
100
AcDbLine
 10
753.761735
 20
396.55
 30
0.0
 11
751.761735
 21
396.55
 31
0.0
  0
LINE
  5
120
100
AcDbEntity
  8
LAY-1
  6
CONTINUOUS
 62
     3
100
AcDbLine
 10
753.761735
 20
441.05
 30
0.0
 11
751.761735
 21
441.05
 31
0.0
  0
LINE
  5
121
100
AcDbEntity
  8
LAY-1
  6
CONTINUOUS
 62
     3
100
AcDbLine
 10
645.261735
 20
437.1
 30
0.0
 11
646.761735
 21
437.1
 31
0.0
  0
LINE
  5
122
100
AcDbEntity
  8
LAY-1
  6
CONTINUOUS
 62
     3
100
AcDbLine
 10
755.261735
 20
437.1
 30
0.0
 11
753.761735
 21
437.1
 31
0.0
  0
LINE
  5
123
100
AcDbEntity
  8
LAY-1
  6
CONTINUOUS
 62
     3
100
AcDbLine
 10
645.261735
 20
400.5
 30
0.0
 11
646.761735
 21
400.5
 31
0.0
  0
LINE
  5
124
100
AcDbEntity
  8
LAY-1
  6
CONTINUOUS
 62
     3
100
AcDbLine
 10
755.261735
 20
400.5
 30
0.0
 11
753.761735
 21
400.5
 31
0.0
  0
LINE
  5
125
100
AcDbEntity
  8
LAY-1
  6
CONTINUOUS
 62
     3
100
AcDbLine
 10
755.261735
 20
437.1
 30
0.0
 11
755.261735
 21
400.5
 31
0.0
  0
LINE
  5
126
100
AcDbEntity
  8
LAY-1
  6
CONTINUOUS
 62
     3
100
AcDbLine
 10
645.261735
 20
437.1
 30
0.0
 11
645.261735
 21
400.5
 31
0.0
  0
LINE
  5
127
100
AcDbEntity
  8
LAY-1
  6
CONTINUOUS
 62
     3
100
AcDbLine
 10
646.761735
 20
441.05
 30
0.0
 11
646.761735
 21
396.55
 31
0.0
  0
LINE
  5
128
100
AcDbEntity
  8
LAY-1
  6
CONTINUOUS
 62
     3
100
AcDbLine
 10
648.761735
 20
441.05
 30
0.0
 11
648.761735
 21
396.55
 31
0.0
  0
LINE
  5
129
100
AcDbEntity
  8
LAY-1
  6
CONTINUOUS
 62
     3
100
AcDbLine
 10
751.761735
 20
441.05
 30
0.0
 11
751.761735
 21
396.55
 31
0.0
  0
LINE
  5
12A
100
AcDbEntity
  8
LAY-1
  6
CONTINUOUS
 62
     3
100
AcDbLine
 10
753.761735
 20
441.05
 30
0.0
 11
753.761735
 21
396.55
 31
0.0
  0
LINE
  5
12B
100
AcDbEntity
  8
LAY-1
  6
CONTINUOUS
 62
     2
100
AcDbLine
 10
142.821429
 20
536.3
 30
0.0
 11
142.821429
 21
241.3
 31
0.0
  0
LINE
  5
12C
100
AcDbEntity
  8
LAY-1
  6
CONTINUOUS
 62
     3
100
AcDbLine
 10
379.237561
 20
342.55
 30
0.0
 11
381.437561
 21
342.55
 31
0.0
  0
LINE
  5
12D
100
AcDbEntity
  8
LAY-1
  6
CONTINUOUS
 62
     3
100
AcDbLine
 10
379.237561
 20
275.05
 30
0.0
 11
381.437561
 21
275.05
 31
0.0
  0
LINE
  5
12E
100
AcDbEntity
  8
LAY-1
  6
CONTINUOUS
 62
     3
100
AcDbLine
 10
466.237561
 20
342.55
 30
0.0
 11
464.037561
 21
342.55
 31
0.0
  0
LINE
  5
12F
100
AcDbEntity
  8
LAY-1
  6
CONTINUOUS
 62
     3
100
AcDbLine
 10
466.237561
 20
275.05
 30
0.0
 11
464.037561
 21
275.05
 31
0.0
  0
LINE
  5
130
100
AcDbEntity
  8
LAY-1
  6
CONTINUOUS
 62
     3
100
AcDbLine
 10
377.737561
 20
338.05
 30
0.0
 11
379.237561
 21
338.05
 31
0.0
  0
LINE
  5
131
100
AcDbEntity
  8
LAY-1
  6
CONTINUOUS
 62
     3
100
AcDbLine
 10
467.737561
 20
338.05
 30
0.0
 11
466.237561
 21
338.05
 31
0.0
  0
ARC
  5
132
100
AcDbEntity
  8
LAY-1
  6
CONTINUOUS
 62
     3
100
AcDbCircle
 10
419.504661
 20
337.55
 30
0.0
 40
0.5
100
AcDbArc
 50
270.0
 51
329.553958
  0
ARC
  5
133
100
AcDbEntity
  8
LAY-1
  6
CONTINUOUS
 62
     3
100
AcDbCircle
 10
422.737561
 20
335.649775
 30
0.0
 40
3.25
100
AcDbArc
 50
30.446042
 51
149.553958
  0
ARC
  5
134
100
AcDbEntity
  8
LAY-1
  6
CONTINUOUS
 62
     3
100
AcDbCircle
 10
425.970462
 20
337.55
 30
0.0
 40
0.5
100
AcDbArc
 50
210.446042
 51
270.0
  0
LINE
  5
135
100
AcDbEntity
  8
LAY-1
  6
CONTINUOUS
 62
     3
100
AcDbLine
 10
377.737561
 20
279.55
 30
0.0
 11
379.237561
 21
279.55
 31
0.0
  0
LINE
  5
136
100
AcDbEntity
  8
LAY-1
  6
CONTINUOUS
 62
     3
100
AcDbLine
 10
467.737561
 20
279.55
 30
0.0
 11
466.237561
 21
279.55
 31
0.0
  0
ARC
  5
137
100
AcDbEntity
  8
LAY-1
  6
CONTINUOUS
 62
     3
100
AcDbCircle
 10
425.970462
 20
280.05
 30
0.0
 40
0.5
100
AcDbArc
 50
90.0
 51
149.553958
  0
ARC
  5
138
100
AcDbEntity
  8
LAY-1
  6
CONTINUOUS
 62
     3
100
AcDbCircle
 10
422.737561
 20
281.950225
 30
0.0
 40
3.25
100
AcDbArc
 50
210.446042
 51
329.553958
  0
ARC
  5
139
100
AcDbEntity
  8
LAY-1
  6
CONTINUOUS
 62
     3
100
AcDbCircle
 10
419.504661
 20
280.05
 30
0.0
 40
0.5
100
AcDbArc
 50
30.446042
 51
90.0
  0
LINE
  5
13A
100
AcDbEntity
  8
LAY-1
  6
CONTINUOUS
 62
     3
100
AcDbLine
 10
377.737561
 20
338.05
 30
0.0
 11
377.737561
 21
279.55
 31
0.0
  0
LINE
  5
13B
100
AcDbEntity
  8
LAY-1
  6
CONTINUOUS
 62
     3
100
AcDbLine
 10
467.737561
 20
338.05
 30
0.0
 11
467.737561
 21
279.55
 31
0.0
  0
LINE
  5
13C
100
AcDbEntity
  8
LAY-1
  6
CONTINUOUS
 62
     3
100
AcDbLine
 10
379.237561
 20
342.55
 30
0.0
 11
379.237561
 21
275.05
 31
0.0
  0
LINE
  5
13D
100
AcDbEntity
  8
LAY-1
  6
CONTINUOUS
 62
     3
100
AcDbLine
 10
381.437561
 20
342.55
 30
0.0
 11
381.437561
 21
275.05
 31
0.0
  0
LINE
  5
13E
100
AcDbEntity
  8
LAY-1
  6
CONTINUOUS
 62
     3
100
AcDbLine
 10
466.237561
 20
342.55
 30
0.0
 11
466.237561
 21
275.05
 31
0.0
  0
LINE
  5
13F
100
AcDbEntity
  8
LAY-1
  6
CONTINUOUS
 62
     3
100
AcDbLine
 10
464.037561
 20
342.55
 30
0.0
 11
464.037561
 21
275.05
 31
0.0
  0
LINE
  5
140
100
AcDbEntity
  8
LAY-1
  6
CONTINUOUS
 62
     3
100
AcDbLine
 10
419.935714
 20
280.303363
 30
0.0
 11
419.935714
 21
337.296637
 31
0.0
  0
LINE
  5
141
100
AcDbEntity
  8
LAY-1
  6
CONTINUOUS
 62
     3
100
AcDbLine
 10
425.608769
 20
337.204778
 30
0.0
 11
425.608769
 21
280.303363
 31
0.0
  0
LINE
  5
142
100
AcDbEntity
  8
LAY-1
  6
CONTINUOUS
 62
     2
100
AcDbLine
 10
700.035714
 20
386.3
 30
0.0
 11
700.035714
 21
241.3
 31
0.0
  0
LINE
  5
143
100
AcDbEntity
  8
LAY-1
  6
CONTINUOUS
 62
     2
100
AcDbLine
 10
588.592857
 20
536.3
 30
0.0
 11
588.592857
 21
386.3
 31
0.0
  0
TEXT
  5
144
100
AcDbEntity
  8
LAY-1
  6
CONTINUOUS
 62
     7
100
AcDbText
 10
198.6
 20
538.0
 30
0.0
 40
20.0
  1
ＬＳコネクタＧタイプ３００ｍｍ偏心・高圧用
 41
0.88
  7
EXCADSTD
 72
     5
 11
638.6
 21
538.0
 31
0.0
100
AcDbText
  0
TEXT
  5
145
100
AcDbEntity
  8
LAY-1
  6
CONTINUOUS
 62
     7
100
AcDbText
 10
63.5
 20
529.0
 30
0.0
 40
5.0
  1
２０Ａ×７００Ｌ
 41
0.987
  7
EXCADSTD
 72
     5
 11
110.5
 21
529.0
 31
0.0
100
AcDbText
  0
TEXT
  5
146
100
AcDbEntity
  8
LAY-1
  6
CONTINUOUS
 62
     7
100
AcDbText
 10
176.4
 20
528.6
 30
0.0
 40
5.0
  1
２５Ａ×７００Ｌ
 41
0.987
  7
EXCADSTD
 72
     5
 11
223.4
 21
528.6
 31
0.0
100
AcDbText
  0
TEXT
  5
147
100
AcDbEntity
  8
LAY-1
  6
CONTINUOUS
 62
     7
100
AcDbText
 10
287.2
 20
528.2
 30
0.0
 40
5.0
  1
３２Ａ×７００Ｌ
 41
0.987
  7
EXCADSTD
 72
     5
 11
334.2
 21
528.2
 31
0.0
100
AcDbText
  0
TEXT
  5
148
100
AcDbEntity
  8
LAY-1
  6
CONTINUOUS
 62
     7
100
AcDbText
 10
399.1
 20
528.8
 30
0.0
 40
5.0
  1
４０Ａ×７００Ｌ
 41
0.987
  7
EXCADSTD
 72
     5
 11
446.1
 21
528.8
 31
0.0
100
AcDbText
  0
TEXT
  5
149
100
AcDbEntity
  8
LAY-1
  6
CONTINUOUS
 62
     7
100
AcDbText
 10
510.3
 20
528.6
 30
0.0
 40
5.0
  1
５０Ａ×７００Ｌ
 41
0.987
  7
EXCADSTD
 72
     5
 11
557.3
 21
528.6
 31
0.0
100
AcDbText
  0
TEXT
  5
14A
100
AcDbEntity
  8
LAY-1
  6
CONTINUOUS
 62
     7
100
AcDbText
 10
620.5
 20
528.2
 30
0.0
 40
5.0
  1
６５Ａ×８００Ｌ
 41
0.987
  7
EXCADSTD
 72
     5
 11
667.5
 21
528.2
 31
0.0
100
AcDbText
  0
TEXT
  5
14B
100
AcDbEntity
  8
LAY-1
  6
CONTINUOUS
 62
     7
100
AcDbText
 10
732.7
 20
528.5
 30
0.0
 40
5.0
  1
８０Ａ×８００Ｌ
 41
0.987
  7
EXCADSTD
 72
     5
 11
779.7
 21
528.5
 31
0.0
100
AcDbText
  0
TEXT
  5
14C
100
AcDbEntity
  8
LAY-1
  6
CONTINUOUS
 62
     7
100
AcDbText
 10
671.0
 20
453.4
 30
0.0
 40
5.0
  1
３００Ａ×１１００Ｌ
 41
0.9912
  7
EXCADSTD
 72
     5
 11
730.0
 21
453.4
 31
0.0
100
AcDbText
  0
TEXT
  5
14D
100
AcDbEntity
  8
LAY-1
  6
CONTINUOUS
 62
     7
100
AcDbText
 10
508.0
 20
453.2
 30
0.0
 40
5.0
  1
２５０Ａ×１０００Ｌ
 41
0.9912
  7
EXCADSTD
 72
     5
 11
567.0
 21
453.2
 31
0.0
100
AcDbText
  0
TEXT
  5
14E
100
AcDbEntity
  8
LAY-1
  6
CONTINUOUS
 62
     7
100
AcDbText
 10
397.3
 20
453.6
 30
0.0
 40
5.0
  1
２００A×１０００Ｌ
 41
0.96728
  7
EXCADSTD
 72
     5
 11
453.8
 21
453.6
 31
0.0
100
AcDbText
  0
TEXT
  5
14F
100
AcDbEntity
  8
LAY-1
  6
CONTINUOUS
 62
     7
100
AcDbText
 10
285.0
 20
453.6
 30
0.0
 40
5.0
  1
１５０Ａ×９００Ｌ
 41
0.989333
  7
EXCADSTD
 72
     5
 11
338.0
 21
453.6
 31
0.0
100
AcDbText
  0
TEXT
  5
150
100
AcDbEntity
  8
LAY-1
  6
CONTINUOUS
 62
     7
100
AcDbText
 10
172.9
 20
453.6
 30
0.0
 40
5.0
  1
１２５Ａ×９００Ｌ
 41
0.989333
  7
EXCADSTD
 72
     5
 11
225.9
 21
453.6
 31
0.0
100
AcDbText
  0
TEXT
  5
151
100
AcDbEntity
  8
LAY-1
  6
CONTINUOUS
 62
     7
100
AcDbText
 10
60.9
 20
453.0
 30
0.0
 40
5.0
  1
１００Ａ×８００Ｌ
 41
0.989333
  7
EXCADSTD
 72
     5
 11
113.9
 21
453.0
 31
0.0
100
AcDbText
  0
TEXT
  5
152
100
AcDbEntity
  8
LAY-1
  6
CONTINUOUS
 62
     7
100
AcDbText
 10
562.542857
 20
379.4
 30
0.0
 40
5.0
  1
６００Ａ×１０００Ｌ
 41
0.9912
  7
EXCADSTD
 72
     5
 11
621.542857
 21
379.4
 31
0.0
100
AcDbText
  0
TEXT
  5
153
100
AcDbEntity
  8
LAY-1
  6
CONTINUOUS
 62
     7
100
AcDbText
 10
60.842857
 20
379.0
 30
0.0
 40
5.0
  1
３５０Ａ×９００Ｌ
 41
0.989333
  7
EXCADSTD
 72
     5
 11
113.842857
 21
379.0
 31
0.0
100
AcDbText
  0
TEXT
  5
154
100
AcDbEntity
  8
LAY-1
  6
CONTINUOUS
 62
     7
100
AcDbText
 10
174.942857
 20
378.7
 30
0.0
 40
5.0
  1
４００A×９００Ｌ
 41
0.962617
  7
EXCADSTD
 72
     5
 11
225.442857
 21
378.7
 31
0.0
100
AcDbText
  0
TEXT
  5
155
100
AcDbEntity
  8
LAY-1
  6
CONTINUOUS
 62
     7
100
AcDbText
 10
284.442857
 20
378.6
 30
0.0
 40
5.0
  1
４５０Ａ×９００Ｌ
 41
0.989333
  7
EXCADSTD
 72
     5
 11
337.442857
 21
378.6
 31
0.0
100
AcDbText
  0
TEXT
  5
156
100
AcDbEntity
  8
LAY-1
  6
CONTINUOUS
 62
     7
100
AcDbText
 10
396.342857
 20
378.9
 30
0.0
 40
5.0
  1
５００Ａ×９００Ｌ
 41
0.989333
  7
EXCADSTD
 72
     5
 11
449.342857
 21
378.9
 31
0.0
100
AcDbText
  0
LINE
  5
157
100
AcDbEntity
  8
LAY-1
  6
CONTINUOUS
 62
     3
100
AcDbLine
 10
637.642857
 20
348.55
 30
0.0
 11
637.642857
 21
269.05
 31
0.0
  0
LINE
  5
158
100
AcDbEntity
  8
LAY-1
  6
CONTINUOUS
 62
     3
100
AcDbLine
 10
640.042857
 20
348.55
 30
0.0
 11
640.042857
 21
269.05
 31
0.0
  0
LINE
  5
159
100
AcDbEntity
  8
LAY-1
  6
CONTINUOUS
 62
     3
100
AcDbLine
 10
546.442857
 20
348.55
 30
0.0
 11
546.442857
 21
269.05
 31
0.0
  0
LINE
  5
15A
100
AcDbEntity
  8
LAY-1
  6
CONTINUOUS
 62
     3
100
AcDbLine
 10
544.042857
 20
348.55
 30
0.0
 11
544.042857
 21
269.05
 31
0.0
  0
LINE
  5
15B
100
AcDbEntity
  8
LAY-1
  6
CONTINUOUS
 62
     3
100
AcDbLine
 10
642.042857
 20
343.05
 30
0.0
 11
642.042857
 21
274.55
 31
0.0
  0
LINE
  5
15C
100
AcDbEntity
  8
LAY-1
  6
CONTINUOUS
 62
     3
100
AcDbLine
 10
542.042857
 20
343.05
 30
0.0
 11
542.042857
 21
274.55
 31
0.0
  0
LINE
  5
15D
100
AcDbEntity
  8
LAY-1
  6
CONTINUOUS
 62
     3
100
AcDbLine
 10
642.042857
 20
274.55
 30
0.0
 11
640.042857
 21
274.55
 31
0.0
  0
LINE
  5
15E
100
AcDbEntity
  8
LAY-1
  6
CONTINUOUS
 62
     3
100
AcDbLine
 10
542.042857
 20
274.55
 30
0.0
 11
544.042857
 21
274.55
 31
0.0
  0
LINE
  5
15F
100
AcDbEntity
  8
LAY-1
  6
CONTINUOUS
 62
     3
100
AcDbLine
 10
642.042857
 20
343.05
 30
0.0
 11
640.042857
 21
343.05
 31
0.0
  0
LINE
  5
160
100
AcDbEntity
  8
LAY-1
  6
CONTINUOUS
 62
     3
100
AcDbLine
 10
542.042857
 20
343.05
 30
0.0
 11
544.042857
 21
343.05
 31
0.0
  0
LINE
  5
161
100
AcDbEntity
  8
LAY-1
  6
CONTINUOUS
 62
     3
100
AcDbLine
 10
640.042857
 20
348.55
 30
0.0
 11
637.642857
 21
348.55
 31
0.0
  0
LINE
  5
162
100
AcDbEntity
  8
LAY-1
  6
CONTINUOUS
 62
     3
100
AcDbLine
 10
640.042857
 20
269.05
 30
0.0
 11
637.642857
 21
269.05
 31
0.0
  0
LINE
  5
163
100
AcDbEntity
  8
LAY-1
  6
CONTINUOUS
 62
     3
100
AcDbLine
 10
544.042857
 20
348.55
 30
0.0
 11
546.442857
 21
348.55
 31
0.0
  0
LINE
  5
164
100
AcDbEntity
  8
LAY-1
  6
CONTINUOUS
 62
     3
100
AcDbLine
 10
544.042857
 20
269.05
 30
0.0
 11
546.442857
 21
269.05
 31
0.0
  0
LINE
  5
165
100
AcDbEntity
  8
LAY-1
  6
CONTINUOUS
 62
     3
100
AcDbLine
 10
243.9
 20
431.3
 30
0.0
 11
242.1
 21
431.3
 31
0.0
  0
LINE
  5
166
100
AcDbEntity
  8
LAY-1
  6
CONTINUOUS
 62
     3
100
AcDbLine
 10
243.9
 20
406.3
 30
0.0
 11
242.1
 21
406.3
 31
0.0
  0
LINE
  5
167
100
AcDbEntity
  8
LAY-1
  6
CONTINUOUS
 62
     3
100
AcDbLine
 10
155.9
 20
431.3
 30
0.0
 11
157.7
 21
431.3
 31
0.0
  0
LINE
  5
168
100
AcDbEntity
  8
LAY-1
  6
CONTINUOUS
 62
     3
100
AcDbLine
 10
155.9
 20
406.3
 30
0.0
 11
157.7
 21
406.3
 31
0.0
  0
LINE
  5
169
100
AcDbEntity
  8
LAY-1
  6
CONTINUOUS
 62
     3
100
AcDbLine
 10
244.9
 20
427.8
 30
0.0
 11
243.9
 21
427.8
 31
0.0
  0
LINE
  5
16A
100
AcDbEntity
  8
LAY-1
  6
CONTINUOUS
 62
     3
100
AcDbLine
 10
154.9
 20
427.8
 30
0.0
 11
155.9
 21
427.8
 31
0.0
  0
LINE
  5
16B
100
AcDbEntity
  8
LAY-1
  6
CONTINUOUS
 62
     3
100
AcDbLine
 10
244.9
 20
409.8
 30
0.0
 11
243.9
 21
409.8
 31
0.0
  0
LINE
  5
16C
100
AcDbEntity
  8
LAY-1
  6
CONTINUOUS
 62
     3
100
AcDbLine
 10
154.9
 20
409.8
 30
0.0
 11
155.9
 21
409.8
 31
0.0
  0
LINE
  5
16D
100
AcDbEntity
  8
LAY-1
  6
CONTINUOUS
 62
     3
100
AcDbLine
 10
244.9
 20
427.8
 30
0.0
 11
244.9
 21
409.8
 31
0.0
  0
LINE
  5
16E
100
AcDbEntity
  8
LAY-1
  6
CONTINUOUS
 62
     3
100
AcDbLine
 10
243.9
 20
431.3
 30
0.0
 11
243.9
 21
406.3
 31
0.0
  0
LINE
  5
16F
100
AcDbEntity
  8
LAY-1
  6
CONTINUOUS
 62
     3
100
AcDbLine
 10
242.1
 20
431.3
 30
0.0
 11
242.1
 21
406.3
 31
0.0
  0
LINE
  5
170
100
AcDbEntity
  8
LAY-1
  6
CONTINUOUS
 62
     3
100
AcDbLine
 10
154.9
 20
427.8
 30
0.0
 11
154.9
 21
409.8
 31
0.0
  0
LINE
  5
171
100
AcDbEntity
  8
LAY-1
  6
CONTINUOUS
 62
     3
100
AcDbLine
 10
155.9
 20
431.3
 30
0.0
 11
155.9
 21
406.3
 31
0.0
  0
LINE
  5
172
100
AcDbEntity
  8
LAY-1
  6
CONTINUOUS
 62
     3
100
AcDbLine
 10
157.7
 20
431.3
 30
0.0
 11
157.7
 21
406.3
 31
0.0
  0
LINE
  5
173
100
AcDbEntity
  8
LAY-1
  6
CONTINUOUS
 62
     3
100
AcDbLine
 10
354.7
 20
432.8
 30
0.0
 11
352.9
 21
432.8
 31
0.0
  0
LINE
  5
174
100
AcDbEntity
  8
LAY-1
  6
CONTINUOUS
 62
     3
100
AcDbLine
 10
354.7
 20
404.8
 30
0.0
 11
352.9
 21
404.8
 31
0.0
  0
LINE
  5
175
100
AcDbEntity
  8
LAY-1
  6
CONTINUOUS
 62
     3
100
AcDbLine
 10
266.7
 20
432.8
 30
0.0
 11
268.5
 21
432.8
 31
0.0
  0
LINE
  5
176
100
AcDbEntity
  8
LAY-1
  6
CONTINUOUS
 62
     3
100
AcDbLine
 10
266.7
 20
404.8
 30
0.0
 11
268.5
 21
404.8
 31
0.0
  0
LINE
  5
177
100
AcDbEntity
  8
LAY-1
  6
CONTINUOUS
 62
     3
100
AcDbLine
 10
355.7
 20
429.3
 30
0.0
 11
354.7
 21
429.3
 31
0.0
  0
LINE
  5
178
100
AcDbEntity
  8
LAY-1
  6
CONTINUOUS
 62
     3
100
AcDbLine
 10
265.7
 20
429.3
 30
0.0
 11
266.7
 21
429.3
 31
0.0
  0
LINE
  5
179
100
AcDbEntity
  8
LAY-1
  6
CONTINUOUS
 62
     3
100
AcDbLine
 10
355.7
 20
408.3
 30
0.0
 11
354.7
 21
408.3
 31
0.0
  0
LINE
  5
17A
100
AcDbEntity
  8
LAY-1
  6
CONTINUOUS
 62
     3
100
AcDbLine
 10
352.9
 20
409.3
 30
0.0
 11
352.9
 21
404.8
 31
0.0
  0
LINE
  5
17B
100
AcDbEntity
  8
LAY-1
  6
CONTINUOUS
 62
     3
100
AcDbLine
 10
265.7
 20
408.3
 30
0.0
 11
266.7
 21
408.3
 31
0.0
  0
LINE
  5
17C
100
AcDbEntity
  8
LAY-1
  6
CONTINUOUS
 62
     3
100
AcDbLine
 10
268.5
 20
409.3
 30
0.0
 11
268.5
 21
404.8
 31
0.0
  0
LINE
  5
17D
100
AcDbEntity
  8
LAY-1
  6
CONTINUOUS
 62
     3
100
AcDbLine
 10
355.7
 20
429.3
 30
0.0
 11
355.7
 21
408.3
 31
0.0
  0
LINE
  5
17E
100
AcDbEntity
  8
LAY-1
  6
CONTINUOUS
 62
     3
100
AcDbLine
 10
354.7
 20
432.8
 30
0.0
 11
354.7
 21
404.8
 31
0.0
  0
LINE
  5
17F
100
AcDbEntity
  8
LAY-1
  6
CONTINUOUS
 62
     3
100
AcDbLine
 10
352.9
 20
432.8
 30
0.0
 11
352.9
 21
409.3
 31
0.0
  0
LINE
  5
180
100
AcDbEntity
  8
LAY-1
  6
CONTINUOUS
 62
     3
100
AcDbLine
 10
265.7
 20
429.3
 30
0.0
 11
265.7
 21
408.3
 31
0.0
  0
LINE
  5
181
100
AcDbEntity
  8
LAY-1
  6
CONTINUOUS
 62
     3
100
AcDbLine
 10
266.7
 20
432.8
 30
0.0
 11
266.7
 21
404.8
 31
0.0
  0
LINE
  5
182
100
AcDbEntity
  8
LAY-1
  6
CONTINUOUS
 62
     3
100
AcDbLine
 10
268.5
 20
432.8
 30
0.0
 11
268.5
 21
409.3
 31
0.0
  0
ARC
  5
183
100
AcDbEntity
  8
LAY-1
  6
CONTINUOUS
 62
     3
100
AcDbCircle
 10
167.114588
 20
427.1
 30
0.0
 40
0.3
100
AcDbArc
 50
207.645523
 51
270.0
  0
LINE
  5
184
100
AcDbEntity
  8
LAY-1
  6
CONTINUOUS
 62
     3
100
AcDbLine
 10
157.7
 20
426.8
 30
0.0
 11
162.685412
 21
426.8
 31
0.0
  0
ARC
  5
185
100
AcDbEntity
  8
LAY-1
  6
CONTINUOUS
 62
     3
100
AcDbCircle
 10
164.9
 20
425.94
 30
0.0
 40
2.2
100
AcDbArc
 50
27.645523
 51
152.354477
  0
ARC
  5
186
100
AcDbEntity
  8
LAY-1
  6
CONTINUOUS
 62
     3
100
AcDbCircle
 10
162.685412
 20
427.1
 30
0.0
 40
0.3
100
AcDbArc
 50
270.0
 51
332.354477
  0
ARC
  5
187
100
AcDbEntity
  8
LAY-1
  6
CONTINUOUS
 62
     3
100
AcDbCircle
 10
162.685412
 20
410.5
 30
0.0
 40
0.3
100
AcDbArc
 50
27.645523
 51
90.0
  0
ARC
  5
188
100
AcDbEntity
  8
LAY-1
  6
CONTINUOUS
 62
     3
100
AcDbCircle
 10
164.9
 20
411.66
 30
0.0
 40
2.2
100
AcDbArc
 50
207.645523
 51
332.354477
  0
ARC
  5
189
100
AcDbEntity
  8
LAY-1
  6
CONTINUOUS
 62
     3
100
AcDbCircle
 10
167.114588
 20
410.5
 30
0.0
 40
0.3
100
AcDbArc
 50
90.0
 51
152.354477
  0
LINE
  5
18A
100
AcDbEntity
  8
LAY-1
  6
CONTINUOUS
 62
     3
100
AcDbLine
 10
157.7
 20
410.8
 30
0.0
 11
162.685412
 21
410.8
 31
0.0
  0
LINE
  5
18B
100
AcDbEntity
  8
LAY-1
  6
CONTINUOUS
 62
     3
100
AcDbLine
 10
162.951163
 20
426.9608
 30
0.0
 11
162.951163
 21
410.6392
 31
0.0
  0
LINE
  5
18C
100
AcDbEntity
  8
LAY-1
  6
CONTINUOUS
 62
     3
100
AcDbLine
 10
166.848837
 20
410.6392
 30
0.0
 11
166.848837
 21
426.9608
 31
0.0
  0
ARC
  5
18D
100
AcDbEntity
  8
LAY-1
  6
CONTINUOUS
 62
     3
100
AcDbCircle
 10
232.685412
 20
427.1
 30
0.0
 40
0.3
100
AcDbArc
 50
270.0
 51
332.354477
  0
ARC
  5
18E
100
AcDbEntity
  8
LAY-1
  6
CONTINUOUS
 62
     3
100
AcDbCircle
 10
234.9
 20
425.94
 30
0.0
 40
2.2
100
AcDbArc
 50
27.645523
 51
152.354477
  0
ARC
  5
18F
100
AcDbEntity
  8
LAY-1
  6
CONTINUOUS
 62
     3
100
AcDbCircle
 10
237.114588
 20
427.1
 30
0.0
 40
0.3
100
AcDbArc
 50
207.645523
 51
270.0
  0
LINE
  5
190
100
AcDbEntity
  8
LAY-1
  6
CONTINUOUS
 62
     3
100
AcDbLine
 10
242.1
 20
426.8
 30
0.0
 11
237.114588
 21
426.8
 31
0.0
  0
ARC
  5
191
100
AcDbEntity
  8
LAY-1
  6
CONTINUOUS
 62
     3
100
AcDbCircle
 10
237.114588
 20
410.5
 30
0.0
 40
0.3
100
AcDbArc
 50
90.0
 51
152.354477
  0
ARC
  5
192
100
AcDbEntity
  8
LAY-1
  6
CONTINUOUS
 62
     3
100
AcDbCircle
 10
234.9
 20
411.66
 30
0.0
 40
2.2
100
AcDbArc
 50
207.645523
 51
332.354477
  0
ARC
  5
193
100
AcDbEntity
  8
LAY-1
  6
CONTINUOUS
 62
     3
100
AcDbCircle
 10
232.685412
 20
410.5
 30
0.0
 40
0.3
100
AcDbArc
 50
27.645523
 51
90.0
  0
LINE
  5
194
100
AcDbEntity
  8
LAY-1
  6
CONTINUOUS
 62
     3
100
AcDbLine
 10
242.1
 20
410.8
 30
0.0
 11
237.114588
 21
410.8
 31
0.0
  0
LINE
  5
195
100
AcDbEntity
  8
LAY-1
  6
CONTINUOUS
 62
     3
100
AcDbLine
 10
236.848837
 20
426.9608
 30
0.0
 11
236.848837
 21
410.6392
 31
0.0
  0
LINE
  5
196
100
AcDbEntity
  8
LAY-1
  6
CONTINUOUS
 62
     3
100
AcDbLine
 10
232.951163
 20
410.6392
 30
0.0
 11
232.951163
 21
426.9608
 31
0.0
  0
LINE
  5
197
100
AcDbEntity
  8
LAY-1
  6
EXLTYPE3
 62
     1
100
AcDbLine
 10
148.319698
 20
418.8
 30
0.0
 11
251.019698
 21
418.8
 31
0.0
  0
LINE
  5
198
100
AcDbEntity
  8
LAY-1
  6
CONTINUOUS
 62
     3
100
AcDbLine
 10
167.114588
 20
426.8
 30
0.0
 11
232.685412
 21
426.8
 31
0.0
  0
LINE
  5
199
100
AcDbEntity
  8
LAY-1
  6
CONTINUOUS
 62
     3
100
AcDbLine
 10
232.685412
 20
410.8
 30
0.0
 11
167.114588
 21
410.8
 31
0.0
  0
ARC
  5
19A
100
AcDbEntity
  8
LAY-1
  6
CONTINUOUS
 62
     3
100
AcDbCircle
 10
62.230605
 20
425.6
 30
0.0
 40
0.3
100
AcDbArc
 50
207.645523
 51
270.0
  0
LINE
  5
19B
100
AcDbEntity
  8
LAY-1
  6
CONTINUOUS
 62
     3
100
AcDbLine
 10
52.816017
 20
425.3
 30
0.0
 11
57.801429
 21
425.3
 31
0.0
  0
ARC
  5
19C
100
AcDbEntity
  8
LAY-1
  6
CONTINUOUS
 62
     3
100
AcDbCircle
 10
60.016017
 20
424.44
 30
0.0
 40
2.2
100
AcDbArc
 50
27.645523
 51
152.354477
  0
ARC
  5
19D
100
AcDbEntity
  8
LAY-1
  6
CONTINUOUS
 62
     3
100
AcDbCircle
 10
57.801429
 20
425.6
 30
0.0
 40
0.3
100
AcDbArc
 50
270.0
 51
332.354477
  0
ARC
  5
19E
100
AcDbEntity
  8
LAY-1
  6
CONTINUOUS
 62
     3
100
AcDbCircle
 10
57.801429
 20
412.0
 30
0.0
 40
0.3
100
AcDbArc
 50
27.645523
 51
90.0
  0
ARC
  5
19F
100
AcDbEntity
  8
LAY-1
  6
CONTINUOUS
 62
     3
100
AcDbCircle
 10
60.016017
 20
413.16
 30
0.0
 40
2.2
100
AcDbArc
 50
207.645523
 51
332.354477
  0
ARC
  5
1A0
100
AcDbEntity
  8
LAY-1
  6
CONTINUOUS
 62
     3
100
AcDbCircle
 10
62.230605
 20
412.0
 30
0.0
 40
0.3
100
AcDbArc
 50
90.0
 51
152.354477
  0
LINE
  5
1A1
100
AcDbEntity
  8
LAY-1
  6
CONTINUOUS
 62
     3
100
AcDbLine
 10
52.816017
 20
412.3
 30
0.0
 11
57.801429
 21
412.3
 31
0.0
  0
LINE
  5
1A2
100
AcDbEntity
  8
LAY-1
  6
CONTINUOUS
 62
     3
100
AcDbLine
 10
58.067179
 20
425.4608
 30
0.0
 11
58.067179
 21
412.1392
 31
0.0
  0
LINE
  5
1A3
100
AcDbEntity
  8
LAY-1
  6
CONTINUOUS
 62
     3
100
AcDbLine
 10
61.964854
 20
412.1392
 30
0.0
 11
61.964854
 21
425.4608
 31
0.0
  0
ARC
  5
1A4
100
AcDbEntity
  8
LAY-1
  6
CONTINUOUS
 62
     3
100
AcDbCircle
 10
117.801429
 20
425.6
 30
0.0
 40
0.3
100
AcDbArc
 50
270.0
 51
332.354477
  0
ARC
  5
1A5
100
AcDbEntity
  8
LAY-1
  6
CONTINUOUS
 62
     3
100
AcDbCircle
 10
120.016017
 20
424.44
 30
0.0
 40
2.2
100
AcDbArc
 50
27.645523
 51
152.354477
  0
ARC
  5
1A6
100
AcDbEntity
  8
LAY-1
  6
CONTINUOUS
 62
     3
100
AcDbCircle
 10
122.230605
 20
425.6
 30
0.0
 40
0.3
100
AcDbArc
 50
207.645523
 51
270.0
  0
LINE
  5
1A7
100
AcDbEntity
  8
LAY-1
  6
CONTINUOUS
 62
     3
100
AcDbLine
 10
127.216017
 20
425.3
 30
0.0
 11
122.230605
 21
425.3
 31
0.0
  0
ARC
  5
1A8
100
AcDbEntity
  8
LAY-1
  6
CONTINUOUS
 62
     3
100
AcDbCircle
 10
122.230605
 20
412.0
 30
0.0
 40
0.3
100
AcDbArc
 50
90.0
 51
152.354477
  0
ARC
  5
1A9
100
AcDbEntity
  8
LAY-1
  6
CONTINUOUS
 62
     3
100
AcDbCircle
 10
120.016017
 20
413.16
 30
0.0
 40
2.2
100
AcDbArc
 50
207.645523
 51
332.354477
  0
ARC
  5
1AA
100
AcDbEntity
  8
LAY-1
  6
CONTINUOUS
 62
     3
100
AcDbCircle
 10
117.801429
 20
412.0
 30
0.0
 40
0.3
100
AcDbArc
 50
27.645523
 51
90.0
  0
LINE
  5
1AB
100
AcDbEntity
  8
LAY-1
  6
CONTINUOUS
 62
     3
100
AcDbLine
 10
127.216017
 20
412.3
 30
0.0
 11
122.230605
 21
412.3
 31
0.0
  0
LINE
  5
1AC
100
AcDbEntity
  8
LAY-1
  6
CONTINUOUS
 62
     3
100
AcDbLine
 10
121.964854
 20
425.4608
 30
0.0
 11
121.964854
 21
412.1392
 31
0.0
  0
LINE
  5
1AD
100
AcDbEntity
  8
LAY-1
  6
CONTINUOUS
 62
     3
100
AcDbLine
 10
118.067179
 20
412.1392
 30
0.0
 11
118.067179
 21
425.4608
 31
0.0
  0
LINE
  5
1AE
100
AcDbEntity
  8
LAY-1
  6
EXLTYPE3
 62
     1
100
AcDbLine
 10
42.616017
 20
418.8
 30
0.0
 11
137.0
 21
418.8
 31
0.0
  0
LINE
  5
1AF
100
AcDbEntity
  8
LAY-1
  6
CONTINUOUS
 62
     3
100
AcDbLine
 10
62.230605
 20
425.3
 30
0.0
 11
117.801429
 21
425.3
 31
0.0
  0
LINE
  5
1B0
100
AcDbEntity
  8
LAY-1
  6
CONTINUOUS
 62
     3
100
AcDbLine
 10
117.801429
 20
412.3
 30
0.0
 11
62.230605
 21
412.3
 31
0.0
  0
ARC
  5
1B1
100
AcDbEntity
  8
LAY-1
  6
CONTINUOUS
 62
     3
100
AcDbCircle
 10
289.872893
 20
497.2
 30
0.0
 40
0.3
100
AcDbArc
 50
207.645523
 51
270.0
  0
LINE
  5
1B2
100
AcDbEntity
  8
LAY-1
  6
CONTINUOUS
 62
     3
100
AcDbLine
 10
280.258305
 20
496.9
 30
0.0
 11
285.443717
 21
496.9
 31
0.0
  0
ARC
  5
1B3
100
AcDbEntity
  8
LAY-1
  6
CONTINUOUS
 62
     3
100
AcDbCircle
 10
287.658305
 20
496.04
 30
0.0
 40
2.2
100
AcDbArc
 50
27.645523
 51
152.354477
  0
ARC
  5
1B4
100
AcDbEntity
  8
LAY-1
  6
CONTINUOUS
 62
     3
100
AcDbCircle
 10
285.443717
 20
497.2
 30
0.0
 40
0.3
100
AcDbArc
 50
270.0
 51
332.354477
  0
ARC
  5
1B5
100
AcDbEntity
  8
LAY-1
  6
CONTINUOUS
 62
     3
100
AcDbCircle
 10
285.443717
 20
490.4
 30
0.0
 40
0.3
100
AcDbArc
 50
27.645523
 51
90.0
  0
ARC
  5
1B6
100
AcDbEntity
  8
LAY-1
  6
CONTINUOUS
 62
     3
100
AcDbCircle
 10
287.658305
 20
491.56
 30
0.0
 40
2.2
100
AcDbArc
 50
207.645523
 51
332.354477
  0
ARC
  5
1B7
100
AcDbEntity
  8
LAY-1
  6
CONTINUOUS
 62
     3
100
AcDbCircle
 10
289.872893
 20
490.4
 30
0.0
 40
0.3
100
AcDbArc
 50
90.0
 51
152.354477
  0
LINE
  5
1B8
100
AcDbEntity
  8
LAY-1
  6
CONTINUOUS
 62
     3
100
AcDbLine
 10
280.258305
 20
490.7
 30
0.0
 11
285.443717
 21
490.7
 31
0.0
  0
LINE
  5
1B9
100
AcDbEntity
  8
LAY-1
  6
CONTINUOUS
 62
     3
100
AcDbLine
 10
285.709468
 20
497.0608
 30
0.0
 11
285.709468
 21
490.5392
 31
0.0
  0
LINE
  5
1BA
100
AcDbEntity
  8
LAY-1
  6
CONTINUOUS
 62
     3
100
AcDbLine
 10
289.607143
 20
490.5392
 30
0.0
 11
289.607143
 21
497.0608
 31
0.0
  0
LINE
  5
1BB
100
AcDbEntity
  8
LAY-1
  6
CONTINUOUS
 62
     3
100
AcDbLine
 10
345.058305
 20
496.9
 30
0.0
 11
339.872893
 21
496.9
 31
0.0
  0
ARC
  5
1BC
100
AcDbEntity
  8
LAY-1
  6
CONTINUOUS
 62
     3
100
AcDbCircle
 10
335.443717
 20
497.2
 30
0.0
 40
0.3
100
AcDbArc
 50
270.0
 51
332.354477
  0
ARC
  5
1BD
100
AcDbEntity
  8
LAY-1
  6
CONTINUOUS
 62
     3
100
AcDbCircle
 10
337.658305
 20
496.04
 30
0.0
 40
2.2
100
AcDbArc
 50
27.645523
 51
152.354477
  0
ARC
  5
1BE
100
AcDbEntity
  8
LAY-1
  6
CONTINUOUS
 62
     3
100
AcDbCircle
 10
339.872893
 20
497.2
 30
0.0
 40
0.3
100
AcDbArc
 50
207.645523
 51
270.0
  0
ARC
  5
1BF
100
AcDbEntity
  8
LAY-1
  6
CONTINUOUS
 62
     3
100
AcDbCircle
 10
339.872893
 20
490.4
 30
0.0
 40
0.3
100
AcDbArc
 50
90.0
 51
152.354477
  0
ARC
  5
1C0
100
AcDbEntity
  8
LAY-1
  6
CONTINUOUS
 62
     3
100
AcDbCircle
 10
337.658305
 20
491.56
 30
0.0
 40
2.2
100
AcDbArc
 50
207.645523
 51
332.354477
  0
ARC
  5
1C1
100
AcDbEntity
  8
LAY-1
  6
CONTINUOUS
 62
     3
100
AcDbCircle
 10
335.443717
 20
490.4
 30
0.0
 40
0.3
100
AcDbArc
 50
27.645523
 51
90.0
  0
LINE
  5
1C2
100
AcDbEntity
  8
LAY-1
  6
CONTINUOUS
 62
     3
100
AcDbLine
 10
345.058305
 20
490.7
 30
0.0
 11
339.872893
 21
490.7
 31
0.0
  0
LINE
  5
1C3
100
AcDbEntity
  8
LAY-1
  6
CONTINUOUS
 62
     3
100
AcDbLine
 10
339.607143
 20
497.0608
 30
0.0
 11
339.607143
 21
490.5392
 31
0.0
  0
LINE
  5
1C4
100
AcDbEntity
  8
LAY-1
  6
CONTINUOUS
 62
     3
100
AcDbLine
 10
335.709468
 20
490.5392
 30
0.0
 11
335.709468
 21
497.0608
 31
0.0
  0
LINE
  5
1C5
100
AcDbEntity
  8
LAY-1
  6
EXLTYPE3
 62
     1
100
AcDbLine
 10
272.8
 20
493.8
 30
0.0
 11
355.0
 21
493.8
 31
0.0
  0
LINE
  5
1C6
100
AcDbEntity
  8
LAY-1
  6
CONTINUOUS
 62
     3
100
AcDbLine
 10
289.872893
 20
496.9
 30
0.0
 11
335.443717
 21
496.9
 31
0.0
  0
LINE
  5
1C7
100
AcDbEntity
  8
LAY-1
  6
CONTINUOUS
 62
     3
100
AcDbLine
 10
335.443717
 20
490.7
 30
0.0
 11
289.872893
 21
490.7
 31
0.0
  0
LINE
  5
1C8
100
AcDbEntity
  8
LAY-1
  6
CONTINUOUS
 62
     3
100
AcDbLine
 10
55.569834
 20
496.933494
 30
0.0
 11
60.955246
 21
496.933494
 31
0.0
  0
ARC
  5
1C9
100
AcDbEntity
  8
LAY-1
  6
CONTINUOUS
 62
     3
100
AcDbCircle
 10
63.169834
 20
496.073494
 30
0.0
 40
2.2
100
AcDbArc
 50
27.645523
 51
152.354477
  0
ARC
  5
1CA
100
AcDbEntity
  8
LAY-1
  6
CONTINUOUS
 62
     3
100
AcDbCircle
 10
65.384422
 20
497.233494
 30
0.0
 40
0.3
100
AcDbArc
 50
207.645523
 51
270.0
  0
ARC
  5
1CB
100
AcDbEntity
  8
LAY-1
  6
CONTINUOUS
 62
     3
100
AcDbCircle
 10
60.955246
 20
497.233494
 30
0.0
 40
0.3
100
AcDbArc
 50
270.0
 51
332.354477
  0
ARC
  5
1CC
100
AcDbEntity
  8
LAY-1
  6
CONTINUOUS
 62
     3
100
AcDbCircle
 10
60.955246
 20
492.133494
 30
0.0
 40
0.3
100
AcDbArc
 50
27.645523
 51
90.0
  0
ARC
  5
1CD
100
AcDbEntity
  8
LAY-1
  6
CONTINUOUS
 62
     3
100
AcDbCircle
 10
63.169834
 20
493.293494
 30
0.0
 40
2.2
100
AcDbArc
 50
207.645523
 51
332.354477
  0
ARC
  5
1CE
100
AcDbEntity
  8
LAY-1
  6
CONTINUOUS
 62
     3
100
AcDbCircle
 10
65.384422
 20
492.133494
 30
0.0
 40
0.3
100
AcDbArc
 50
90.0
 51
152.354477
  0
LINE
  5
1CF
100
AcDbEntity
  8
LAY-1
  6
CONTINUOUS
 62
     3
100
AcDbLine
 10
61.220997
 20
497.094294
 30
0.0
 11
61.220997
 21
492.272694
 31
0.0
  0
LINE
  5
1D0
100
AcDbEntity
  8
LAY-1
  6
CONTINUOUS
 62
     3
100
AcDbLine
 10
65.118672
 20
492.272694
 30
0.0
 11
65.118672
 21
497.094294
 31
0.0
  0
LINE
  5
1D1
100
AcDbEntity
  8
LAY-1
  6
CONTINUOUS
 62
     3
100
AcDbLine
 10
60.955246
 20
492.433494
 30
0.0
 11
55.569834
 21
492.433494
 31
0.0
  0
ARC
  5
1D2
100
AcDbEntity
  8
LAY-1
  6
CONTINUOUS
 62
     3
100
AcDbCircle
 10
113.169834
 20
496.073494
 30
0.0
 40
2.2
100
AcDbArc
 50
27.645523
 51
152.354477
  0
ARC
  5
1D3
100
AcDbEntity
  8
LAY-1
  6
CONTINUOUS
 62
     3
100
AcDbCircle
 10
110.955246
 20
497.233494
 30
0.0
 40
0.3
100
AcDbArc
 50
270.0
 51
332.354477
  0
ARC
  5
1D4
100
AcDbEntity
  8
LAY-1
  6
CONTINUOUS
 62
     3
100
AcDbCircle
 10
115.384422
 20
497.233494
 30
0.0
 40
0.3
100
AcDbArc
 50
207.645523
 51
270.0
  0
LINE
  5
1D5
100
AcDbEntity
  8
LAY-1
  6
CONTINUOUS
 62
     3
100
AcDbLine
 10
120.769834
 20
496.933494
 30
0.0
 11
115.384422
 21
496.933494
 31
0.0
  0
ARC
  5
1D6
100
AcDbEntity
  8
LAY-1
  6
CONTINUOUS
 62
     3
100
AcDbCircle
 10
115.384422
 20
492.133494
 30
0.0
 40
0.3
100
AcDbArc
 50
90.0
 51
152.354477
  0
ARC
  5
1D7
100
AcDbEntity
  8
LAY-1
  6
CONTINUOUS
 62
     3
100
AcDbCircle
 10
113.169834
 20
493.293494
 30
0.0
 40
2.2
100
AcDbArc
 50
207.645523
 51
332.354477
  0
ARC
  5
1D8
100
AcDbEntity
  8
LAY-1
  6
CONTINUOUS
 62
     3
100
AcDbCircle
 10
110.955246
 20
492.133494
 30
0.0
 40
0.3
100
AcDbArc
 50
27.645523
 51
90.0
  0
LINE
  5
1D9
100
AcDbEntity
  8
LAY-1
  6
CONTINUOUS
 62
     3
100
AcDbLine
 10
120.769834
 20
492.433494
 30
0.0
 11
115.384422
 21
492.433494
 31
0.0
  0
LINE
  5
1DA
100
AcDbEntity
  8
LAY-1
  6
CONTINUOUS
 62
     3
100
AcDbLine
 10
115.118672
 20
497.094294
 30
0.0
 11
115.118672
 21
492.272694
 31
0.0
  0
LINE
  5
1DB
100
AcDbEntity
  8
LAY-1
  6
CONTINUOUS
 62
     3
100
AcDbLine
 10
111.220997
 20
492.272694
 30
0.0
 11
111.220997
 21
497.094294
 31
0.0
  0
LINE
  5
1DC
100
AcDbEntity
  8
LAY-1
  6
EXLTYPE3
 62
     1
100
AcDbLine
 10
47.269834
 20
494.683494
 30
0.0
 11
127.697243
 21
494.683494
 31
0.0
  0
LINE
  5
1DD
100
AcDbEntity
  8
LAY-1
  6
CONTINUOUS
 62
     3
100
AcDbLine
 10
65.384422
 20
496.933494
 30
0.0
 11
110.955246
 21
496.933494
 31
0.0
  0
LINE
  5
1DE
100
AcDbEntity
  8
LAY-1
  6
CONTINUOUS
 62
     3
100
AcDbLine
 10
110.955246
 20
492.433494
 30
0.0
 11
65.384422
 21
492.433494
 31
0.0
  0
ARC
  5
1DF
100
AcDbEntity
  8
LAY-1
  6
CONTINUOUS
 62
     3
100
AcDbCircle
 10
178.630036
 20
496.6
 30
0.0
 40
0.3
100
AcDbArc
 50
207.645523
 51
270.0
  0
LINE
  5
1E0
100
AcDbEntity
  8
LAY-1
  6
CONTINUOUS
 62
     3
100
AcDbLine
 10
168.815448
 20
496.3
 30
0.0
 11
174.20086
 21
496.3
 31
0.0
  0
ARC
  5
1E1
100
AcDbEntity
  8
LAY-1
  6
CONTINUOUS
 62
     3
100
AcDbCircle
 10
176.415448
 20
495.44
 30
0.0
 40
2.2
100
AcDbArc
 50
27.645523
 51
152.354477
  0
ARC
  5
1E2
100
AcDbEntity
  8
LAY-1
  6
CONTINUOUS
 62
     3
100
AcDbCircle
 10
174.20086
 20
496.6
 30
0.0
 40
0.3
100
AcDbArc
 50
270.0
 51
332.354477
  0
LINE
  5
1E3
100
AcDbEntity
  8
LAY-1
  6
CONTINUOUS
 62
     3
100
AcDbLine
 10
168.815448
 20
491.3
 30
0.0
 11
174.20086
 21
491.3
 31
0.0
  0
ARC
  5
1E4
100
AcDbEntity
  8
LAY-1
  6
CONTINUOUS
 62
     3
100
AcDbCircle
 10
178.630036
 20
491.0
 30
0.0
 40
0.3
100
AcDbArc
 50
90.0
 51
152.354477
  0
ARC
  5
1E5
100
AcDbEntity
  8
LAY-1
  6
CONTINUOUS
 62
     3
100
AcDbCircle
 10
176.415448
 20
492.16
 30
0.0
 40
2.2
100
AcDbArc
 50
207.645523
 51
332.354477
  0
ARC
  5
1E6
100
AcDbEntity
  8
LAY-1
  6
CONTINUOUS
 62
     3
100
AcDbCircle
 10
174.20086
 20
491.0
 30
0.0
 40
0.3
100
AcDbArc
 50
27.645523
 51
90.0
  0
LINE
  5
1E7
100
AcDbEntity
  8
LAY-1
  6
CONTINUOUS
 62
     3
100
AcDbLine
 10
174.466611
 20
496.4608
 30
0.0
 11
174.466611
 21
491.1392
 31
0.0
  0
LINE
  5
1E8
100
AcDbEntity
  8
LAY-1
  6
CONTINUOUS
 62
     3
100
AcDbLine
 10
178.364286
 20
491.1392
 30
0.0
 11
178.364286
 21
496.4608
 31
0.0
  0
ARC
  5
1E9
100
AcDbEntity
  8
LAY-1
  6
CONTINUOUS
 62
     3
100
AcDbCircle
 10
224.20086
 20
496.6
 30
0.0
 40
0.3
100
AcDbArc
 50
270.0
 51
332.354477
  0
ARC
  5
1EA
100
AcDbEntity
  8
LAY-1
  6
CONTINUOUS
 62
     3
100
AcDbCircle
 10
226.415448
 20
495.44
 30
0.0
 40
2.2
100
AcDbArc
 50
27.645523
 51
152.354477
  0
ARC
  5
1EB
100
AcDbEntity
  8
LAY-1
  6
CONTINUOUS
 62
     3
100
AcDbCircle
 10
228.630036
 20
496.6
 30
0.0
 40
0.3
100
AcDbArc
 50
207.645523
 51
270.0
  0
LINE
  5
1EC
100
AcDbEntity
  8
LAY-1
  6
CONTINUOUS
 62
     3
100
AcDbLine
 10
234.015448
 20
496.3
 30
0.0
 11
228.630036
 21
496.3
 31
0.0
  0
LINE
  5
1ED
100
AcDbEntity
  8
LAY-1
  6
CONTINUOUS
 62
     3
100
AcDbLine
 10
234.015448
 20
491.3
 30
0.0
 11
228.630036
 21
491.3
 31
0.0
  0
ARC
  5
1EE
100
AcDbEntity
  8
LAY-1
  6
CONTINUOUS
 62
     3
100
AcDbCircle
 10
224.20086
 20
491.0
 30
0.0
 40
0.3
100
AcDbArc
 50
27.645523
 51
90.0
  0
ARC
  5
1EF
100
AcDbEntity
  8
LAY-1
  6
CONTINUOUS
 62
     3
100
AcDbCircle
 10
226.415448
 20
492.16
 30
0.0
 40
2.2
100
AcDbArc
 50
207.645523
 51
332.354477
  0
ARC
  5
1F0
100
AcDbEntity
  8
LAY-1
  6
CONTINUOUS
 62
     3
100
AcDbCircle
 10
228.630036
 20
491.0
 30
0.0
 40
0.3
100
AcDbArc
 50
90.0
 51
152.354477
  0
LINE
  5
1F1
100
AcDbEntity
  8
LAY-1
  6
CONTINUOUS
 62
     3
100
AcDbLine
 10
228.364286
 20
496.4608
 30
0.0
 11
228.364286
 21
491.1392
 31
0.0
  0
LINE
  5
1F2
100
AcDbEntity
  8
LAY-1
  6
CONTINUOUS
 62
     3
100
AcDbLine
 10
224.466611
 20
491.1392
 30
0.0
 11
224.466611
 21
496.4608
 31
0.0
  0
LINE
  5
1F3
100
AcDbEntity
  8
LAY-1
  6
EXLTYPE3
 62
     1
100
AcDbLine
 10
159.8
 20
493.8
 30
0.0
 11
243.6
 21
493.8
 31
0.0
  0
LINE
  5
1F4
100
AcDbEntity
  8
LAY-1
  6
CONTINUOUS
 62
     3
100
AcDbLine
 10
178.630036
 20
496.3
 30
0.0
 11
224.20086
 21
496.3
 31
0.0
  0
LINE
  5
1F5
100
AcDbEntity
  8
LAY-1
  6
CONTINUOUS
 62
     3
100
AcDbLine
 10
178.630036
 20
491.3
 30
0.0
 11
224.20086
 21
491.3
 31
0.0
  0
ARC
  5
1F6
100
AcDbEntity
  8
LAY-1
  6
CONTINUOUS
 62
     3
100
AcDbCircle
 10
401.625751
 20
497.1
 30
0.0
 40
0.3
100
AcDbArc
 50
207.645523
 51
270.0
  0
LINE
  5
1F7
100
AcDbEntity
  8
LAY-1
  6
CONTINUOUS
 62
     3
100
AcDbLine
 10
392.011163
 20
496.8
 30
0.0
 11
397.462325
 21
496.8
 31
0.0
  0
ARC
  5
1F8
100
AcDbEntity
  8
LAY-1
  6
CONTINUOUS
 62
     3
100
AcDbCircle
 10
399.411163
 20
495.94
 30
0.0
 40
2.2
100
AcDbArc
 50
27.645523
 51
152.354477
  0
ARC
  5
1F9
100
AcDbEntity
  8
LAY-1
  6
CONTINUOUS
 62
     3
100
AcDbCircle
 10
397.196575
 20
497.1
 30
0.0
 40
0.3
100
AcDbArc
 50
270.0
 51
332.354477
  0
ARC
  5
1FA
100
AcDbEntity
  8
LAY-1
  6
CONTINUOUS
 62
     3
100
AcDbCircle
 10
397.196575
 20
490.5
 30
0.0
 40
0.3
100
AcDbArc
 50
27.645523
 51
90.0
  0
ARC
  5
1FB
100
AcDbEntity
  8
LAY-1
  6
CONTINUOUS
 62
     3
100
AcDbCircle
 10
399.411163
 20
491.66
 30
0.0
 40
2.2
100
AcDbArc
 50
207.645523
 51
332.354477
  0
ARC
  5
1FC
100
AcDbEntity
  8
LAY-1
  6
CONTINUOUS
 62
     3
100
AcDbCircle
 10
401.625751
 20
490.5
 30
0.0
 40
0.3
100
AcDbArc
 50
90.0
 51
152.354477
  0
LINE
  5
1FD
100
AcDbEntity
  8
LAY-1
  6
CONTINUOUS
 62
     3
100
AcDbLine
 10
392.011163
 20
490.8
 30
0.0
 11
397.462325
 21
490.8
 31
0.0
  0
LINE
  5
1FE
100
AcDbEntity
  8
LAY-1
  6
CONTINUOUS
 62
     3
100
AcDbLine
 10
397.462325
 20
496.9608
 30
0.0
 11
397.462325
 21
490.6392
 31
0.0
  0
LINE
  5
1FF
100
AcDbEntity
  8
LAY-1
  6
CONTINUOUS
 62
     3
100
AcDbLine
 10
401.36
 20
490.6392
 30
0.0
 11
401.36
 21
496.9608
 31
0.0
  0
LINE
  5
200
100
AcDbEntity
  8
LAY-1
  6
CONTINUOUS
 62
     3
100
AcDbLine
 10
456.811163
 20
496.8
 30
0.0
 11
451.36
 21
496.8
 31
0.0
  0
ARC
  5
201
100
AcDbEntity
  8
LAY-1
  6
CONTINUOUS
 62
     3
100
AcDbCircle
 10
447.196575
 20
497.1
 30
0.0
 40
0.3
100
AcDbArc
 50
270.0
 51
332.354477
  0
ARC
  5
202
100
AcDbEntity
  8
LAY-1
  6
CONTINUOUS
 62
     3
100
AcDbCircle
 10
449.411163
 20
495.94
 30
0.0
 40
2.2
100
AcDbArc
 50
27.645523
 51
152.354477
  0
ARC
  5
203
100
AcDbEntity
  8
LAY-1
  6
CONTINUOUS
 62
     3
100
AcDbCircle
 10
451.625751
 20
497.1
 30
0.0
 40
0.3
100
AcDbArc
 50
207.645523
 51
270.0
  0
ARC
  5
204
100
AcDbEntity
  8
LAY-1
  6
CONTINUOUS
 62
     3
100
AcDbCircle
 10
451.625751
 20
490.5
 30
0.0
 40
0.3
100
AcDbArc
 50
90.0
 51
152.354477
  0
ARC
  5
205
100
AcDbEntity
  8
LAY-1
  6
CONTINUOUS
 62
     3
100
AcDbCircle
 10
449.411163
 20
491.66
 30
0.0
 40
2.2
100
AcDbArc
 50
207.645523
 51
332.354477
  0
ARC
  5
206
100
AcDbEntity
  8
LAY-1
  6
CONTINUOUS
 62
     3
100
AcDbCircle
 10
447.196575
 20
490.5
 30
0.0
 40
0.3
100
AcDbArc
 50
27.645523
 51
90.0
  0
LINE
  5
207
100
AcDbEntity
  8
LAY-1
  6
CONTINUOUS
 62
     3
100
AcDbLine
 10
456.811163
 20
490.8
 30
0.0
 11
451.36
 21
490.8
 31
0.0
  0
LINE
  5
208
100
AcDbEntity
  8
LAY-1
  6
CONTINUOUS
 62
     3
100
AcDbLine
 10
451.36
 20
496.9608
 30
0.0
 11
451.36
 21
490.6392
 31
0.0
  0
LINE
  5
209
100
AcDbEntity
  8
LAY-1
  6
CONTINUOUS
 62
     3
100
AcDbLine
 10
447.462325
 20
490.6392
 30
0.0
 11
447.462325
 21
496.9608
 31
0.0
  0
LINE
  5
20A
100
AcDbEntity
  8
LAY-1
  6
EXLTYPE3
 62
     1
100
AcDbLine
 10
386.1
 20
493.8
 30
0.0
 11
462.2
 21
493.8
 31
0.0
  0
LINE
  5
20B
100
AcDbEntity
  8
LAY-1
  6
CONTINUOUS
 62
     3
100
AcDbLine
 10
401.625751
 20
496.8
 30
0.0
 11
447.196575
 21
496.8
 31
0.0
  0
LINE
  5
20C
100
AcDbEntity
  8
LAY-1
  6
CONTINUOUS
 62
     3
100
AcDbLine
 10
447.196575
 20
490.8
 30
0.0
 11
401.625751
 21
490.8
 31
0.0
  0
ARC
  5
20D
100
AcDbEntity
  8
LAY-1
  6
CONTINUOUS
 62
     3
100
AcDbCircle
 10
512.958608
 20
497.85
 30
0.0
 40
0.3
100
AcDbArc
 50
207.645523
 51
270.0
  0
LINE
  5
20E
100
AcDbEntity
  8
LAY-1
  6
CONTINUOUS
 62
     3
100
AcDbLine
 10
503.34402
 20
497.55
 30
0.0
 11
508.529432
 21
497.55
 31
0.0
  0
ARC
  5
20F
100
AcDbEntity
  8
LAY-1
  6
CONTINUOUS
 62
     3
100
AcDbCircle
 10
510.74402
 20
496.69
 30
0.0
 40
2.2
100
AcDbArc
 50
27.645523
 51
152.354477
  0
ARC
  5
210
100
AcDbEntity
  8
LAY-1
  6
CONTINUOUS
 62
     3
100
AcDbCircle
 10
508.529432
 20
497.85
 30
0.0
 40
0.3
100
AcDbArc
 50
270.0
 51
332.354477
  0
ARC
  5
211
100
AcDbEntity
  8
LAY-1
  6
CONTINUOUS
 62
     3
100
AcDbCircle
 10
508.529432
 20
489.75
 30
0.0
 40
0.3
100
AcDbArc
 50
27.645523
 51
90.0
  0
ARC
  5
212
100
AcDbEntity
  8
LAY-1
  6
CONTINUOUS
 62
     3
100
AcDbCircle
 10
510.74402
 20
490.91
 30
0.0
 40
2.2
100
AcDbArc
 50
207.645523
 51
332.354477
  0
ARC
  5
213
100
AcDbEntity
  8
LAY-1
  6
CONTINUOUS
 62
     3
100
AcDbCircle
 10
512.958608
 20
489.75
 30
0.0
 40
0.3
100
AcDbArc
 50
90.0
 51
152.354477
  0
LINE
  5
214
100
AcDbEntity
  8
LAY-1
  6
CONTINUOUS
 62
     3
100
AcDbLine
 10
503.34402
 20
490.05
 30
0.0
 11
508.529432
 21
490.05
 31
0.0
  0
LINE
  5
215
100
AcDbEntity
  8
LAY-1
  6
CONTINUOUS
 62
     3
100
AcDbLine
 10
508.795182
 20
497.7108
 30
0.0
 11
508.795182
 21
489.8892
 31
0.0
  0
LINE
  5
216
100
AcDbEntity
  8
LAY-1
  6
CONTINUOUS
 62
     3
100
AcDbLine
 10
512.692857
 20
489.8892
 30
0.0
 11
512.692857
 21
497.7108
 31
0.0
  0
ARC
  5
217
100
AcDbEntity
  8
LAY-1
  6
CONTINUOUS
 62
     3
100
AcDbCircle
 10
558.529432
 20
497.85
 30
0.0
 40
0.3
100
AcDbArc
 50
270.0
 51
332.354477
  0
ARC
  5
218
100
AcDbEntity
  8
LAY-1
  6
CONTINUOUS
 62
     3
100
AcDbCircle
 10
560.74402
 20
496.69
 30
0.0
 40
2.2
100
AcDbArc
 50
27.645523
 51
152.354477
  0
ARC
  5
219
100
AcDbEntity
  8
LAY-1
  6
CONTINUOUS
 62
     3
100
AcDbCircle
 10
562.958608
 20
497.85
 30
0.0
 40
0.3
100
AcDbArc
 50
207.645523
 51
270.0
  0
LINE
  5
21A
100
AcDbEntity
  8
LAY-1
  6
CONTINUOUS
 62
     3
100
AcDbLine
 10
568.14402
 20
497.55
 30
0.0
 11
562.958608
 21
497.55
 31
0.0
  0
ARC
  5
21B
100
AcDbEntity
  8
LAY-1
  6
CONTINUOUS
 62
     3
100
AcDbCircle
 10
562.958608
 20
489.75
 30
0.0
 40
0.3
100
AcDbArc
 50
90.0
 51
152.354477
  0
ARC
  5
21C
100
AcDbEntity
  8
LAY-1
  6
CONTINUOUS
 62
     3
100
AcDbCircle
 10
560.74402
 20
490.91
 30
0.0
 40
2.2
100
AcDbArc
 50
207.645523
 51
332.354477
  0
ARC
  5
21D
100
AcDbEntity
  8
LAY-1
  6
CONTINUOUS
 62
     3
100
AcDbCircle
 10
558.529432
 20
489.75
 30
0.0
 40
0.3
100
AcDbArc
 50
27.645523
 51
90.0
  0
LINE
  5
21E
100
AcDbEntity
  8
LAY-1
  6
CONTINUOUS
 62
     3
100
AcDbLine
 10
568.14402
 20
490.05
 30
0.0
 11
562.958608
 21
490.05
 31
0.0
  0
LINE
  5
21F
100
AcDbEntity
  8
LAY-1
  6
CONTINUOUS
 62
     3
100
AcDbLine
 10
562.692857
 20
497.7108
 30
0.0
 11
562.692857
 21
489.8892
 31
0.0
  0
LINE
  5
220
100
AcDbEntity
  8
LAY-1
  6
CONTINUOUS
 62
     3
100
AcDbLine
 10
558.795182
 20
489.8892
 30
0.0
 11
558.795182
 21
497.7108
 31
0.0
  0
LINE
  5
221
100
AcDbEntity
  8
LAY-1
  6
EXLTYPE3
 62
     1
100
AcDbLine
 10
498.0
 20
493.8
 30
0.0
 11
573.6
 21
493.8
 31
0.0
  0
LINE
  5
222
100
AcDbEntity
  8
LAY-1
  6
CONTINUOUS
 62
     3
100
AcDbLine
 10
512.958608
 20
497.55
 30
0.0
 11
558.529432
 21
497.55
 31
0.0
  0
LINE
  5
223
100
AcDbEntity
  8
LAY-1
  6
CONTINUOUS
 62
     3
100
AcDbLine
 10
558.529432
 20
490.05
 30
0.0
 11
512.958608
 21
490.05
 31
0.0
  0
ARC
  5
224
100
AcDbEntity
  8
LAY-1
  6
CONTINUOUS
 62
     3
100
AcDbCircle
 10
615.56489
 20
498.85
 30
0.0
 40
0.3
100
AcDbArc
 50
207.645523
 51
270.0
  0
LINE
  5
225
100
AcDbEntity
  8
LAY-1
  6
CONTINUOUS
 62
     3
100
AcDbLine
 10
606.150302
 20
498.55
 30
0.0
 11
611.401465
 21
498.55
 31
0.0
  0
ARC
  5
226
100
AcDbEntity
  8
LAY-1
  6
CONTINUOUS
 62
     3
100
AcDbCircle
 10
613.350302
 20
497.69
 30
0.0
 40
2.2
100
AcDbArc
 50
27.645523
 51
152.354477
  0
ARC
  5
227
100
AcDbEntity
  8
LAY-1
  6
CONTINUOUS
 62
     3
100
AcDbCircle
 10
611.135714
 20
498.85
 30
0.0
 40
0.3
100
AcDbArc
 50
270.0
 51
332.354477
  0
ARC
  5
228
100
AcDbEntity
  8
LAY-1
  6
CONTINUOUS
 62
     3
100
AcDbCircle
 10
611.135714
 20
488.75
 30
0.0
 40
0.3
100
AcDbArc
 50
27.645523
 51
90.0
  0
ARC
  5
229
100
AcDbEntity
  8
LAY-1
  6
CONTINUOUS
 62
     3
100
AcDbCircle
 10
613.350302
 20
489.91
 30
0.0
 40
2.2
100
AcDbArc
 50
207.645523
 51
332.354477
  0
ARC
  5
22A
100
AcDbEntity
  8
LAY-1
  6
CONTINUOUS
 62
     3
100
AcDbCircle
 10
615.56489
 20
488.75
 30
0.0
 40
0.3
100
AcDbArc
 50
90.0
 51
152.354477
  0
LINE
  5
22B
100
AcDbEntity
  8
LAY-1
  6
CONTINUOUS
 62
     3
100
AcDbLine
 10
606.150302
 20
489.05
 30
0.0
 11
611.401465
 21
489.05
 31
0.0
  0
LINE
  5
22C
100
AcDbEntity
  8
LAY-1
  6
CONTINUOUS
 62
     3
100
AcDbLine
 10
611.401465
 20
498.7108
 30
0.0
 11
611.401465
 21
488.8892
 31
0.0
  0
LINE
  5
22D
100
AcDbEntity
  8
LAY-1
  6
CONTINUOUS
 62
     3
100
AcDbLine
 10
615.29914
 20
488.8892
 30
0.0
 11
615.29914
 21
498.7108
 31
0.0
  0
ARC
  5
22E
100
AcDbEntity
  8
LAY-1
  6
CONTINUOUS
 62
     3
100
AcDbCircle
 10
671.135714
 20
498.85
 30
0.0
 40
0.3
100
AcDbArc
 50
270.0
 51
332.354477
  0
ARC
  5
22F
100
AcDbEntity
  8
LAY-1
  6
CONTINUOUS
 62
     3
100
AcDbCircle
 10
673.350302
 20
497.69
 30
0.0
 40
2.2
100
AcDbArc
 50
27.645523
 51
152.354477
  0
ARC
  5
230
100
AcDbEntity
  8
LAY-1
  6
CONTINUOUS
 62
     3
100
AcDbCircle
 10
675.56489
 20
498.85
 30
0.0
 40
0.3
100
AcDbArc
 50
207.645523
 51
270.0
  0
LINE
  5
231
100
AcDbEntity
  8
LAY-1
  6
CONTINUOUS
 62
     3
100
AcDbLine
 10
680.550302
 20
498.55
 30
0.0
 11
675.29914
 21
498.55
 31
0.0
  0
ARC
  5
232
100
AcDbEntity
  8
LAY-1
  6
CONTINUOUS
 62
     3
100
AcDbCircle
 10
675.56489
 20
488.75
 30
0.0
 40
0.3
100
AcDbArc
 50
90.0
 51
152.354477
  0
ARC
  5
233
100
AcDbEntity
  8
LAY-1
  6
CONTINUOUS
 62
     3
100
AcDbCircle
 10
673.350302
 20
489.91
 30
0.0
 40
2.2
100
AcDbArc
 50
207.645523
 51
332.354477
  0
ARC
  5
234
100
AcDbEntity
  8
LAY-1
  6
CONTINUOUS
 62
     3
100
AcDbCircle
 10
671.135714
 20
488.75
 30
0.0
 40
0.3
100
AcDbArc
 50
27.645523
 51
90.0
  0
LINE
  5
235
100
AcDbEntity
  8
LAY-1
  6
CONTINUOUS
 62
     3
100
AcDbLine
 10
680.550302
 20
489.05
 30
0.0
 11
675.29914
 21
489.05
 31
0.0
  0
LINE
  5
236
100
AcDbEntity
  8
LAY-1
  6
CONTINUOUS
 62
     3
100
AcDbLine
 10
675.29914
 20
498.7108
 30
0.0
 11
675.29914
 21
488.8892
 31
0.0
  0
LINE
  5
237
100
AcDbEntity
  8
LAY-1
  6
CONTINUOUS
 62
     3
100
AcDbLine
 10
671.401465
 20
488.8892
 30
0.0
 11
671.401465
 21
498.7108
 31
0.0
  0
LINE
  5
238
100
AcDbEntity
  8
LAY-1
  6
EXLTYPE3
 62
     1
100
AcDbLine
 10
598.040302
 20
493.8
 30
0.0
 11
687.6
 21
493.8
 31
0.0
  0
LINE
  5
239
100
AcDbEntity
  8
LAY-1
  6
CONTINUOUS
 62
     3
100
AcDbLine
 10
615.56489
 20
498.55
 30
0.0
 11
671.135714
 21
498.55
 31
0.0
  0
LINE
  5
23A
100
AcDbEntity
  8
LAY-1
  6
CONTINUOUS
 62
     3
100
AcDbLine
 10
671.135714
 20
489.05
 30
0.0
 11
615.56489
 21
489.05
 31
0.0
  0
ARC
  5
23B
100
AcDbEntity
  8
LAY-1
  6
CONTINUOUS
 62
     3
100
AcDbCircle
 10
730.987747
 20
499.35
 30
0.0
 40
0.3
100
AcDbArc
 50
207.645523
 51
270.0
  0
LINE
  5
23C
100
AcDbEntity
  8
LAY-1
  6
CONTINUOUS
 62
     3
100
AcDbLine
 10
721.573159
 20
499.05
 30
0.0
 11
726.824322
 21
499.05
 31
0.0
  0
ARC
  5
23D
100
AcDbEntity
  8
LAY-1
  6
CONTINUOUS
 62
     3
100
AcDbCircle
 10
728.773159
 20
498.19
 30
0.0
 40
2.2
100
AcDbArc
 50
27.645523
 51
152.354477
  0
ARC
  5
23E
100
AcDbEntity
  8
LAY-1
  6
CONTINUOUS
 62
     3
100
AcDbCircle
 10
726.558571
 20
499.35
 30
0.0
 40
0.3
100
AcDbArc
 50
270.0
 51
332.354477
  0
ARC
  5
23F
100
AcDbEntity
  8
LAY-1
  6
CONTINUOUS
 62
     3
100
AcDbCircle
 10
726.558571
 20
488.25
 30
0.0
 40
0.3
100
AcDbArc
 50
27.645523
 51
90.0
  0
ARC
  5
240
100
AcDbEntity
  8
LAY-1
  6
CONTINUOUS
 62
     3
100
AcDbCircle
 10
728.773159
 20
489.41
 30
0.0
 40
2.2
100
AcDbArc
 50
207.645523
 51
332.354477
  0
ARC
  5
241
100
AcDbEntity
  8
LAY-1
  6
CONTINUOUS
 62
     3
100
AcDbCircle
 10
730.987747
 20
488.25
 30
0.0
 40
0.3
100
AcDbArc
 50
90.0
 51
152.354477
  0
LINE
  5
242
100
AcDbEntity
  8
LAY-1
  6
CONTINUOUS
 62
     3
100
AcDbLine
 10
721.573159
 20
488.55
 30
0.0
 11
726.824322
 21
488.55
 31
0.0
  0
LINE
  5
243
100
AcDbEntity
  8
LAY-1
  6
CONTINUOUS
 62
     3
100
AcDbLine
 10
726.824322
 20
499.2108
 30
0.0
 11
726.824322
 21
488.3892
 31
0.0
  0
LINE
  5
244
100
AcDbEntity
  8
LAY-1
  6
CONTINUOUS
 62
     3
100
AcDbLine
 10
730.721997
 20
488.3892
 30
0.0
 11
730.721997
 21
499.2108
 31
0.0
  0
ARC
  5
245
100
AcDbEntity
  8
LAY-1
  6
CONTINUOUS
 62
     3
100
AcDbCircle
 10
786.558571
 20
499.35
 30
0.0
 40
0.3
100
AcDbArc
 50
270.0
 51
332.354477
  0
ARC
  5
246
100
AcDbEntity
  8
LAY-1
  6
CONTINUOUS
 62
     3
100
AcDbCircle
 10
788.773159
 20
498.19
 30
0.0
 40
2.2
100
AcDbArc
 50
27.645523
 51
152.354477
  0
ARC
  5
247
100
AcDbEntity
  8
LAY-1
  6
CONTINUOUS
 62
     3
100
AcDbCircle
 10
790.987747
 20
499.35
 30
0.0
 40
0.3
100
AcDbArc
 50
207.645523
 51
270.0
  0
LINE
  5
248
100
AcDbEntity
  8
LAY-1
  6
CONTINUOUS
 62
     3
100
AcDbLine
 10
795.973159
 20
499.05
 30
0.0
 11
790.721997
 21
499.05
 31
0.0
  0
ARC
  5
249
100
AcDbEntity
  8
LAY-1
  6
CONTINUOUS
 62
     3
100
AcDbCircle
 10
790.987747
 20
488.25
 30
0.0
 40
0.3
100
AcDbArc
 50
90.0
 51
152.354477
  0
ARC
  5
24A
100
AcDbEntity
  8
LAY-1
  6
CONTINUOUS
 62
     3
100
AcDbCircle
 10
788.773159
 20
489.41
 30
0.0
 40
2.2
100
AcDbArc
 50
207.645523
 51
332.354477
  0
ARC
  5
24B
100
AcDbEntity
  8
LAY-1
  6
CONTINUOUS
 62
     3
100
AcDbCircle
 10
786.558571
 20
488.25
 30
0.0
 40
0.3
100
AcDbArc
 50
27.645523
 51
90.0
  0
LINE
  5
24C
100
AcDbEntity
  8
LAY-1
  6
CONTINUOUS
 62
     3
100
AcDbLine
 10
795.973159
 20
488.55
 30
0.0
 11
790.721997
 21
488.55
 31
0.0
  0
LINE
  5
24D
100
AcDbEntity
  8
LAY-1
  6
CONTINUOUS
 62
     3
100
AcDbLine
 10
790.721997
 20
499.2108
 30
0.0
 11
790.721997
 21
488.3892
 31
0.0
  0
LINE
  5
24E
100
AcDbEntity
  8
LAY-1
  6
CONTINUOUS
 62
     3
100
AcDbLine
 10
786.824322
 20
488.3892
 30
0.0
 11
786.824322
 21
499.2108
 31
0.0
  0
LINE
  5
24F
100
AcDbEntity
  8
LAY-1
  6
EXLTYPE3
 62
     1
100
AcDbLine
 10
712.213159
 20
493.8
 30
0.0
 11
803.0
 21
493.8
 31
0.0
  0
LINE
  5
250
100
AcDbEntity
  8
LAY-1
  6
CONTINUOUS
 62
     3
100
AcDbLine
 10
730.987747
 20
499.05
 30
0.0
 11
786.558571
 21
499.05
 31
0.0
  0
LINE
  5
251
100
AcDbEntity
  8
LAY-1
  6
CONTINUOUS
 62
     3
100
AcDbLine
 10
786.558571
 20
488.55
 30
0.0
 11
730.987747
 21
488.55
 31
0.0
  0
ARC
  5
252
100
AcDbEntity
  8
LAY-1
  6
CONTINUOUS
 62
     3
100
AcDbCircle
 10
404.504661
 20
337.55
 30
0.0
 40
0.5
100
AcDbArc
 50
270.0
 51
329.553958
  0
ARC
  5
253
100
AcDbEntity
  8
LAY-1
  6
CONTINUOUS
 62
     3
100
AcDbCircle
 10
407.737561
 20
335.649775
 30
0.0
 40
3.25
100
AcDbArc
 50
30.446042
 51
149.553958
  0
ARC
  5
254
100
AcDbEntity
  8
LAY-1
  6
CONTINUOUS
 62
     3
100
AcDbCircle
 10
410.970462
 20
337.55
 30
0.0
 40
0.5
100
AcDbArc
 50
210.446042
 51
270.0
  0
LINE
  5
255
100
AcDbEntity
  8
LAY-1
  6
CONTINUOUS
 62
     3
100
AcDbLine
 10
410.970462
 20
337.05
 30
0.0
 11
419.504661
 21
337.05
 31
0.0
  0
ARC
  5
256
100
AcDbEntity
  8
LAY-1
  6
CONTINUOUS
 62
     3
100
AcDbCircle
 10
410.970462
 20
280.05
 30
0.0
 40
0.5
100
AcDbArc
 50
90.0
 51
149.553958
  0
ARC
  5
257
100
AcDbEntity
  8
LAY-1
  6
CONTINUOUS
 62
     3
100
AcDbCircle
 10
407.737561
 20
281.950225
 30
0.0
 40
3.25
100
AcDbArc
 50
210.446042
 51
329.553958
  0
ARC
  5
258
100
AcDbEntity
  8
LAY-1
  6
CONTINUOUS
 62
     3
100
AcDbCircle
 10
404.504661
 20
280.05
 30
0.0
 40
0.5
100
AcDbArc
 50
30.446042
 51
90.0
  0
LINE
  5
259
100
AcDbEntity
  8
LAY-1
  6
CONTINUOUS
 62
     3
100
AcDbLine
 10
419.504661
 20
280.55
 30
0.0
 11
410.970462
 21
280.55
 31
0.0
  0
LINE
  5
25A
100
AcDbEntity
  8
LAY-1
  6
CONTINUOUS
 62
     3
100
AcDbLine
 10
404.935714
 20
280.303363
 30
0.0
 11
404.935714
 21
337.296637
 31
0.0
  0
LINE
  5
25B
100
AcDbEntity
  8
LAY-1
  6
CONTINUOUS
 62
     3
100
AcDbLine
 10
410.608769
 20
337.204778
 30
0.0
 11
410.608769
 21
280.303363
 31
0.0
  0
LINE
  5
25C
100
AcDbEntity
  8
LAY-1
  6
CONTINUOUS
 62
     3
100
AcDbLine
 10
381.437561
 20
337.05
 30
0.0
 11
389.504661
 21
337.05
 31
0.0
  0
ARC
  5
25D
100
AcDbEntity
  8
LAY-1
  6
CONTINUOUS
 62
     3
100
AcDbCircle
 10
389.504661
 20
337.55
 30
0.0
 40
0.5
100
AcDbArc
 50
270.0
 51
329.553958
  0
ARC
  5
25E
100
AcDbEntity
  8
LAY-1
  6
CONTINUOUS
 62
     3
100
AcDbCircle
 10
392.737561
 20
335.649775
 30
0.0
 40
3.25
100
AcDbArc
 50
30.446042
 51
149.553958
  0
ARC
  5
25F
100
AcDbEntity
  8
LAY-1
  6
CONTINUOUS
 62
     3
100
AcDbCircle
 10
395.970462
 20
337.55
 30
0.0
 40
0.5
100
AcDbArc
 50
210.446042
 51
270.0
  0
LINE
  5
260
100
AcDbEntity
  8
LAY-1
  6
CONTINUOUS
 62
     3
100
AcDbLine
 10
395.970462
 20
337.05
 30
0.0
 11
404.504661
 21
337.05
 31
0.0
  0
ARC
  5
261
100
AcDbEntity
  8
LAY-1
  6
CONTINUOUS
 62
     3
100
AcDbCircle
 10
395.970462
 20
280.05
 30
0.0
 40
0.5
100
AcDbArc
 50
90.0
 51
149.553958
  0
LINE
  5
262
100
AcDbEntity
  8
LAY-1
  6
CONTINUOUS
 62
     3
100
AcDbLine
 10
389.504661
 20
280.55
 30
0.0
 11
381.437561
 21
280.55
 31
0.0
  0
ARC
  5
263
100
AcDbEntity
  8
LAY-1
  6
CONTINUOUS
 62
     3
100
AcDbCircle
 10
392.737561
 20
281.950225
 30
0.0
 40
3.25
100
AcDbArc
 50
210.446042
 51
329.553958
  0
ARC
  5
264
100
AcDbEntity
  8
LAY-1
  6
CONTINUOUS
 62
     3
100
AcDbCircle
 10
389.504661
 20
280.05
 30
0.0
 40
0.5
100
AcDbArc
 50
30.446042
 51
90.0
  0
LINE
  5
265
100
AcDbEntity
  8
LAY-1
  6
CONTINUOUS
 62
     3
100
AcDbLine
 10
404.504661
 20
280.55
 30
0.0
 11
395.970462
 21
280.55
 31
0.0
  0
LINE
  5
266
100
AcDbEntity
  8
LAY-1
  6
CONTINUOUS
 62
     3
100
AcDbLine
 10
389.935714
 20
280.303363
 30
0.0
 11
389.935714
 21
337.296637
 31
0.0
  0
LINE
  5
267
100
AcDbEntity
  8
LAY-1
  6
CONTINUOUS
 62
     3
100
AcDbLine
 10
395.608769
 20
337.204778
 30
0.0
 11
395.608769
 21
280.303363
 31
0.0
  0
ARC
  5
268
100
AcDbEntity
  8
LAY-1
  6
CONTINUOUS
 62
     3
100
AcDbCircle
 10
434.504661
 20
337.55
 30
0.0
 40
0.5
100
AcDbArc
 50
270.0
 51
329.553958
  0
ARC
  5
269
100
AcDbEntity
  8
LAY-1
  6
CONTINUOUS
 62
     3
100
AcDbCircle
 10
437.737561
 20
335.649775
 30
0.0
 40
3.25
100
AcDbArc
 50
30.446042
 51
149.553958
  0
ARC
  5
26A
100
AcDbEntity
  8
LAY-1
  6
CONTINUOUS
 62
     3
100
AcDbCircle
 10
440.970462
 20
337.55
 30
0.0
 40
0.5
100
AcDbArc
 50
210.446042
 51
270.0
  0
LINE
  5
26B
100
AcDbEntity
  8
LAY-1
  6
CONTINUOUS
 62
     3
100
AcDbLine
 10
425.970462
 20
337.05
 30
0.0
 11
434.504661
 21
337.05
 31
0.0
  0
ARC
  5
26C
100
AcDbEntity
  8
LAY-1
  6
CONTINUOUS
 62
     3
100
AcDbCircle
 10
440.970462
 20
280.05
 30
0.0
 40
0.5
100
AcDbArc
 50
90.0
 51
149.553958
  0
ARC
  5
26D
100
AcDbEntity
  8
LAY-1
  6
CONTINUOUS
 62
     3
100
AcDbCircle
 10
437.737561
 20
281.950225
 30
0.0
 40
3.25
100
AcDbArc
 50
210.446042
 51
329.553958
  0
ARC
  5
26E
100
AcDbEntity
  8
LAY-1
  6
CONTINUOUS
 62
     3
100
AcDbCircle
 10
434.504661
 20
280.05
 30
0.0
 40
0.5
100
AcDbArc
 50
30.446042
 51
90.0
  0
LINE
  5
26F
100
AcDbEntity
  8
LAY-1
  6
CONTINUOUS
 62
     3
100
AcDbLine
 10
434.504661
 20
280.55
 30
0.0
 11
425.970462
 21
280.55
 31
0.0
  0
LINE
  5
270
100
AcDbEntity
  8
LAY-1
  6
CONTINUOUS
 62
     3
100
AcDbLine
 10
434.935714
 20
280.303363
 30
0.0
 11
434.935714
 21
337.296637
 31
0.0
  0
LINE
  5
271
100
AcDbEntity
  8
LAY-1
  6
CONTINUOUS
 62
     3
100
AcDbLine
 10
440.608769
 20
337.204778
 30
0.0
 11
440.608769
 21
280.303363
 31
0.0
  0
ARC
  5
272
100
AcDbEntity
  8
LAY-1
  6
CONTINUOUS
 62
     3
100
AcDbCircle
 10
455.970462
 20
337.55
 30
0.0
 40
0.5
100
AcDbArc
 50
210.446042
 51
270.0
  0
ARC
  5
273
100
AcDbEntity
  8
LAY-1
  6
CONTINUOUS
 62
     3
100
AcDbCircle
 10
452.737561
 20
335.649775
 30
0.0
 40
3.25
100
AcDbArc
 50
30.446042
 51
149.553958
  0
ARC
  5
274
100
AcDbEntity
  8
LAY-1
  6
CONTINUOUS
 62
     3
100
AcDbCircle
 10
449.504661
 20
337.55
 30
0.0
 40
0.5
100
AcDbArc
 50
270.0
 51
329.553958
  0
LINE
  5
275
100
AcDbEntity
  8
LAY-1
  6
CONTINUOUS
 62
     3
100
AcDbLine
 10
464.037561
 20
337.05
 30
0.0
 11
455.970462
 21
337.05
 31
0.0
  0
LINE
  5
276
100
AcDbEntity
  8
LAY-1
  6
CONTINUOUS
 62
     3
100
AcDbLine
 10
440.970462
 20
337.05
 30
0.0
 11
449.504661
 21
337.05
 31
0.0
  0
ARC
  5
277
100
AcDbEntity
  8
LAY-1
  6
CONTINUOUS
 62
     3
100
AcDbCircle
 10
449.504661
 20
280.05
 30
0.0
 40
0.5
100
AcDbArc
 50
30.446042
 51
90.0
  0
ARC
  5
278
100
AcDbEntity
  8
LAY-1
  6
CONTINUOUS
 62
     3
100
AcDbCircle
 10
452.737561
 20
281.950225
 30
0.0
 40
3.25
100
AcDbArc
 50
210.446042
 51
329.553958
  0
ARC
  5
279
100
AcDbEntity
  8
LAY-1
  6
CONTINUOUS
 62
     3
100
AcDbCircle
 10
455.970462
 20
280.05
 30
0.0
 40
0.5
100
AcDbArc
 50
90.0
 51
149.553958
  0
LINE
  5
27A
100
AcDbEntity
  8
LAY-1
  6
CONTINUOUS
 62
     3
100
AcDbLine
 10
455.970462
 20
280.55
 30
0.0
 11
464.037561
 21
280.55
 31
0.0
  0
LINE
  5
27B
100
AcDbEntity
  8
LAY-1
  6
CONTINUOUS
 62
     3
100
AcDbLine
 10
449.504661
 20
280.55
 30
0.0
 11
440.970462
 21
280.55
 31
0.0
  0
LINE
  5
27C
100
AcDbEntity
  8
LAY-1
  6
CONTINUOUS
 62
     3
100
AcDbLine
 10
455.539408
 20
280.303363
 30
0.0
 11
455.539408
 21
337.296637
 31
0.0
  0
LINE
  5
27D
100
AcDbEntity
  8
LAY-1
  6
CONTINUOUS
 62
     3
100
AcDbLine
 10
449.866353
 20
337.204778
 30
0.0
 11
449.866353
 21
280.303363
 31
0.0
  0
LINE
  5
27E
100
AcDbEntity
  8
LAY-1
  6
EXLTYPE3
 62
     1
100
AcDbLine
 10
372.237561
 20
308.8
 30
0.0
 11
472.142857
 21
308.8
 31
0.0
  0
LINE
  5
27F
100
AcDbEntity
  8
LAY-1
  6
CONTINUOUS
 62
     3
100
AcDbLine
 10
130.842857
 20
333.3
 30
0.0
 11
128.842857
 21
333.3
 31
0.0
  0
LINE
  5
280
100
AcDbEntity
  8
LAY-1
  6
CONTINUOUS
 62
     3
100
AcDbLine
 10
130.842857
 20
284.3
 30
0.0
 11
128.842857
 21
284.3
 31
0.0
  0
LINE
  5
281
100
AcDbEntity
  8
LAY-1
  6
CONTINUOUS
 62
     3
100
AcDbLine
 10
43.842857
 20
333.3
 30
0.0
 11
45.842857
 21
333.3
 31
0.0
  0
LINE
  5
282
100
AcDbEntity
  8
LAY-1
  6
CONTINUOUS
 62
     3
100
AcDbLine
 10
43.842857
 20
284.3
 30
0.0
 11
45.842857
 21
284.3
 31
0.0
  0
LINE
  5
283
100
AcDbEntity
  8
LAY-1
  6
CONTINUOUS
 62
     3
100
AcDbLine
 10
132.342857
 20
329.6
 30
0.0
 11
130.842857
 21
329.6
 31
0.0
  0
LINE
  5
284
100
AcDbEntity
  8
LAY-1
  6
CONTINUOUS
 62
     3
100
AcDbLine
 10
42.342857
 20
329.6
 30
0.0
 11
43.842857
 21
329.6
 31
0.0
  0
LINE
  5
285
100
AcDbEntity
  8
LAY-1
  6
CONTINUOUS
 62
     3
100
AcDbLine
 10
132.342857
 20
288.0
 30
0.0
 11
130.842857
 21
288.0
 31
0.0
  0
LINE
  5
286
100
AcDbEntity
  8
LAY-1
  6
CONTINUOUS
 62
     3
100
AcDbLine
 10
42.342857
 20
288.0
 30
0.0
 11
43.842857
 21
288.0
 31
0.0
  0
LINE
  5
287
100
AcDbEntity
  8
LAY-1
  6
CONTINUOUS
 62
     3
100
AcDbLine
 10
42.342857
 20
329.6
 30
0.0
 11
42.342857
 21
288.0
 31
0.0
  0
LINE
  5
288
100
AcDbEntity
  8
LAY-1
  6
CONTINUOUS
 62
     3
100
AcDbLine
 10
132.342857
 20
329.6
 30
0.0
 11
132.342857
 21
288.0
 31
0.0
  0
LINE
  5
289
100
AcDbEntity
  8
LAY-1
  6
CONTINUOUS
 62
     3
100
AcDbLine
 10
130.842857
 20
333.3
 30
0.0
 11
130.842857
 21
284.3
 31
0.0
  0
LINE
  5
28A
100
AcDbEntity
  8
LAY-1
  6
CONTINUOUS
 62
     3
100
AcDbLine
 10
128.842857
 20
333.3
 30
0.0
 11
128.842857
 21
284.3
 31
0.0
  0
LINE
  5
28B
100
AcDbEntity
  8
LAY-1
  6
CONTINUOUS
 62
     3
100
AcDbLine
 10
43.842857
 20
333.3
 30
0.0
 11
43.842857
 21
284.3
 31
0.0
  0
LINE
  5
28C
100
AcDbEntity
  8
LAY-1
  6
CONTINUOUS
 62
     3
100
AcDbLine
 10
45.842857
 20
333.3
 30
0.0
 11
45.842857
 21
284.3
 31
0.0
  0
ARC
  5
28D
100
AcDbEntity
  8
LAY-1
  6
CONTINUOUS
 62
     3
100
AcDbCircle
 10
84.109957
 20
328.6
 30
0.0
 40
0.5
100
AcDbArc
 50
270.0
 51
329.553958
  0
ARC
  5
28E
100
AcDbEntity
  8
LAY-1
  6
CONTINUOUS
 62
     3
100
AcDbCircle
 10
87.342857
 20
326.699775
 30
0.0
 40
3.25
100
AcDbArc
 50
30.446042
 51
149.553958
  0
ARC
  5
28F
100
AcDbEntity
  8
LAY-1
  6
CONTINUOUS
 62
     3
100
AcDbCircle
 10
90.575757
 20
328.6
 30
0.0
 40
0.5
100
AcDbArc
 50
210.446042
 51
270.0
  0
ARC
  5
290
100
AcDbEntity
  8
LAY-1
  6
CONTINUOUS
 62
     3
100
AcDbCircle
 10
90.575757
 20
289.0
 30
0.0
 40
0.5
100
AcDbArc
 50
90.0
 51
149.553958
  0
ARC
  5
291
100
AcDbEntity
  8
LAY-1
  6
CONTINUOUS
 62
     3
100
AcDbCircle
 10
87.342857
 20
290.900225
 30
0.0
 40
3.25
100
AcDbArc
 50
210.446042
 51
329.553958
  0
ARC
  5
292
100
AcDbEntity
  8
LAY-1
  6
CONTINUOUS
 62
     3
100
AcDbCircle
 10
84.109957
 20
289.0
 30
0.0
 40
0.5
100
AcDbArc
 50
30.446042
 51
90.0
  0
LINE
  5
293
100
AcDbEntity
  8
LAY-1
  6
CONTINUOUS
 62
     3
100
AcDbLine
 10
84.54101
 20
289.253363
 30
0.0
 11
84.54101
 21
328.346637
 31
0.0
  0
LINE
  5
294
100
AcDbEntity
  8
LAY-1
  6
CONTINUOUS
 62
     3
100
AcDbLine
 10
90.214065
 20
328.254778
 30
0.0
 11
90.214065
 21
289.253363
 31
0.0
  0
LINE
  5
295
100
AcDbEntity
  8
LAY-1
  6
CONTINUOUS
 62
     3
100
AcDbLine
 10
45.842857
 20
328.1
 30
0.0
 11
54.109957
 21
328.1
 31
0.0
  0
ARC
  5
296
100
AcDbEntity
  8
LAY-1
  6
CONTINUOUS
 62
     3
100
AcDbCircle
 10
54.109957
 20
328.6
 30
0.0
 40
0.5
100
AcDbArc
 50
270.0
 51
329.553958
  0
ARC
  5
297
100
AcDbEntity
  8
LAY-1
  6
CONTINUOUS
 62
     3
100
AcDbCircle
 10
57.342857
 20
326.699775
 30
0.0
 40
3.25
100
AcDbArc
 50
30.446042
 51
149.553958
  0
ARC
  5
298
100
AcDbEntity
  8
LAY-1
  6
CONTINUOUS
 62
     3
100
AcDbCircle
 10
60.575757
 20
328.6
 30
0.0
 40
0.5
100
AcDbArc
 50
210.446042
 51
270.0
  0
ARC
  5
299
100
AcDbEntity
  8
LAY-1
  6
CONTINUOUS
 62
     3
100
AcDbCircle
 10
60.575757
 20
289.0
 30
0.0
 40
0.5
100
AcDbArc
 50
90.0
 51
149.553958
  0
LINE
  5
29A
100
AcDbEntity
  8
LAY-1
  6
CONTINUOUS
 62
     3
100
AcDbLine
 10
54.109957
 20
289.5
 30
0.0
 11
45.842857
 21
289.5
 31
0.0
  0
ARC
  5
29B
100
AcDbEntity
  8
LAY-1
  6
CONTINUOUS
 62
     3
100
AcDbCircle
 10
57.342857
 20
290.900225
 30
0.0
 40
3.25
100
AcDbArc
 50
210.446042
 51
329.553958
  0
ARC
  5
29C
100
AcDbEntity
  8
LAY-1
  6
CONTINUOUS
 62
     3
100
AcDbCircle
 10
54.109957
 20
289.0
 30
0.0
 40
0.5
100
AcDbArc
 50
30.446042
 51
90.0
  0
LINE
  5
29D
100
AcDbEntity
  8
LAY-1
  6
CONTINUOUS
 62
     3
100
AcDbLine
 10
54.54101
 20
289.253363
 30
0.0
 11
54.54101
 21
328.346637
 31
0.0
  0
LINE
  5
29E
100
AcDbEntity
  8
LAY-1
  6
CONTINUOUS
 62
     3
100
AcDbLine
 10
60.214065
 20
328.254778
 30
0.0
 11
60.214065
 21
289.253363
 31
0.0
  0
ARC
  5
29F
100
AcDbEntity
  8
LAY-1
  6
CONTINUOUS
 62
     3
100
AcDbCircle
 10
69.109957
 20
328.6
 30
0.0
 40
0.5
100
AcDbArc
 50
270.0
 51
329.553958
  0
ARC
  5
2A0
100
AcDbEntity
  8
LAY-1
  6
CONTINUOUS
 62
     3
100
AcDbCircle
 10
72.342857
 20
326.699775
 30
0.0
 40
3.25
100
AcDbArc
 50
30.446042
 51
149.553958
  0
ARC
  5
2A1
100
AcDbEntity
  8
LAY-1
  6
CONTINUOUS
 62
     3
100
AcDbCircle
 10
75.575757
 20
328.6
 30
0.0
 40
0.5
100
AcDbArc
 50
210.446042
 51
270.0
  0
ARC
  5
2A2
100
AcDbEntity
  8
LAY-1
  6
CONTINUOUS
 62
     3
100
AcDbCircle
 10
75.575757
 20
289.0
 30
0.0
 40
0.5
100
AcDbArc
 50
90.0
 51
149.553958
  0
ARC
  5
2A3
100
AcDbEntity
  8
LAY-1
  6
CONTINUOUS
 62
     3
100
AcDbCircle
 10
72.342857
 20
290.900225
 30
0.0
 40
3.25
100
AcDbArc
 50
210.446042
 51
329.553958
  0
ARC
  5
2A4
100
AcDbEntity
  8
LAY-1
  6
CONTINUOUS
 62
     3
100
AcDbCircle
 10
69.109957
 20
289.0
 30
0.0
 40
0.5
100
AcDbArc
 50
30.446042
 51
90.0
  0
LINE
  5
2A5
100
AcDbEntity
  8
LAY-1
  6
CONTINUOUS
 62
     3
100
AcDbLine
 10
69.54101
 20
289.253363
 30
0.0
 11
69.54101
 21
328.346637
 31
0.0
  0
LINE
  5
2A6
100
AcDbEntity
  8
LAY-1
  6
CONTINUOUS
 62
     3
100
AcDbLine
 10
75.214065
 20
328.254778
 30
0.0
 11
75.214065
 21
289.253363
 31
0.0
  0
LINE
  5
2A7
100
AcDbEntity
  8
LAY-1
  6
CONTINUOUS
 62
     3
100
AcDbLine
 10
75.575757
 20
328.1
 30
0.0
 11
84.109957
 21
328.1
 31
0.0
  0
LINE
  5
2A8
100
AcDbEntity
  8
LAY-1
  6
CONTINUOUS
 62
     3
100
AcDbLine
 10
84.109957
 20
289.5
 30
0.0
 11
75.575757
 21
289.5
 31
0.0
  0
LINE
  5
2A9
100
AcDbEntity
  8
LAY-1
  6
CONTINUOUS
 62
     3
100
AcDbLine
 10
60.575757
 20
328.1
 30
0.0
 11
69.109957
 21
328.1
 31
0.0
  0
LINE
  5
2AA
100
AcDbEntity
  8
LAY-1
  6
CONTINUOUS
 62
     3
100
AcDbLine
 10
69.109957
 20
289.5
 30
0.0
 11
60.575757
 21
289.5
 31
0.0
  0
ARC
  5
2AB
100
AcDbEntity
  8
LAY-1
  6
CONTINUOUS
 62
     3
100
AcDbCircle
 10
105.575757
 20
328.6
 30
0.0
 40
0.5
100
AcDbArc
 50
210.446042
 51
270.0
  0
ARC
  5
2AC
100
AcDbEntity
  8
LAY-1
  6
CONTINUOUS
 62
     3
100
AcDbCircle
 10
102.342857
 20
326.699775
 30
0.0
 40
3.25
100
AcDbArc
 50
30.446042
 51
149.553958
  0
ARC
  5
2AD
100
AcDbEntity
  8
LAY-1
  6
CONTINUOUS
 62
     3
100
AcDbCircle
 10
99.109957
 20
328.6
 30
0.0
 40
0.5
100
AcDbArc
 50
270.0
 51
329.553958
  0
ARC
  5
2AE
100
AcDbEntity
  8
LAY-1
  6
CONTINUOUS
 62
     3
100
AcDbCircle
 10
99.109957
 20
289.0
 30
0.0
 40
0.5
100
AcDbArc
 50
30.446042
 51
90.0
  0
ARC
  5
2AF
100
AcDbEntity
  8
LAY-1
  6
CONTINUOUS
 62
     3
100
AcDbCircle
 10
102.342857
 20
290.900225
 30
0.0
 40
3.25
100
AcDbArc
 50
210.446042
 51
329.553958
  0
ARC
  5
2B0
100
AcDbEntity
  8
LAY-1
  6
CONTINUOUS
 62
     3
100
AcDbCircle
 10
105.575757
 20
289.0
 30
0.0
 40
0.5
100
AcDbArc
 50
90.0
 51
149.553958
  0
LINE
  5
2B1
100
AcDbEntity
  8
LAY-1
  6
CONTINUOUS
 62
     3
100
AcDbLine
 10
105.144704
 20
289.253363
 30
0.0
 11
105.144704
 21
328.346637
 31
0.0
  0
LINE
  5
2B2
100
AcDbEntity
  8
LAY-1
  6
CONTINUOUS
 62
     3
100
AcDbLine
 10
99.471649
 20
328.254778
 30
0.0
 11
99.471649
 21
289.253363
 31
0.0
  0
LINE
  5
2B3
100
AcDbEntity
  8
LAY-1
  6
CONTINUOUS
 62
     3
100
AcDbLine
 10
90.575757
 20
328.1
 30
0.0
 11
99.109957
 21
328.1
 31
0.0
  0
LINE
  5
2B4
100
AcDbEntity
  8
LAY-1
  6
CONTINUOUS
 62
     3
100
AcDbLine
 10
99.109957
 20
289.5
 30
0.0
 11
90.575757
 21
289.5
 31
0.0
  0
ARC
  5
2B5
100
AcDbEntity
  8
LAY-1
  6
CONTINUOUS
 62
     3
100
AcDbCircle
 10
120.575757
 20
328.6
 30
0.0
 40
0.5
100
AcDbArc
 50
210.446042
 51
270.0
  0
ARC
  5
2B6
100
AcDbEntity
  8
LAY-1
  6
CONTINUOUS
 62
     3
100
AcDbCircle
 10
117.342857
 20
326.699775
 30
0.0
 40
3.25
100
AcDbArc
 50
30.446042
 51
149.553958
  0
ARC
  5
2B7
100
AcDbEntity
  8
LAY-1
  6
CONTINUOUS
 62
     3
100
AcDbCircle
 10
114.109957
 20
328.6
 30
0.0
 40
0.5
100
AcDbArc
 50
270.0
 51
329.553958
  0
LINE
  5
2B8
100
AcDbEntity
  8
LAY-1
  6
CONTINUOUS
 62
     3
100
AcDbLine
 10
128.842857
 20
328.1
 30
0.0
 11
120.575757
 21
328.1
 31
0.0
  0
ARC
  5
2B9
100
AcDbEntity
  8
LAY-1
  6
CONTINUOUS
 62
     3
100
AcDbCircle
 10
114.109957
 20
289.0
 30
0.0
 40
0.5
100
AcDbArc
 50
30.446042
 51
90.0
  0
ARC
  5
2BA
100
AcDbEntity
  8
LAY-1
  6
CONTINUOUS
 62
     3
100
AcDbCircle
 10
117.342857
 20
290.900225
 30
0.0
 40
3.25
100
AcDbArc
 50
210.446042
 51
329.553958
  0
ARC
  5
2BB
100
AcDbEntity
  8
LAY-1
  6
CONTINUOUS
 62
     3
100
AcDbCircle
 10
120.575757
 20
289.0
 30
0.0
 40
0.5
100
AcDbArc
 50
90.0
 51
149.553958
  0
LINE
  5
2BC
100
AcDbEntity
  8
LAY-1
  6
CONTINUOUS
 62
     3
100
AcDbLine
 10
120.575757
 20
289.5
 30
0.0
 11
128.842857
 21
289.5
 31
0.0
  0
LINE
  5
2BD
100
AcDbEntity
  8
LAY-1
  6
CONTINUOUS
 62
     3
100
AcDbLine
 10
120.144704
 20
289.253363
 30
0.0
 11
120.144704
 21
328.346637
 31
0.0
  0
LINE
  5
2BE
100
AcDbEntity
  8
LAY-1
  6
CONTINUOUS
 62
     3
100
AcDbLine
 10
114.471649
 20
328.254778
 30
0.0
 11
114.471649
 21
289.253363
 31
0.0
  0
LINE
  5
2BF
100
AcDbEntity
  8
LAY-1
  6
CONTINUOUS
 62
     3
100
AcDbLine
 10
105.575757
 20
328.1
 30
0.0
 11
114.109957
 21
328.1
 31
0.0
  0
LINE
  5
2C0
100
AcDbEntity
  8
LAY-1
  6
CONTINUOUS
 62
     3
100
AcDbLine
 10
114.109957
 20
289.5
 30
0.0
 11
105.575757
 21
289.5
 31
0.0
  0
LINE
  5
2C1
100
AcDbEntity
  8
LAY-1
  6
EXLTYPE3
 62
     1
100
AcDbLine
 10
35.438265
 20
308.8
 30
0.0
 11
141.138265
 21
308.8
 31
0.0
  0
LINE
  5
2C2
100
AcDbEntity
  8
LAY-1
  6
CONTINUOUS
 62
     3
100
AcDbLine
 10
156.692857
 20
336.8
 30
0.0
 11
158.692857
 21
336.8
 31
0.0
  0
LINE
  5
2C3
100
AcDbEntity
  8
LAY-1
  6
CONTINUOUS
 62
     3
100
AcDbLine
 10
156.692857
 20
280.8
 30
0.0
 11
158.692857
 21
280.8
 31
0.0
  0
LINE
  5
2C4
100
AcDbEntity
  8
LAY-1
  6
CONTINUOUS
 62
     3
100
AcDbLine
 10
243.692857
 20
336.8
 30
0.0
 11
241.692857
 21
336.8
 31
0.0
  0
LINE
  5
2C5
100
AcDbEntity
  8
LAY-1
  6
CONTINUOUS
 62
     3
100
AcDbLine
 10
243.692857
 20
280.8
 30
0.0
 11
241.692857
 21
280.8
 31
0.0
  0
LINE
  5
2C6
100
AcDbEntity
  8
LAY-1
  6
CONTINUOUS
 62
     3
100
AcDbLine
 10
155.192857
 20
333.05
 30
0.0
 11
156.692857
 21
333.05
 31
0.0
  0
LINE
  5
2C7
100
AcDbEntity
  8
LAY-1
  6
CONTINUOUS
 62
     3
100
AcDbLine
 10
245.192857
 20
333.05
 30
0.0
 11
243.692857
 21
333.05
 31
0.0
  0
LINE
  5
2C8
100
AcDbEntity
  8
LAY-1
  6
CONTINUOUS
 62
     3
100
AcDbLine
 10
155.192857
 20
284.55
 30
0.0
 11
156.692857
 21
284.55
 31
0.0
  0
LINE
  5
2C9
100
AcDbEntity
  8
LAY-1
  6
CONTINUOUS
 62
     3
100
AcDbLine
 10
245.192857
 20
284.55
 30
0.0
 11
243.692857
 21
284.55
 31
0.0
  0
LINE
  5
2CA
100
AcDbEntity
  8
LAY-1
  6
CONTINUOUS
 62
     3
100
AcDbLine
 10
155.192857
 20
333.05
 30
0.0
 11
155.192857
 21
284.55
 31
0.0
  0
LINE
  5
2CB
100
AcDbEntity
  8
LAY-1
  6
CONTINUOUS
 62
     3
100
AcDbLine
 10
245.192857
 20
333.05
 30
0.0
 11
245.192857
 21
284.55
 31
0.0
  0
LINE
  5
2CC
100
AcDbEntity
  8
LAY-1
  6
CONTINUOUS
 62
     3
100
AcDbLine
 10
156.692857
 20
336.8
 30
0.0
 11
156.692857
 21
280.8
 31
0.0
  0
LINE
  5
2CD
100
AcDbEntity
  8
LAY-1
  6
CONTINUOUS
 62
     3
100
AcDbLine
 10
158.692857
 20
336.8
 30
0.0
 11
158.692857
 21
280.8
 31
0.0
  0
LINE
  5
2CE
100
AcDbEntity
  8
LAY-1
  6
CONTINUOUS
 62
     3
100
AcDbLine
 10
243.692857
 20
336.8
 30
0.0
 11
243.692857
 21
280.8
 31
0.0
  0
LINE
  5
2CF
100
AcDbEntity
  8
LAY-1
  6
CONTINUOUS
 62
     3
100
AcDbLine
 10
241.692857
 20
336.8
 30
0.0
 11
241.692857
 21
280.8
 31
0.0
  0
ARC
  5
2D0
100
AcDbEntity
  8
LAY-1
  6
CONTINUOUS
 62
     3
100
AcDbCircle
 10
196.959957
 20
332.55
 30
0.0
 40
0.5
100
AcDbArc
 50
270.0
 51
329.553958
  0
ARC
  5
2D1
100
AcDbEntity
  8
LAY-1
  6
CONTINUOUS
 62
     3
100
AcDbCircle
 10
200.192857
 20
330.649775
 30
0.0
 40
3.25
100
AcDbArc
 50
30.446042
 51
149.553958
  0
ARC
  5
2D2
100
AcDbEntity
  8
LAY-1
  6
CONTINUOUS
 62
     3
100
AcDbCircle
 10
203.425757
 20
332.55
 30
0.0
 40
0.5
100
AcDbArc
 50
210.446042
 51
270.0
  0
ARC
  5
2D3
100
AcDbEntity
  8
LAY-1
  6
CONTINUOUS
 62
     3
100
AcDbCircle
 10
203.425757
 20
285.05
 30
0.0
 40
0.5
100
AcDbArc
 50
90.0
 51
149.553958
  0
ARC
  5
2D4
100
AcDbEntity
  8
LAY-1
  6
CONTINUOUS
 62
     3
100
AcDbCircle
 10
200.192857
 20
286.950225
 30
0.0
 40
3.25
100
AcDbArc
 50
210.446042
 51
329.553958
  0
ARC
  5
2D5
100
AcDbEntity
  8
LAY-1
  6
CONTINUOUS
 62
     3
100
AcDbCircle
 10
196.959957
 20
285.05
 30
0.0
 40
0.5
100
AcDbArc
 50
30.446042
 51
90.0
  0
LINE
  5
2D6
100
AcDbEntity
  8
LAY-1
  6
CONTINUOUS
 62
     3
100
AcDbLine
 10
197.39101
 20
285.303363
 30
0.0
 11
197.39101
 21
332.296637
 31
0.0
  0
LINE
  5
2D7
100
AcDbEntity
  8
LAY-1
  6
CONTINUOUS
 62
     3
100
AcDbLine
 10
203.064065
 20
332.204778
 30
0.0
 11
203.064065
 21
285.303363
 31
0.0
  0
LINE
  5
2D8
100
AcDbEntity
  8
LAY-1
  6
CONTINUOUS
 62
     3
100
AcDbLine
 10
196.959957
 20
285.55
 30
0.0
 11
188.425757
 21
285.55
 31
0.0
  0
LINE
  5
2D9
100
AcDbEntity
  8
LAY-1
  6
CONTINUOUS
 62
     3
100
AcDbLine
 10
188.425757
 20
332.05
 30
0.0
 11
196.959957
 21
332.05
 31
0.0
  0
LINE
  5
2DA
100
AcDbEntity
  8
LAY-1
  6
CONTINUOUS
 62
     3
100
AcDbLine
 10
188.064065
 20
332.204778
 30
0.0
 11
188.064065
 21
285.303363
 31
0.0
  0
LINE
  5
2DB
100
AcDbEntity
  8
LAY-1
  6
CONTINUOUS
 62
     3
100
AcDbLine
 10
182.39101
 20
285.303363
 30
0.0
 11
182.39101
 21
332.296637
 31
0.0
  0
ARC
  5
2DC
100
AcDbEntity
  8
LAY-1
  6
CONTINUOUS
 62
     3
100
AcDbCircle
 10
181.959957
 20
285.05
 30
0.0
 40
0.5
100
AcDbArc
 50
30.446042
 51
90.0
  0
ARC
  5
2DD
100
AcDbEntity
  8
LAY-1
  6
CONTINUOUS
 62
     3
100
AcDbCircle
 10
185.192857
 20
286.950225
 30
0.0
 40
3.25
100
AcDbArc
 50
210.446042
 51
329.553958
  0
ARC
  5
2DE
100
AcDbEntity
  8
LAY-1
  6
CONTINUOUS
 62
     3
100
AcDbCircle
 10
188.425757
 20
285.05
 30
0.0
 40
0.5
100
AcDbArc
 50
90.0
 51
149.553958
  0
ARC
  5
2DF
100
AcDbEntity
  8
LAY-1
  6
CONTINUOUS
 62
     3
100
AcDbCircle
 10
188.425757
 20
332.55
 30
0.0
 40
0.5
100
AcDbArc
 50
210.446042
 51
270.0
  0
ARC
  5
2E0
100
AcDbEntity
  8
LAY-1
  6
CONTINUOUS
 62
     3
100
AcDbCircle
 10
185.192857
 20
330.649775
 30
0.0
 40
3.25
100
AcDbArc
 50
30.446042
 51
149.553958
  0
ARC
  5
2E1
100
AcDbEntity
  8
LAY-1
  6
CONTINUOUS
 62
     3
100
AcDbCircle
 10
181.959957
 20
332.55
 30
0.0
 40
0.5
100
AcDbArc
 50
270.0
 51
329.553958
  0
LINE
  5
2E2
100
AcDbEntity
  8
LAY-1
  6
CONTINUOUS
 62
     3
100
AcDbLine
 10
181.959957
 20
285.55
 30
0.0
 11
173.425757
 21
285.55
 31
0.0
  0
LINE
  5
2E3
100
AcDbEntity
  8
LAY-1
  6
CONTINUOUS
 62
     3
100
AcDbLine
 10
173.425757
 20
332.05
 30
0.0
 11
181.959957
 21
332.05
 31
0.0
  0
LINE
  5
2E4
100
AcDbEntity
  8
LAY-1
  6
CONTINUOUS
 62
     3
100
AcDbLine
 10
173.064065
 20
332.204778
 30
0.0
 11
173.064065
 21
285.303363
 31
0.0
  0
LINE
  5
2E5
100
AcDbEntity
  8
LAY-1
  6
CONTINUOUS
 62
     3
100
AcDbLine
 10
167.39101
 20
285.303363
 30
0.0
 11
167.39101
 21
332.296637
 31
0.0
  0
ARC
  5
2E6
100
AcDbEntity
  8
LAY-1
  6
CONTINUOUS
 62
     3
100
AcDbCircle
 10
166.959957
 20
285.05
 30
0.0
 40
0.5
100
AcDbArc
 50
30.446042
 51
90.0
  0
ARC
  5
2E7
100
AcDbEntity
  8
LAY-1
  6
CONTINUOUS
 62
     3
100
AcDbCircle
 10
170.192857
 20
286.950225
 30
0.0
 40
3.25
100
AcDbArc
 50
210.446042
 51
329.553958
  0
LINE
  5
2E8
100
AcDbEntity
  8
LAY-1
  6
CONTINUOUS
 62
     3
100
AcDbLine
 10
166.959957
 20
285.55
 30
0.0
 11
158.692857
 21
285.55
 31
0.0
  0
ARC
  5
2E9
100
AcDbEntity
  8
LAY-1
  6
CONTINUOUS
 62
     3
100
AcDbCircle
 10
173.425757
 20
285.05
 30
0.0
 40
0.5
100
AcDbArc
 50
90.0
 51
149.553958
  0
ARC
  5
2EA
100
AcDbEntity
  8
LAY-1
  6
CONTINUOUS
 62
     3
100
AcDbCircle
 10
173.425757
 20
332.55
 30
0.0
 40
0.5
100
AcDbArc
 50
210.446042
 51
270.0
  0
ARC
  5
2EB
100
AcDbEntity
  8
LAY-1
  6
CONTINUOUS
 62
     3
100
AcDbCircle
 10
170.192857
 20
330.649775
 30
0.0
 40
3.25
100
AcDbArc
 50
30.446042
 51
149.553958
  0
ARC
  5
2EC
100
AcDbEntity
  8
LAY-1
  6
CONTINUOUS
 62
     3
100
AcDbCircle
 10
166.959957
 20
332.55
 30
0.0
 40
0.5
100
AcDbArc
 50
270.0
 51
329.553958
  0
LINE
  5
2ED
100
AcDbEntity
  8
LAY-1
  6
CONTINUOUS
 62
     3
100
AcDbLine
 10
158.692857
 20
332.05
 30
0.0
 11
166.959957
 21
332.05
 31
0.0
  0
LINE
  5
2EE
100
AcDbEntity
  8
LAY-1
  6
CONTINUOUS
 62
     3
100
AcDbLine
 10
241.692857
 20
332.05
 30
0.0
 11
233.425757
 21
332.05
 31
0.0
  0
ARC
  5
2EF
100
AcDbEntity
  8
LAY-1
  6
CONTINUOUS
 62
     3
100
AcDbCircle
 10
233.425757
 20
332.55
 30
0.0
 40
0.5
100
AcDbArc
 50
210.446042
 51
270.0
  0
ARC
  5
2F0
100
AcDbEntity
  8
LAY-1
  6
CONTINUOUS
 62
     3
100
AcDbCircle
 10
230.192857
 20
330.649775
 30
0.0
 40
3.25
100
AcDbArc
 50
30.446042
 51
149.553958
  0
ARC
  5
2F1
100
AcDbEntity
  8
LAY-1
  6
CONTINUOUS
 62
     3
100
AcDbCircle
 10
226.959957
 20
332.55
 30
0.0
 40
0.5
100
AcDbArc
 50
270.0
 51
329.553958
  0
LINE
  5
2F2
100
AcDbEntity
  8
LAY-1
  6
CONTINUOUS
 62
     3
100
AcDbLine
 10
233.425757
 20
285.55
 30
0.0
 11
241.692857
 21
285.55
 31
0.0
  0
ARC
  5
2F3
100
AcDbEntity
  8
LAY-1
  6
CONTINUOUS
 62
     3
100
AcDbCircle
 10
226.959957
 20
285.05
 30
0.0
 40
0.5
100
AcDbArc
 50
30.446042
 51
90.0
  0
ARC
  5
2F4
100
AcDbEntity
  8
LAY-1
  6
CONTINUOUS
 62
     3
100
AcDbCircle
 10
230.192857
 20
286.950225
 30
0.0
 40
3.25
100
AcDbArc
 50
210.446042
 51
329.553958
  0
ARC
  5
2F5
100
AcDbEntity
  8
LAY-1
  6
CONTINUOUS
 62
     3
100
AcDbCircle
 10
233.425757
 20
285.05
 30
0.0
 40
0.5
100
AcDbArc
 50
90.0
 51
149.553958
  0
LINE
  5
2F6
100
AcDbEntity
  8
LAY-1
  6
CONTINUOUS
 62
     3
100
AcDbLine
 10
232.994704
 20
285.303363
 30
0.0
 11
232.994704
 21
332.296637
 31
0.0
  0
LINE
  5
2F7
100
AcDbEntity
  8
LAY-1
  6
CONTINUOUS
 62
     3
100
AcDbLine
 10
227.321649
 20
332.204778
 30
0.0
 11
227.321649
 21
285.303363
 31
0.0
  0
ARC
  5
2F8
100
AcDbEntity
  8
LAY-1
  6
CONTINUOUS
 62
     3
100
AcDbCircle
 10
211.959957
 20
332.55
 30
0.0
 40
0.5
100
AcDbArc
 50
270.0
 51
329.553958
  0
ARC
  5
2F9
100
AcDbEntity
  8
LAY-1
  6
CONTINUOUS
 62
     3
100
AcDbCircle
 10
215.192857
 20
330.649775
 30
0.0
 40
3.25
100
AcDbArc
 50
30.446042
 51
149.553958
  0
ARC
  5
2FA
100
AcDbEntity
  8
LAY-1
  6
CONTINUOUS
 62
     3
100
AcDbCircle
 10
218.425757
 20
332.55
 30
0.0
 40
0.5
100
AcDbArc
 50
210.446042
 51
270.0
  0
ARC
  5
2FB
100
AcDbEntity
  8
LAY-1
  6
CONTINUOUS
 62
     3
100
AcDbCircle
 10
218.425757
 20
285.05
 30
0.0
 40
0.5
100
AcDbArc
 50
90.0
 51
149.553958
  0
ARC
  5
2FC
100
AcDbEntity
  8
LAY-1
  6
CONTINUOUS
 62
     3
100
AcDbCircle
 10
215.192857
 20
286.950225
 30
0.0
 40
3.25
100
AcDbArc
 50
210.446042
 51
329.553958
  0
ARC
  5
2FD
100
AcDbEntity
  8
LAY-1
  6
CONTINUOUS
 62
     3
100
AcDbCircle
 10
211.959957
 20
285.05
 30
0.0
 40
0.5
100
AcDbArc
 50
30.446042
 51
90.0
  0
LINE
  5
2FE
100
AcDbEntity
  8
LAY-1
  6
CONTINUOUS
 62
     3
100
AcDbLine
 10
212.39101
 20
285.303363
 30
0.0
 11
212.39101
 21
332.296637
 31
0.0
  0
LINE
  5
2FF
100
AcDbEntity
  8
LAY-1
  6
CONTINUOUS
 62
     3
100
AcDbLine
 10
218.064065
 20
332.204778
 30
0.0
 11
218.064065
 21
285.303363
 31
0.0
  0
LINE
  5
300
100
AcDbEntity
  8
LAY-1
  6
CONTINUOUS
 62
     3
100
AcDbLine
 10
203.425757
 20
332.05
 30
0.0
 11
211.959957
 21
332.05
 31
0.0
  0
LINE
  5
301
100
AcDbEntity
  8
LAY-1
  6
CONTINUOUS
 62
     3
100
AcDbLine
 10
218.425757
 20
332.05
 30
0.0
 11
226.959957
 21
332.05
 31
0.0
  0
LINE
  5
302
100
AcDbEntity
  8
LAY-1
  6
CONTINUOUS
 62
     3
100
AcDbLine
 10
226.959957
 20
285.55
 30
0.0
 11
218.425757
 21
285.55
 31
0.0
  0
LINE
  5
303
100
AcDbEntity
  8
LAY-1
  6
CONTINUOUS
 62
     3
100
AcDbLine
 10
211.959957
 20
285.55
 30
0.0
 11
203.425757
 21
285.55
 31
0.0
  0
LINE
  5
304
100
AcDbEntity
  8
LAY-1
  6
EXLTYPE3
 62
     1
100
AcDbLine
 10
149.292857
 20
308.8
 30
0.0
 11
250.992857
 21
308.8
 31
0.0
  0
LINE
  5
305
100
AcDbEntity
  8
LAY-1
  6
CONTINUOUS
 62
     3
100
AcDbLine
 10
267.442857
 20
339.8
 30
0.0
 11
269.642857
 21
339.8
 31
0.0
  0
LINE
  5
306
100
AcDbEntity
  8
LAY-1
  6
CONTINUOUS
 62
     3
100
AcDbLine
 10
267.442857
 20
277.8
 30
0.0
 11
269.642857
 21
277.8
 31
0.0
  0
LINE
  5
307
100
AcDbEntity
  8
LAY-1
  6
CONTINUOUS
 62
     3
100
AcDbLine
 10
354.442857
 20
339.8
 30
0.0
 11
352.242857
 21
339.8
 31
0.0
  0
LINE
  5
308
100
AcDbEntity
  8
LAY-1
  6
CONTINUOUS
 62
     3
100
AcDbLine
 10
354.442857
 20
277.8
 30
0.0
 11
352.242857
 21
277.8
 31
0.0
  0
LINE
  5
309
100
AcDbEntity
  8
LAY-1
  6
CONTINUOUS
 62
     3
100
AcDbLine
 10
265.942857
 20
335.55
 30
0.0
 11
267.442857
 21
335.55
 31
0.0
  0
LINE
  5
30A
100
AcDbEntity
  8
LAY-1
  6
CONTINUOUS
 62
     3
100
AcDbLine
 10
355.942857
 20
335.55
 30
0.0
 11
354.442857
 21
335.55
 31
0.0
  0
LINE
  5
30B
100
AcDbEntity
  8
LAY-1
  6
CONTINUOUS
 62
     3
100
AcDbLine
 10
265.942857
 20
282.05
 30
0.0
 11
267.442857
 21
282.05
 31
0.0
  0
LINE
  5
30C
100
AcDbEntity
  8
LAY-1
  6
CONTINUOUS
 62
     3
100
AcDbLine
 10
355.942857
 20
282.05
 30
0.0
 11
354.442857
 21
282.05
 31
0.0
  0
LINE
  5
30D
100
AcDbEntity
  8
LAY-1
  6
CONTINUOUS
 62
     3
100
AcDbLine
 10
265.942857
 20
335.55
 30
0.0
 11
265.942857
 21
282.05
 31
0.0
  0
LINE
  5
30E
100
AcDbEntity
  8
LAY-1
  6
CONTINUOUS
 62
     3
100
AcDbLine
 10
355.942857
 20
335.55
 30
0.0
 11
355.942857
 21
282.05
 31
0.0
  0
LINE
  5
30F
100
AcDbEntity
  8
LAY-1
  6
CONTINUOUS
 62
     3
100
AcDbLine
 10
267.442857
 20
339.8
 30
0.0
 11
267.442857
 21
277.8
 31
0.0
  0
LINE
  5
310
100
AcDbEntity
  8
LAY-1
  6
CONTINUOUS
 62
     3
100
AcDbLine
 10
354.442857
 20
339.8
 30
0.0
 11
354.442857
 21
277.8
 31
0.0
  0
LINE
  5
311
100
AcDbEntity
  8
LAY-1
  6
CONTINUOUS
 62
     3
100
AcDbLine
 10
269.642857
 20
339.8
 30
0.0
 11
269.642857
 21
277.8
 31
0.0
  0
LINE
  5
312
100
AcDbEntity
  8
LAY-1
  6
CONTINUOUS
 62
     3
100
AcDbLine
 10
352.242857
 20
339.8
 30
0.0
 11
352.242857
 21
277.8
 31
0.0
  0
ARC
  5
313
100
AcDbEntity
  8
LAY-1
  6
CONTINUOUS
 62
     3
100
AcDbCircle
 10
307.709957
 20
335.05
 30
0.0
 40
0.5
100
AcDbArc
 50
270.0
 51
329.553958
  0
ARC
  5
314
100
AcDbEntity
  8
LAY-1
  6
CONTINUOUS
 62
     3
100
AcDbCircle
 10
310.942857
 20
333.149775
 30
0.0
 40
3.25
100
AcDbArc
 50
30.446042
 51
149.553958
  0
ARC
  5
315
100
AcDbEntity
  8
LAY-1
  6
CONTINUOUS
 62
     3
100
AcDbCircle
 10
314.175757
 20
335.05
 30
0.0
 40
0.5
100
AcDbArc
 50
210.446042
 51
270.0
  0
ARC
  5
316
100
AcDbEntity
  8
LAY-1
  6
CONTINUOUS
 62
     3
100
AcDbCircle
 10
314.175757
 20
282.55
 30
0.0
 40
0.5
100
AcDbArc
 50
90.0
 51
149.553958
  0
ARC
  5
317
100
AcDbEntity
  8
LAY-1
  6
CONTINUOUS
 62
     3
100
AcDbCircle
 10
310.942857
 20
284.450225
 30
0.0
 40
3.25
100
AcDbArc
 50
210.446042
 51
329.553958
  0
ARC
  5
318
100
AcDbEntity
  8
LAY-1
  6
CONTINUOUS
 62
     3
100
AcDbCircle
 10
307.709957
 20
282.55
 30
0.0
 40
0.5
100
AcDbArc
 50
30.446042
 51
90.0
  0
LINE
  5
319
100
AcDbEntity
  8
LAY-1
  6
CONTINUOUS
 62
     3
100
AcDbLine
 10
308.14101
 20
282.803363
 30
0.0
 11
308.14101
 21
334.796637
 31
0.0
  0
LINE
  5
31A
100
AcDbEntity
  8
LAY-1
  6
CONTINUOUS
 62
     3
100
AcDbLine
 10
313.814065
 20
334.704778
 30
0.0
 11
313.814065
 21
282.803363
 31
0.0
  0
ARC
  5
31B
100
AcDbEntity
  8
LAY-1
  6
CONTINUOUS
 62
     3
100
AcDbCircle
 10
292.709957
 20
335.05
 30
0.0
 40
0.5
100
AcDbArc
 50
270.0
 51
329.553958
  0
ARC
  5
31C
100
AcDbEntity
  8
LAY-1
  6
CONTINUOUS
 62
     3
100
AcDbCircle
 10
295.942857
 20
333.149775
 30
0.0
 40
3.25
100
AcDbArc
 50
30.446042
 51
149.553958
  0
ARC
  5
31D
100
AcDbEntity
  8
LAY-1
  6
CONTINUOUS
 62
     3
100
AcDbCircle
 10
299.175757
 20
335.05
 30
0.0
 40
0.5
100
AcDbArc
 50
210.446042
 51
270.0
  0
ARC
  5
31E
100
AcDbEntity
  8
LAY-1
  6
CONTINUOUS
 62
     3
100
AcDbCircle
 10
299.175757
 20
282.55
 30
0.0
 40
0.5
100
AcDbArc
 50
90.0
 51
149.553958
  0
ARC
  5
31F
100
AcDbEntity
  8
LAY-1
  6
CONTINUOUS
 62
     3
100
AcDbCircle
 10
295.942857
 20
284.450225
 30
0.0
 40
3.25
100
AcDbArc
 50
210.446042
 51
329.553958
  0
ARC
  5
320
100
AcDbEntity
  8
LAY-1
  6
CONTINUOUS
 62
     3
100
AcDbCircle
 10
292.709957
 20
282.55
 30
0.0
 40
0.5
100
AcDbArc
 50
30.446042
 51
90.0
  0
LINE
  5
321
100
AcDbEntity
  8
LAY-1
  6
CONTINUOUS
 62
     3
100
AcDbLine
 10
293.14101
 20
282.803363
 30
0.0
 11
293.14101
 21
334.796637
 31
0.0
  0
LINE
  5
322
100
AcDbEntity
  8
LAY-1
  6
CONTINUOUS
 62
     3
100
AcDbLine
 10
298.814065
 20
334.704778
 30
0.0
 11
298.814065
 21
282.803363
 31
0.0
  0
LINE
  5
323
100
AcDbEntity
  8
LAY-1
  6
CONTINUOUS
 62
     3
100
AcDbLine
 10
299.175757
 20
334.55
 30
0.0
 11
307.709957
 21
334.55
 31
0.0
  0
LINE
  5
324
100
AcDbEntity
  8
LAY-1
  6
CONTINUOUS
 62
     3
100
AcDbLine
 10
307.709957
 20
283.05
 30
0.0
 11
299.175757
 21
283.05
 31
0.0
  0
LINE
  5
325
100
AcDbEntity
  8
LAY-1
  6
CONTINUOUS
 62
     3
100
AcDbLine
 10
269.642857
 20
334.55
 30
0.0
 11
278.14101
 21
334.55
 31
0.0
  0
ARC
  5
326
100
AcDbEntity
  8
LAY-1
  6
CONTINUOUS
 62
     3
100
AcDbCircle
 10
277.709957
 20
335.05
 30
0.0
 40
0.5
100
AcDbArc
 50
270.0
 51
329.553958
  0
ARC
  5
327
100
AcDbEntity
  8
LAY-1
  6
CONTINUOUS
 62
     3
100
AcDbCircle
 10
280.942857
 20
333.149775
 30
0.0
 40
3.25
100
AcDbArc
 50
30.446042
 51
149.553958
  0
ARC
  5
328
100
AcDbEntity
  8
LAY-1
  6
CONTINUOUS
 62
     3
100
AcDbCircle
 10
284.175757
 20
335.05
 30
0.0
 40
0.5
100
AcDbArc
 50
210.446042
 51
270.0
  0
ARC
  5
329
100
AcDbEntity
  8
LAY-1
  6
CONTINUOUS
 62
     3
100
AcDbCircle
 10
284.175757
 20
282.55
 30
0.0
 40
0.5
100
AcDbArc
 50
90.0
 51
149.553958
  0
LINE
  5
32A
100
AcDbEntity
  8
LAY-1
  6
CONTINUOUS
 62
     3
100
AcDbLine
 10
278.14101
 20
283.05
 30
0.0
 11
269.642857
 21
283.05
 31
0.0
  0
ARC
  5
32B
100
AcDbEntity
  8
LAY-1
  6
CONTINUOUS
 62
     3
100
AcDbCircle
 10
280.942857
 20
284.450225
 30
0.0
 40
3.25
100
AcDbArc
 50
210.446042
 51
329.553958
  0
ARC
  5
32C
100
AcDbEntity
  8
LAY-1
  6
CONTINUOUS
 62
     3
100
AcDbCircle
 10
277.709957
 20
282.55
 30
0.0
 40
0.5
100
AcDbArc
 50
30.446042
 51
90.0
  0
LINE
  5
32D
100
AcDbEntity
  8
LAY-1
  6
CONTINUOUS
 62
     3
100
AcDbLine
 10
278.14101
 20
282.803363
 30
0.0
 11
278.14101
 21
334.796637
 31
0.0
  0
LINE
  5
32E
100
AcDbEntity
  8
LAY-1
  6
CONTINUOUS
 62
     3
100
AcDbLine
 10
283.814065
 20
334.704778
 30
0.0
 11
283.814065
 21
282.803363
 31
0.0
  0
LINE
  5
32F
100
AcDbEntity
  8
LAY-1
  6
CONTINUOUS
 62
     3
100
AcDbLine
 10
284.175757
 20
334.55
 30
0.0
 11
292.709957
 21
334.55
 31
0.0
  0
LINE
  5
330
100
AcDbEntity
  8
LAY-1
  6
CONTINUOUS
 62
     3
100
AcDbLine
 10
292.709957
 20
283.05
 30
0.0
 11
284.175757
 21
283.05
 31
0.0
  0
ARC
  5
331
100
AcDbEntity
  8
LAY-1
  6
CONTINUOUS
 62
     3
100
AcDbCircle
 10
322.709957
 20
335.05
 30
0.0
 40
0.5
100
AcDbArc
 50
270.0
 51
329.553958
  0
ARC
  5
332
100
AcDbEntity
  8
LAY-1
  6
CONTINUOUS
 62
     3
100
AcDbCircle
 10
325.942857
 20
333.149775
 30
0.0
 40
3.25
100
AcDbArc
 50
30.446042
 51
149.553958
  0
ARC
  5
333
100
AcDbEntity
  8
LAY-1
  6
CONTINUOUS
 62
     3
100
AcDbCircle
 10
329.175757
 20
335.05
 30
0.0
 40
0.5
100
AcDbArc
 50
210.446042
 51
270.0
  0
ARC
  5
334
100
AcDbEntity
  8
LAY-1
  6
CONTINUOUS
 62
     3
100
AcDbCircle
 10
329.175757
 20
282.55
 30
0.0
 40
0.5
100
AcDbArc
 50
90.0
 51
149.553958
  0
ARC
  5
335
100
AcDbEntity
  8
LAY-1
  6
CONTINUOUS
 62
     3
100
AcDbCircle
 10
325.942857
 20
284.450225
 30
0.0
 40
3.25
100
AcDbArc
 50
210.446042
 51
329.553958
  0
ARC
  5
336
100
AcDbEntity
  8
LAY-1
  6
CONTINUOUS
 62
     3
100
AcDbCircle
 10
322.709957
 20
282.55
 30
0.0
 40
0.5
100
AcDbArc
 50
30.446042
 51
90.0
  0
LINE
  5
337
100
AcDbEntity
  8
LAY-1
  6
CONTINUOUS
 62
     3
100
AcDbLine
 10
323.14101
 20
282.803363
 30
0.0
 11
323.14101
 21
334.796637
 31
0.0
  0
LINE
  5
338
100
AcDbEntity
  8
LAY-1
  6
CONTINUOUS
 62
     3
100
AcDbLine
 10
328.814065
 20
334.704778
 30
0.0
 11
328.814065
 21
282.803363
 31
0.0
  0
LINE
  5
339
100
AcDbEntity
  8
LAY-1
  6
CONTINUOUS
 62
     3
100
AcDbLine
 10
314.175757
 20
334.55
 30
0.0
 11
322.709957
 21
334.55
 31
0.0
  0
LINE
  5
33A
100
AcDbEntity
  8
LAY-1
  6
CONTINUOUS
 62
     3
100
AcDbLine
 10
322.709957
 20
283.05
 30
0.0
 11
314.175757
 21
283.05
 31
0.0
  0
ARC
  5
33B
100
AcDbEntity
  8
LAY-1
  6
CONTINUOUS
 62
     3
100
AcDbCircle
 10
344.175757
 20
335.05
 30
0.0
 40
0.5
100
AcDbArc
 50
210.446042
 51
270.0
  0
ARC
  5
33C
100
AcDbEntity
  8
LAY-1
  6
CONTINUOUS
 62
     3
100
AcDbCircle
 10
340.942857
 20
333.149775
 30
0.0
 40
3.25
100
AcDbArc
 50
30.446042
 51
149.553958
  0
ARC
  5
33D
100
AcDbEntity
  8
LAY-1
  6
CONTINUOUS
 62
     3
100
AcDbCircle
 10
337.709957
 20
335.05
 30
0.0
 40
0.5
100
AcDbArc
 50
270.0
 51
329.553958
  0
LINE
  5
33E
100
AcDbEntity
  8
LAY-1
  6
CONTINUOUS
 62
     3
100
AcDbLine
 10
352.242857
 20
334.55
 30
0.0
 11
343.744704
 21
334.55
 31
0.0
  0
ARC
  5
33F
100
AcDbEntity
  8
LAY-1
  6
CONTINUOUS
 62
     3
100
AcDbCircle
 10
337.709957
 20
282.55
 30
0.0
 40
0.5
100
AcDbArc
 50
30.446042
 51
90.0
  0
ARC
  5
340
100
AcDbEntity
  8
LAY-1
  6
CONTINUOUS
 62
     3
100
AcDbCircle
 10
340.942857
 20
284.450225
 30
0.0
 40
3.25
100
AcDbArc
 50
210.446042
 51
329.553958
  0
ARC
  5
341
100
AcDbEntity
  8
LAY-1
  6
CONTINUOUS
 62
     3
100
AcDbCircle
 10
344.175757
 20
282.55
 30
0.0
 40
0.5
100
AcDbArc
 50
90.0
 51
149.553958
  0
LINE
  5
342
100
AcDbEntity
  8
LAY-1
  6
CONTINUOUS
 62
     3
100
AcDbLine
 10
343.744704
 20
283.05
 30
0.0
 11
352.242857
 21
283.05
 31
0.0
  0
LINE
  5
343
100
AcDbEntity
  8
LAY-1
  6
CONTINUOUS
 62
     3
100
AcDbLine
 10
343.744704
 20
282.803363
 30
0.0
 11
343.744704
 21
334.796637
 31
0.0
  0
LINE
  5
344
100
AcDbEntity
  8
LAY-1
  6
CONTINUOUS
 62
     3
100
AcDbLine
 10
338.071649
 20
334.704778
 30
0.0
 11
338.071649
 21
282.803363
 31
0.0
  0
LINE
  5
345
100
AcDbEntity
  8
LAY-1
  6
CONTINUOUS
 62
     3
100
AcDbLine
 10
329.175757
 20
334.55
 30
0.0
 11
337.709957
 21
334.55
 31
0.0
  0
LINE
  5
346
100
AcDbEntity
  8
LAY-1
  6
CONTINUOUS
 62
     3
100
AcDbLine
 10
337.709957
 20
283.05
 30
0.0
 11
329.175757
 21
283.05
 31
0.0
  0
LINE
  5
347
100
AcDbEntity
  8
LAY-1
  6
EXLTYPE3
 62
     1
100
AcDbLine
 10
260.0
 20
308.8
 30
0.0
 11
364.8
 21
308.8
 31
0.0
  0
ARC
  5
348
100
AcDbEntity
  8
LAY-1
  6
CONTINUOUS
 62
     3
100
AcDbCircle
 10
595.809957
 20
341.8
 30
0.0
 40
0.5
100
AcDbArc
 50
270.0
 51
329.553958
  0
ARC
  5
349
100
AcDbEntity
  8
LAY-1
  6
CONTINUOUS
 62
     3
100
AcDbCircle
 10
599.042857
 20
339.899775
 30
0.0
 40
3.25
100
AcDbArc
 50
30.446042
 51
149.553958
  0
ARC
  5
34A
100
AcDbEntity
  8
LAY-1
  6
CONTINUOUS
 62
     3
100
AcDbCircle
 10
602.275757
 20
341.8
 30
0.0
 40
0.5
100
AcDbArc
 50
210.446042
 51
270.0
  0
ARC
  5
34B
100
AcDbEntity
  8
LAY-1
  6
CONTINUOUS
 62
     3
100
AcDbCircle
 10
602.275757
 20
275.8
 30
0.0
 40
0.5
100
AcDbArc
 50
90.0
 51
149.553958
  0
ARC
  5
34C
100
AcDbEntity
  8
LAY-1
  6
CONTINUOUS
 62
     3
100
AcDbCircle
 10
599.042857
 20
277.700225
 30
0.0
 40
3.25
100
AcDbArc
 50
210.446042
 51
329.553958
  0
ARC
  5
34D
100
AcDbEntity
  8
LAY-1
  6
CONTINUOUS
 62
     3
100
AcDbCircle
 10
595.809957
 20
275.8
 30
0.0
 40
0.5
100
AcDbArc
 50
30.446042
 51
90.0
  0
LINE
  5
34E
100
AcDbEntity
  8
LAY-1
  6
CONTINUOUS
 62
     3
100
AcDbLine
 10
596.110175
 20
276.199836
 30
0.0
 11
596.110175
 21
341.400164
 31
0.0
  0
LINE
  5
34F
100
AcDbEntity
  8
LAY-1
  6
CONTINUOUS
 62
     3
100
AcDbLine
 10
601.844704
 20
341.546637
 30
0.0
 11
601.844704
 21
276.053363
 31
0.0
  0
ARC
  5
350
100
AcDbEntity
  8
LAY-1
  6
CONTINUOUS
 62
     3
100
AcDbCircle
 10
567.809957
 20
341.8
 30
0.0
 40
0.5
100
AcDbArc
 50
270.0
 51
329.553958
  0
ARC
  5
351
100
AcDbEntity
  8
LAY-1
  6
CONTINUOUS
 62
     3
100
AcDbCircle
 10
571.042857
 20
339.899775
 30
0.0
 40
3.25
100
AcDbArc
 50
30.446042
 51
149.553958
  0
ARC
  5
352
100
AcDbEntity
  8
LAY-1
  6
CONTINUOUS
 62
     3
100
AcDbCircle
 10
574.275757
 20
341.8
 30
0.0
 40
0.5
100
AcDbArc
 50
210.446042
 51
270.0
  0
ARC
  5
353
100
AcDbEntity
  8
LAY-1
  6
CONTINUOUS
 62
     3
100
AcDbCircle
 10
574.275757
 20
275.8
 30
0.0
 40
0.5
100
AcDbArc
 50
90.0
 51
149.553958
  0
ARC
  5
354
100
AcDbEntity
  8
LAY-1
  6
CONTINUOUS
 62
     3
100
AcDbCircle
 10
571.042857
 20
277.700225
 30
0.0
 40
3.25
100
AcDbArc
 50
210.446042
 51
329.553958
  0
ARC
  5
355
100
AcDbEntity
  8
LAY-1
  6
CONTINUOUS
 62
     3
100
AcDbCircle
 10
567.809957
 20
275.8
 30
0.0
 40
0.5
100
AcDbArc
 50
30.446042
 51
90.0
  0
LINE
  5
356
100
AcDbEntity
  8
LAY-1
  6
CONTINUOUS
 62
     3
100
AcDbLine
 10
568.24101
 20
276.053363
 30
0.0
 11
568.24101
 21
341.546637
 31
0.0
  0
LINE
  5
357
100
AcDbEntity
  8
LAY-1
  6
CONTINUOUS
 62
     3
100
AcDbLine
 10
573.844704
 20
341.546637
 30
0.0
 11
573.844704
 21
276.053363
 31
0.0
  0
ARC
  5
358
100
AcDbEntity
  8
LAY-1
  6
CONTINUOUS
 62
     3
100
AcDbCircle
 10
553.809957
 20
341.8
 30
0.0
 40
0.5
100
AcDbArc
 50
270.0
 51
329.553958
  0
ARC
  5
359
100
AcDbEntity
  8
LAY-1
  6
CONTINUOUS
 62
     3
100
AcDbCircle
 10
557.042857
 20
339.899775
 30
0.0
 40
3.25
100
AcDbArc
 50
30.446042
 51
149.553958
  0
ARC
  5
35A
100
AcDbEntity
  8
LAY-1
  6
CONTINUOUS
 62
     3
100
AcDbCircle
 10
560.275757
 20
341.8
 30
0.0
 40
0.5
100
AcDbArc
 50
210.446042
 51
270.0
  0
LINE
  5
35B
100
AcDbEntity
  8
LAY-1
  6
CONTINUOUS
 62
     3
100
AcDbLine
 10
546.442857
 20
341.3
 30
0.0
 11
553.809957
 21
341.3
 31
0.0
  0
ARC
  5
35C
100
AcDbEntity
  8
LAY-1
  6
CONTINUOUS
 62
     3
100
AcDbCircle
 10
560.275757
 20
275.8
 30
0.0
 40
0.5
100
AcDbArc
 50
90.0
 51
149.553958
  0
ARC
  5
35D
100
AcDbEntity
  8
LAY-1
  6
CONTINUOUS
 62
     3
100
AcDbCircle
 10
557.042857
 20
277.700225
 30
0.0
 40
3.25
100
AcDbArc
 50
210.446042
 51
329.553958
  0
ARC
  5
35E
100
AcDbEntity
  8
LAY-1
  6
CONTINUOUS
 62
     3
100
AcDbCircle
 10
553.809957
 20
275.8
 30
0.0
 40
0.5
100
AcDbArc
 50
30.446042
 51
90.0
  0
LINE
  5
35F
100
AcDbEntity
  8
LAY-1
  6
CONTINUOUS
 62
     3
100
AcDbLine
 10
553.809957
 20
276.3
 30
0.0
 11
546.442857
 21
276.3
 31
0.0
  0
LINE
  5
360
100
AcDbEntity
  8
LAY-1
  6
CONTINUOUS
 62
     3
100
AcDbLine
 10
554.24101
 20
276.053363
 30
0.0
 11
554.24101
 21
341.546637
 31
0.0
  0
LINE
  5
361
100
AcDbEntity
  8
LAY-1
  6
CONTINUOUS
 62
     3
100
AcDbLine
 10
559.914065
 20
341.454778
 30
0.0
 11
559.914065
 21
276.145222
 31
0.0
  0
LINE
  5
362
100
AcDbEntity
  8
LAY-1
  6
CONTINUOUS
 62
     3
100
AcDbLine
 10
567.809957
 20
276.3
 30
0.0
 11
560.275757
 21
276.3
 31
0.0
  0
LINE
  5
363
100
AcDbEntity
  8
LAY-1
  6
CONTINUOUS
 62
     3
100
AcDbLine
 10
560.275757
 20
341.3
 30
0.0
 11
567.809957
 21
341.3
 31
0.0
  0
ARC
  5
364
100
AcDbEntity
  8
LAY-1
  6
CONTINUOUS
 62
     3
100
AcDbCircle
 10
581.809957
 20
341.8
 30
0.0
 40
0.5
100
AcDbArc
 50
270.0
 51
329.553958
  0
ARC
  5
365
100
AcDbEntity
  8
LAY-1
  6
CONTINUOUS
 62
     3
100
AcDbCircle
 10
585.042857
 20
339.899775
 30
0.0
 40
3.25
100
AcDbArc
 50
30.446042
 51
149.553958
  0
ARC
  5
366
100
AcDbEntity
  8
LAY-1
  6
CONTINUOUS
 62
     3
100
AcDbCircle
 10
588.275757
 20
341.8
 30
0.0
 40
0.5
100
AcDbArc
 50
210.446042
 51
270.0
  0
LINE
  5
367
100
AcDbEntity
  8
LAY-1
  6
CONTINUOUS
 62
     3
100
AcDbLine
 10
588.275757
 20
341.3
 30
0.0
 11
595.809957
 21
341.3
 31
0.0
  0
LINE
  5
368
100
AcDbEntity
  8
LAY-1
  6
CONTINUOUS
 62
     3
100
AcDbLine
 10
595.809957
 20
276.3
 30
0.0
 11
588.275757
 21
276.3
 31
0.0
  0
ARC
  5
369
100
AcDbEntity
  8
LAY-1
  6
CONTINUOUS
 62
     3
100
AcDbCircle
 10
588.275757
 20
275.8
 30
0.0
 40
0.5
100
AcDbArc
 50
90.0
 51
149.553958
  0
ARC
  5
36A
100
AcDbEntity
  8
LAY-1
  6
CONTINUOUS
 62
     3
100
AcDbCircle
 10
585.042857
 20
277.700225
 30
0.0
 40
3.25
100
AcDbArc
 50
210.446042
 51
329.553958
  0
ARC
  5
36B
100
AcDbEntity
  8
LAY-1
  6
CONTINUOUS
 62
     3
100
AcDbCircle
 10
581.809957
 20
275.8
 30
0.0
 40
0.5
100
AcDbArc
 50
30.446042
 51
90.0
  0
LINE
  5
36C
100
AcDbEntity
  8
LAY-1
  6
CONTINUOUS
 62
     3
100
AcDbLine
 10
582.24101
 20
276.053363
 30
0.0
 11
582.24101
 21
341.546637
 31
0.0
  0
LINE
  5
36D
100
AcDbEntity
  8
LAY-1
  6
CONTINUOUS
 62
     3
100
AcDbLine
 10
587.844704
 20
341.546637
 30
0.0
 11
587.844704
 21
276.053363
 31
0.0
  0
LINE
  5
36E
100
AcDbEntity
  8
LAY-1
  6
CONTINUOUS
 62
     3
100
AcDbLine
 10
574.275757
 20
341.3
 30
0.0
 11
581.809957
 21
341.3
 31
0.0
  0
LINE
  5
36F
100
AcDbEntity
  8
LAY-1
  6
CONTINUOUS
 62
     3
100
AcDbLine
 10
581.809957
 20
276.3
 30
0.0
 11
574.275757
 21
276.3
 31
0.0
  0
LINE
  5
370
100
AcDbEntity
  8
LAY-1
  6
CONTINUOUS
 62
     3
100
AcDbLine
 10
610.171649
 20
341.454778
 30
0.0
 11
610.171649
 21
276.145222
 31
0.0
  0
LINE
  5
371
100
AcDbEntity
  8
LAY-1
  6
CONTINUOUS
 62
     3
100
AcDbLine
 10
615.844704
 20
276.053363
 30
0.0
 11
615.844704
 21
341.546637
 31
0.0
  0
ARC
  5
372
100
AcDbEntity
  8
LAY-1
  6
CONTINUOUS
 62
     3
100
AcDbCircle
 10
616.275757
 20
275.8
 30
0.0
 40
0.5
100
AcDbArc
 50
90.0
 51
149.553958
  0
ARC
  5
373
100
AcDbEntity
  8
LAY-1
  6
CONTINUOUS
 62
     3
100
AcDbCircle
 10
613.042857
 20
277.700225
 30
0.0
 40
3.25
100
AcDbArc
 50
210.446042
 51
329.553958
  0
ARC
  5
374
100
AcDbEntity
  8
LAY-1
  6
CONTINUOUS
 62
     3
100
AcDbCircle
 10
609.809957
 20
275.8
 30
0.0
 40
0.5
100
AcDbArc
 50
30.446042
 51
90.0
  0
ARC
  5
375
100
AcDbEntity
  8
LAY-1
  6
CONTINUOUS
 62
     3
100
AcDbCircle
 10
609.809957
 20
341.8
 30
0.0
 40
0.5
100
AcDbArc
 50
270.0
 51
329.553958
  0
ARC
  5
376
100
AcDbEntity
  8
LAY-1
  6
CONTINUOUS
 62
     3
100
AcDbCircle
 10
613.042857
 20
339.899775
 30
0.0
 40
3.25
100
AcDbArc
 50
30.446042
 51
149.553958
  0
ARC
  5
377
100
AcDbEntity
  8
LAY-1
  6
CONTINUOUS
 62
     3
100
AcDbCircle
 10
616.275757
 20
341.8
 30
0.0
 40
0.5
100
AcDbArc
 50
210.446042
 51
270.0
  0
LINE
  5
378
100
AcDbEntity
  8
LAY-1
  6
CONTINUOUS
 62
     3
100
AcDbLine
 10
602.275757
 20
341.3
 30
0.0
 11
609.809957
 21
341.3
 31
0.0
  0
LINE
  5
379
100
AcDbEntity
  8
LAY-1
  6
CONTINUOUS
 62
     3
100
AcDbLine
 10
609.809957
 20
276.3
 30
0.0
 11
602.275757
 21
276.3
 31
0.0
  0
LINE
  5
37A
100
AcDbEntity
  8
LAY-1
  6
CONTINUOUS
 62
     3
100
AcDbLine
 10
624.171649
 20
341.454778
 30
0.0
 11
624.171649
 21
276.145222
 31
0.0
  0
LINE
  5
37B
100
AcDbEntity
  8
LAY-1
  6
CONTINUOUS
 62
     3
100
AcDbLine
 10
629.844704
 20
276.053363
 30
0.0
 11
629.844704
 21
341.546637
 31
0.0
  0
LINE
  5
37C
100
AcDbEntity
  8
LAY-1
  6
CONTINUOUS
 62
     3
100
AcDbLine
 10
630.275757
 20
276.3
 30
0.0
 11
637.642857
 21
276.3
 31
0.0
  0
ARC
  5
37D
100
AcDbEntity
  8
LAY-1
  6
CONTINUOUS
 62
     3
100
AcDbCircle
 10
630.275757
 20
275.8
 30
0.0
 40
0.5
100
AcDbArc
 50
90.0
 51
149.553958
  0
ARC
  5
37E
100
AcDbEntity
  8
LAY-1
  6
CONTINUOUS
 62
     3
100
AcDbCircle
 10
627.042857
 20
277.700225
 30
0.0
 40
3.25
100
AcDbArc
 50
210.446042
 51
329.553958
  0
ARC
  5
37F
100
AcDbEntity
  8
LAY-1
  6
CONTINUOUS
 62
     3
100
AcDbCircle
 10
623.809957
 20
275.8
 30
0.0
 40
0.5
100
AcDbArc
 50
30.446042
 51
90.0
  0
LINE
  5
380
100
AcDbEntity
  8
LAY-1
  6
CONTINUOUS
 62
     3
100
AcDbLine
 10
637.642857
 20
341.3
 30
0.0
 11
630.275757
 21
341.3
 31
0.0
  0
ARC
  5
381
100
AcDbEntity
  8
LAY-1
  6
CONTINUOUS
 62
     3
100
AcDbCircle
 10
623.809957
 20
341.8
 30
0.0
 40
0.5
100
AcDbArc
 50
270.0
 51
329.553958
  0
ARC
  5
382
100
AcDbEntity
  8
LAY-1
  6
CONTINUOUS
 62
     3
100
AcDbCircle
 10
627.042857
 20
339.899775
 30
0.0
 40
3.25
100
AcDbArc
 50
30.446042
 51
149.553958
  0
ARC
  5
383
100
AcDbEntity
  8
LAY-1
  6
CONTINUOUS
 62
     3
100
AcDbCircle
 10
630.275757
 20
341.8
 30
0.0
 40
0.5
100
AcDbArc
 50
210.446042
 51
270.0
  0
LINE
  5
384
100
AcDbEntity
  8
LAY-1
  6
CONTINUOUS
 62
     3
100
AcDbLine
 10
616.275757
 20
276.3
 30
0.0
 11
623.809957
 21
276.3
 31
0.0
  0
LINE
  5
385
100
AcDbEntity
  8
LAY-1
  6
CONTINUOUS
 62
     3
100
AcDbLine
 10
623.809957
 20
341.3
 30
0.0
 11
616.275757
 21
341.3
 31
0.0
  0
LINE
  5
386
100
AcDbEntity
  8
LAY-1
  6
EXLTYPE3
 62
     1
100
AcDbLine
 10
533.605296
 20
308.8
 30
0.0
 11
649.005296
 21
308.8
 31
0.0
  0
ARC
  5
387
100
AcDbEntity
  8
LAY-1
  6
CONTINUOUS
 62
     3
100
AcDbCircle
 10
276.7
 20
427.149775
 30
0.0
 40
3.0
100
AcDbArc
 50
27.125984
 51
152.874016
  0
ARC
  5
388
100
AcDbEntity
  8
LAY-1
  6
CONTINUOUS
 62
     3
100
AcDbCircle
 10
273.673979
 20
428.7
 30
0.0
 40
0.4
100
AcDbArc
 50
270.0
 51
332.874016
  0
ARC
  5
389
100
AcDbEntity
  8
LAY-1
  6
CONTINUOUS
 62
     3
100
AcDbCircle
 10
279.726021
 20
428.7
 30
0.0
 40
0.4
100
AcDbArc
 50
207.125984
 51
270.0
  0
LINE
  5
38A
100
AcDbEntity
  8
LAY-1
  6
CONTINUOUS
 62
     3
100
AcDbLine
 10
273.673979
 20
428.3
 30
0.0
 11
268.5
 21
428.3
 31
0.0
  0
ARC
  5
38B
100
AcDbEntity
  8
LAY-1
  6
CONTINUOUS
 62
     3
100
AcDbCircle
 10
279.726021
 20
408.9
 30
0.0
 40
0.4
100
AcDbArc
 50
90.0
 51
152.874016
  0
LINE
  5
38C
100
AcDbEntity
  8
LAY-1
  6
CONTINUOUS
 62
     3
100
AcDbLine
 10
273.673979
 20
409.3
 30
0.0
 11
268.5
 21
409.3
 31
0.0
  0
ARC
  5
38D
100
AcDbEntity
  8
LAY-1
  6
CONTINUOUS
 62
     3
100
AcDbCircle
 10
276.7
 20
410.450225
 30
0.0
 40
3.0
100
AcDbArc
 50
207.125984
 51
332.874016
  0
ARC
  5
38E
100
AcDbEntity
  8
LAY-1
  6
CONTINUOUS
 62
     3
100
AcDbCircle
 10
273.673979
 20
408.9
 30
0.0
 40
0.4
100
AcDbArc
 50
27.125984
 51
90.0
  0
LINE
  5
38F
100
AcDbEntity
  8
LAY-1
  6
CONTINUOUS
 62
     3
100
AcDbLine
 10
274.029982
 20
428.517621
 30
0.0
 11
274.029982
 21
409.082379
 31
0.0
  0
LINE
  5
390
100
AcDbEntity
  8
LAY-1
  6
CONTINUOUS
 62
     3
100
AcDbLine
 10
279.370018
 20
409.082379
 30
0.0
 11
279.370018
 21
428.517621
 31
0.0
  0
ARC
  5
391
100
AcDbEntity
  8
LAY-1
  6
CONTINUOUS
 62
     3
100
AcDbCircle
 10
344.7
 20
427.149775
 30
0.0
 40
3.0
100
AcDbArc
 50
27.125984
 51
152.874016
  0
ARC
  5
392
100
AcDbEntity
  8
LAY-1
  6
CONTINUOUS
 62
     3
100
AcDbCircle
 10
347.726021
 20
428.7
 30
0.0
 40
0.4
100
AcDbArc
 50
207.125984
 51
270.0
  0
ARC
  5
393
100
AcDbEntity
  8
LAY-1
  6
CONTINUOUS
 62
     3
100
AcDbCircle
 10
341.673979
 20
428.7
 30
0.0
 40
0.4
100
AcDbArc
 50
270.0
 51
332.874016
  0
LINE
  5
394
100
AcDbEntity
  8
LAY-1
  6
CONTINUOUS
 62
     3
100
AcDbLine
 10
347.726021
 20
428.3
 30
0.0
 11
352.9
 21
428.3
 31
0.0
  0
ARC
  5
395
100
AcDbEntity
  8
LAY-1
  6
CONTINUOUS
 62
     3
100
AcDbCircle
 10
341.673979
 20
408.9
 30
0.0
 40
0.4
100
AcDbArc
 50
27.125984
 51
90.0
  0
ARC
  5
396
100
AcDbEntity
  8
LAY-1
  6
CONTINUOUS
 62
     3
100
AcDbCircle
 10
344.7
 20
410.450225
 30
0.0
 40
3.0
100
AcDbArc
 50
207.125984
 51
332.874016
  0
ARC
  5
397
100
AcDbEntity
  8
LAY-1
  6
CONTINUOUS
 62
     3
100
AcDbCircle
 10
347.726021
 20
408.9
 30
0.0
 40
0.4
100
AcDbArc
 50
90.0
 51
152.874016
  0
LINE
  5
398
100
AcDbEntity
  8
LAY-1
  6
CONTINUOUS
 62
     3
100
AcDbLine
 10
347.726021
 20
409.3
 30
0.0
 11
352.9
 21
409.3
 31
0.0
  0
LINE
  5
399
100
AcDbEntity
  8
LAY-1
  6
CONTINUOUS
 62
     3
100
AcDbLine
 10
347.370018
 20
428.517621
 30
0.0
 11
347.370018
 21
409.082379
 31
0.0
  0
LINE
  5
39A
100
AcDbEntity
  8
LAY-1
  6
CONTINUOUS
 62
     3
100
AcDbLine
 10
342.029982
 20
409.082379
 30
0.0
 11
342.029982
 21
428.517621
 31
0.0
  0
LINE
  5
39B
100
AcDbEntity
  8
LAY-1
  6
EXLTYPE3
 62
     1
100
AcDbLine
 10
260.266836
 20
418.8
 30
0.0
 11
360.4
 21
418.8
 31
0.0
  0
LINE
  5
39C
100
AcDbEntity
  8
LAY-1
  6
CONTINUOUS
 62
     3
100
AcDbLine
 10
279.726021
 20
428.3
 30
0.0
 11
341.673979
 21
428.3
 31
0.0
  0
LINE
  5
39D
100
AcDbEntity
  8
LAY-1
  6
CONTINUOUS
 62
     3
100
AcDbLine
 10
341.673979
 20
409.3
 30
0.0
 11
279.726021
 21
409.3
 31
0.0
  0
ARC
  5
39E
100
AcDbEntity
  8
LAY-1
  6
CONTINUOUS
 62
     3
100
AcDbCircle
 10
381.95
 20
431.05
 30
0.0
 40
0.4
100
AcDbArc
 50
270.0
 51
332.874016
  0
ARC
  5
39F
100
AcDbEntity
  8
LAY-1
  6
CONTINUOUS
 62
     3
100
AcDbCircle
 10
384.976021
 20
429.499775
 30
0.0
 40
3.0
100
AcDbArc
 50
27.125984
 51
152.874016
  0
ARC
  5
3A0
100
AcDbEntity
  8
LAY-1
  6
CONTINUOUS
 62
     3
100
AcDbCircle
 10
388.002042
 20
431.05
 30
0.0
 40
0.4
100
AcDbArc
 50
207.125984
 51
270.0
  0
LINE
  5
3A1
100
AcDbEntity
  8
LAY-1
  6
CONTINUOUS
 62
     3
100
AcDbLine
 10
376.276021
 20
430.65
 30
0.0
 11
381.95
 21
430.65
 31
0.0
  0
ARC
  5
3A2
100
AcDbEntity
  8
LAY-1
  6
CONTINUOUS
 62
     3
100
AcDbCircle
 10
388.002042
 20
406.55
 30
0.0
 40
0.4
100
AcDbArc
 50
90.0
 51
152.874016
  0
LINE
  5
3A3
100
AcDbEntity
  8
LAY-1
  6
CONTINUOUS
 62
     3
100
AcDbLine
 10
381.95
 20
406.95
 30
0.0
 11
376.276021
 21
406.95
 31
0.0
  0
ARC
  5
3A4
100
AcDbEntity
  8
LAY-1
  6
CONTINUOUS
 62
     3
100
AcDbCircle
 10
384.976021
 20
408.100225
 30
0.0
 40
3.0
100
AcDbArc
 50
207.125984
 51
332.874016
  0
ARC
  5
3A5
100
AcDbEntity
  8
LAY-1
  6
CONTINUOUS
 62
     3
100
AcDbCircle
 10
381.95
 20
406.55
 30
0.0
 40
0.4
100
AcDbArc
 50
27.125984
 51
90.0
  0
LINE
  5
3A6
100
AcDbEntity
  8
LAY-1
  6
CONTINUOUS
 62
     3
100
AcDbLine
 10
382.306002
 20
430.867621
 30
0.0
 11
382.306002
 21
406.732379
 31
0.0
  0
LINE
  5
3A7
100
AcDbEntity
  8
LAY-1
  6
CONTINUOUS
 62
     3
100
AcDbLine
 10
387.646039
 20
406.732379
 30
0.0
 11
387.646039
 21
430.867621
 31
0.0
  0
ARC
  5
3A8
100
AcDbEntity
  8
LAY-1
  6
CONTINUOUS
 62
     3
100
AcDbCircle
 10
464.002042
 20
431.05
 30
0.0
 40
0.4
100
AcDbArc
 50
207.125984
 51
270.0
  0
ARC
  5
3A9
100
AcDbEntity
  8
LAY-1
  6
CONTINUOUS
 62
     3
100
AcDbCircle
 10
460.976021
 20
429.499775
 30
0.0
 40
3.0
100
AcDbArc
 50
27.125984
 51
152.874016
  0
ARC
  5
3AA
100
AcDbEntity
  8
LAY-1
  6
CONTINUOUS
 62
     3
100
AcDbCircle
 10
457.95
 20
431.05
 30
0.0
 40
0.4
100
AcDbArc
 50
270.0
 51
332.874016
  0
LINE
  5
3AB
100
AcDbEntity
  8
LAY-1
  6
CONTINUOUS
 62
     3
100
AcDbLine
 10
469.676021
 20
430.65
 30
0.0
 11
464.002042
 21
430.65
 31
0.0
  0
ARC
  5
3AC
100
AcDbEntity
  8
LAY-1
  6
CONTINUOUS
 62
     3
100
AcDbCircle
 10
457.95
 20
406.55
 30
0.0
 40
0.4
100
AcDbArc
 50
27.125984
 51
90.0
  0
ARC
  5
3AD
100
AcDbEntity
  8
LAY-1
  6
CONTINUOUS
 62
     3
100
AcDbCircle
 10
460.976021
 20
408.100225
 30
0.0
 40
3.0
100
AcDbArc
 50
207.125984
 51
332.874016
  0
ARC
  5
3AE
100
AcDbEntity
  8
LAY-1
  6
CONTINUOUS
 62
     3
100
AcDbCircle
 10
464.002042
 20
406.55
 30
0.0
 40
0.4
100
AcDbArc
 50
90.0
 51
152.874016
  0
LINE
  5
3AF
100
AcDbEntity
  8
LAY-1
  6
CONTINUOUS
 62
     3
100
AcDbLine
 10
464.002042
 20
406.95
 30
0.0
 11
469.676021
 21
406.95
 31
0.0
  0
LINE
  5
3B0
100
AcDbEntity
  8
LAY-1
  6
CONTINUOUS
 62
     3
100
AcDbLine
 10
463.646039
 20
430.867621
 30
0.0
 11
463.646039
 21
406.732379
 31
0.0
  0
LINE
  5
3B1
100
AcDbEntity
  8
LAY-1
  6
CONTINUOUS
 62
     3
100
AcDbLine
 10
458.306002
 20
406.732379
 30
0.0
 11
458.306002
 21
430.867621
 31
0.0
  0
LINE
  5
3B2
100
AcDbEntity
  8
LAY-1
  6
EXLTYPE3
 62
     1
100
AcDbLine
 10
367.9
 20
418.8
 30
0.0
 11
476.7
 21
418.8
 31
0.0
  0
LINE
  5
3B3
100
AcDbEntity
  8
LAY-1
  6
CONTINUOUS
 62
     3
100
AcDbLine
 10
388.002042
 20
430.65
 30
0.0
 11
457.95
 21
430.65
 31
0.0
  0
LINE
  5
3B4
100
AcDbEntity
  8
LAY-1
  6
CONTINUOUS
 62
     3
100
AcDbLine
 10
457.95
 20
406.95
 30
0.0
 11
392.0778
 21
406.95
 31
0.0
  0
LINE
  5
3B5
100
AcDbEntity
  8
LAY-1
  6
CONTINUOUS
 62
     3
100
AcDbLine
 10
457.95
 20
406.95
 30
0.0
 11
388.002042
 21
406.95
 31
0.0
  0
LINE
  5
3B6
100
AcDbEntity
  8
LAY-1
  6
CONTINUOUS
 62
     3
100
AcDbLine
 10
487.118878
 20
434.0
 30
0.0
 11
492.792857
 21
434.0
 31
0.0
  0
ARC
  5
3B7
100
AcDbEntity
  8
LAY-1
  6
CONTINUOUS
 62
     3
100
AcDbCircle
 10
492.792857
 20
434.4
 30
0.0
 40
0.4
100
AcDbArc
 50
270.0
 51
332.874016
  0
ARC
  5
3B8
100
AcDbEntity
  8
LAY-1
  6
CONTINUOUS
 62
     3
100
AcDbCircle
 10
495.818878
 20
432.849775
 30
0.0
 40
3.0
100
AcDbArc
 50
27.125984
 51
152.874016
  0
ARC
  5
3B9
100
AcDbEntity
  8
LAY-1
  6
CONTINUOUS
 62
     3
100
AcDbCircle
 10
498.844899
 20
434.4
 30
0.0
 40
0.4
100
AcDbArc
 50
207.125984
 51
270.0
  0
ARC
  5
3BA
100
AcDbEntity
  8
LAY-1
  6
CONTINUOUS
 62
     3
100
AcDbCircle
 10
498.844899
 20
403.2
 30
0.0
 40
0.4
100
AcDbArc
 50
90.0
 51
152.874016
  0
LINE
  5
3BB
100
AcDbEntity
  8
LAY-1
  6
CONTINUOUS
 62
     3
100
AcDbLine
 10
492.792857
 20
403.6
 30
0.0
 11
487.118878
 21
403.6
 31
0.0
  0
ARC
  5
3BC
100
AcDbEntity
  8
LAY-1
  6
CONTINUOUS
 62
     3
100
AcDbCircle
 10
495.818878
 20
404.750225
 30
0.0
 40
3.0
100
AcDbArc
 50
207.125984
 51
332.874016
  0
ARC
  5
3BD
100
AcDbEntity
  8
LAY-1
  6
CONTINUOUS
 62
     3
100
AcDbCircle
 10
492.792857
 20
403.2
 30
0.0
 40
0.4
100
AcDbArc
 50
27.125984
 51
90.0
  0
LINE
  5
3BE
100
AcDbEntity
  8
LAY-1
  6
CONTINUOUS
 62
     3
100
AcDbLine
 10
493.14886
 20
434.217621
 30
0.0
 11
493.14886
 21
403.382379
 31
0.0
  0
LINE
  5
3BF
100
AcDbEntity
  8
LAY-1
  6
CONTINUOUS
 62
     3
100
AcDbLine
 10
498.488896
 20
403.382379
 30
0.0
 11
498.488896
 21
434.217621
 31
0.0
  0
ARC
  5
3C0
100
AcDbEntity
  8
LAY-1
  6
CONTINUOUS
 62
     3
100
AcDbCircle
 10
574.844899
 20
434.4
 30
0.0
 40
0.4
100
AcDbArc
 50
207.125984
 51
270.0
  0
ARC
  5
3C1
100
AcDbEntity
  8
LAY-1
  6
CONTINUOUS
 62
     3
100
AcDbCircle
 10
571.818878
 20
432.849775
 30
0.0
 40
3.0
100
AcDbArc
 50
27.125984
 51
152.874016
  0
ARC
  5
3C2
100
AcDbEntity
  8
LAY-1
  6
CONTINUOUS
 62
     3
100
AcDbCircle
 10
568.792857
 20
434.4
 30
0.0
 40
0.4
100
AcDbArc
 50
270.0
 51
332.874016
  0
LINE
  5
3C3
100
AcDbEntity
  8
LAY-1
  6
CONTINUOUS
 62
     3
100
AcDbLine
 10
580.518878
 20
434.0
 30
0.0
 11
574.844899
 21
434.0
 31
0.0
  0
ARC
  5
3C4
100
AcDbEntity
  8
LAY-1
  6
CONTINUOUS
 62
     3
100
AcDbCircle
 10
568.792857
 20
403.2
 30
0.0
 40
0.4
100
AcDbArc
 50
27.125984
 51
90.0
  0
ARC
  5
3C5
100
AcDbEntity
  8
LAY-1
  6
CONTINUOUS
 62
     3
100
AcDbCircle
 10
571.818878
 20
404.750225
 30
0.0
 40
3.0
100
AcDbArc
 50
207.125984
 51
332.874016
  0
ARC
  5
3C6
100
AcDbEntity
  8
LAY-1
  6
CONTINUOUS
 62
     3
100
AcDbCircle
 10
574.844899
 20
403.2
 30
0.0
 40
0.4
100
AcDbArc
 50
90.0
 51
152.874016
  0
LINE
  5
3C7
100
AcDbEntity
  8
LAY-1
  6
CONTINUOUS
 62
     3
100
AcDbLine
 10
574.844899
 20
403.6
 30
0.0
 11
580.518878
 21
403.6
 31
0.0
  0
LINE
  5
3C8
100
AcDbEntity
  8
LAY-1
  6
CONTINUOUS
 62
     3
100
AcDbLine
 10
574.488896
 20
434.217621
 30
0.0
 11
574.488896
 21
403.382379
 31
0.0
  0
LINE
  5
3C9
100
AcDbEntity
  8
LAY-1
  6
CONTINUOUS
 62
     3
100
AcDbLine
 10
569.14886
 20
403.382379
 30
0.0
 11
569.14886
 21
434.217621
 31
0.0
  0
LINE
  5
3CA
100
AcDbEntity
  8
LAY-1
  6
EXLTYPE3
 62
     1
100
AcDbLine
 10
481.2
 20
418.8
 30
0.0
 11
586.8
 21
418.8
 31
0.0
  0
LINE
  5
3CB
100
AcDbEntity
  8
LAY-1
  6
CONTINUOUS
 62
     3
100
AcDbLine
 10
498.844899
 20
434.0
 30
0.0
 11
568.792857
 21
434.0
 31
0.0
  0
LINE
  5
3CC
100
AcDbEntity
  8
LAY-1
  6
CONTINUOUS
 62
     3
100
AcDbLine
 10
568.792857
 20
403.6
 30
0.0
 11
498.844899
 21
403.6
 31
0.0
  0
LINE
  5
3CD
100
AcDbEntity
  8
LAY-1
  6
CONTINUOUS
 62
     3
100
AcDbLine
 10
648.761735
 20
435.85
 30
0.0
 11
655.028835
 21
435.85
 31
0.0
  0
ARC
  5
3CE
100
AcDbEntity
  8
LAY-1
  6
CONTINUOUS
 62
     3
100
AcDbCircle
 10
658.261735
 20
434.449775
 30
0.0
 40
3.25
100
AcDbArc
 50
30.446042
 51
149.553958
  0
ARC
  5
3CF
100
AcDbEntity
  8
LAY-1
  6
CONTINUOUS
 62
     3
100
AcDbCircle
 10
655.028835
 20
436.35
 30
0.0
 40
0.5
100
AcDbArc
 50
270.0
 51
329.553958
  0
ARC
  5
3D0
100
AcDbEntity
  8
LAY-1
  6
CONTINUOUS
 62
     3
100
AcDbCircle
 10
661.494635
 20
436.35
 30
0.0
 40
0.5
100
AcDbArc
 50
210.446042
 51
270.0
  0
ARC
  5
3D1
100
AcDbEntity
  8
LAY-1
  6
CONTINUOUS
 62
     3
100
AcDbCircle
 10
661.494635
 20
401.25
 30
0.0
 40
0.5
100
AcDbArc
 50
90.0
 51
149.553958
  0
LINE
  5
3D2
100
AcDbEntity
  8
LAY-1
  6
CONTINUOUS
 62
     3
100
AcDbLine
 10
655.028835
 20
401.75
 30
0.0
 11
648.761735
 21
401.75
 31
0.0
  0
ARC
  5
3D3
100
AcDbEntity
  8
LAY-1
  6
CONTINUOUS
 62
     3
100
AcDbCircle
 10
658.261735
 20
403.150225
 30
0.0
 40
3.25
100
AcDbArc
 50
210.446042
 51
329.553958
  0
ARC
  5
3D4
100
AcDbEntity
  8
LAY-1
  6
CONTINUOUS
 62
     3
100
AcDbCircle
 10
655.028835
 20
401.25
 30
0.0
 40
0.5
100
AcDbArc
 50
30.446042
 51
90.0
  0
LINE
  5
3D5
100
AcDbEntity
  8
LAY-1
  6
CONTINUOUS
 62
     3
100
AcDbLine
 10
655.459888
 20
401.503363
 30
0.0
 11
655.459888
 21
436.096637
 31
0.0
  0
LINE
  5
3D6
100
AcDbEntity
  8
LAY-1
  6
CONTINUOUS
 62
     3
100
AcDbLine
 10
661.132943
 20
436.004778
 30
0.0
 11
661.132943
 21
401.503363
 31
0.0
  0
LINE
  5
3D7
100
AcDbEntity
  8
LAY-1
  6
CONTINUOUS
 62
     3
100
AcDbLine
 10
751.761735
 20
435.85
 30
0.0
 11
745.494635
 21
435.85
 31
0.0
  0
ARC
  5
3D8
100
AcDbEntity
  8
LAY-1
  6
CONTINUOUS
 62
     3
100
AcDbCircle
 10
739.028835
 20
436.35
 30
0.0
 40
0.5
100
AcDbArc
 50
270.0
 51
329.553958
  0
ARC
  5
3D9
100
AcDbEntity
  8
LAY-1
  6
CONTINUOUS
 62
     3
100
AcDbCircle
 10
745.494635
 20
436.35
 30
0.0
 40
0.5
100
AcDbArc
 50
210.446042
 51
270.0
  0
ARC
  5
3DA
100
AcDbEntity
  8
LAY-1
  6
CONTINUOUS
 62
     3
100
AcDbCircle
 10
742.261735
 20
434.449775
 30
0.0
 40
3.25
100
AcDbArc
 50
30.446042
 51
149.553958
  0
LINE
  5
3DB
100
AcDbEntity
  8
LAY-1
  6
CONTINUOUS
 62
     3
100
AcDbLine
 10
745.494635
 20
401.75
 30
0.0
 11
751.761735
 21
401.75
 31
0.0
  0
ARC
  5
3DC
100
AcDbEntity
  8
LAY-1
  6
CONTINUOUS
 62
     3
100
AcDbCircle
 10
745.494635
 20
401.25
 30
0.0
 40
0.5
100
AcDbArc
 50
90.0
 51
149.553958
  0
ARC
  5
3DD
100
AcDbEntity
  8
LAY-1
  6
CONTINUOUS
 62
     3
100
AcDbCircle
 10
742.261735
 20
403.150225
 30
0.0
 40
3.25
100
AcDbArc
 50
210.446042
 51
329.553958
  0
ARC
  5
3DE
100
AcDbEntity
  8
LAY-1
  6
CONTINUOUS
 62
     3
100
AcDbCircle
 10
739.028835
 20
401.25
 30
0.0
 40
0.5
100
AcDbArc
 50
30.446042
 51
90.0
  0
LINE
  5
3DF
100
AcDbEntity
  8
LAY-1
  6
CONTINUOUS
 62
     3
100
AcDbLine
 10
739.390527
 20
436.004778
 30
0.0
 11
739.390527
 21
401.503363
 31
0.0
  0
LINE
  5
3E0
100
AcDbEntity
  8
LAY-1
  6
CONTINUOUS
 62
     3
100
AcDbLine
 10
745.063582
 20
401.503363
 30
0.0
 11
745.063582
 21
436.096637
 31
0.0
  0
LINE
  5
3E1
100
AcDbEntity
  8
LAY-1
  6
EXLTYPE3
 62
     1
100
AcDbLine
 10
639.2
 20
418.8
 30
0.0
 11
761.2
 21
418.8
 31
0.0
  0
LINE
  5
3E2
100
AcDbEntity
  8
LAY-1
  6
CONTINUOUS
 62
     3
100
AcDbLine
 10
661.494635
 20
435.85
 30
0.0
 11
739.028835
 21
435.85
 31
0.0
  0
LINE
  5
3E3
100
AcDbEntity
  8
LAY-1
  6
CONTINUOUS
 62
     3
100
AcDbLine
 10
739.028835
 20
401.75
 30
0.0
 11
661.494635
 21
401.75
 31
0.0
  0
LINE
  5
3E4
100
AcDbEntity
  8
LAY-1
  6
CONTINUOUS
 62
     2
100
AcDbLine
 10
118.46
 20
550.988
 30
0.0
 11
118.46
 21
541.328
 31
0.0
  0
LINE
  5
3E5
100
AcDbEntity
  8
LAY-1
  6
CONTINUOUS
 62
     2
100
AcDbLine
 10
121.4
 20
550.988
 30
0.0
 11
121.4
 21
541.328
 31
0.0
  0
CIRCLE
  5
3E6
100
AcDbEntity
  8
LAY-1
  6
CONTINUOUS
 62
     2
100
AcDbCircle
 10
133.58
 20
547.628
 30
0.0
 40
4.452
  0
CIRCLE
  5
3E7
100
AcDbEntity
  8
LAY-1
  6
CONTINUOUS
 62
     2
100
AcDbCircle
 10
133.58
 20
547.628
 30
0.0
 40
5.88
  0
CIRCLE
  5
3E8
100
AcDbEntity
  8
LAY-1
  6
CONTINUOUS
 62
     2
100
AcDbCircle
 10
133.58
 20
547.628
 30
0.0
 40
8.904
  0
LINE
  5
3E9
100
AcDbEntity
  8
LAY-1
  6
CONTINUOUS
 62
     2
100
AcDbLine
 10
112.58
 20
553.928
 30
0.0
 11
112.58
 21
550.988
 31
0.0
  0
LINE
  5
3EA
100
AcDbEntity
  8
LAY-1
  6
CONTINUOUS
 62
     2
100
AcDbLine
 10
118.46
 20
541.328
 30
0.0
 11
121.4
 21
541.328
 31
0.0
  0
ARC
  5
3EB
100
AcDbEntity
  8
LAY-1
  6
CONTINUOUS
 62
     2
100
AcDbCircle
 10
133.58
 20
547.628
 30
0.0
 40
9.769139
100
AcDbArc
 50
139.842723
 51
159.882882
  0
ARC
  5
3EC
100
AcDbEntity
  8
LAY-1
  6
CONTINUOUS
 62
     2
100
AcDbCircle
 10
133.58
 20
547.628
 30
0.0
 40
9.769139
100
AcDbArc
 50
20.117118
 51
40.157277
  0
LINE
  5
3ED
100
AcDbEntity
  8
LAY-1
  6
CONTINUOUS
 62
     2
100
AcDbLine
 10
151.22
 20
544.268
 30
0.0
 11
151.22
 21
541.328
 31
0.0
  0
LINE
  5
3EE
100
AcDbEntity
  8
LAY-1
  6
CONTINUOUS
 62
     2
100
AcDbLine
 10
151.22
 20
553.928
 30
0.0
 11
151.22
 21
550.988
 31
0.0
  0
ARC
  5
3EF
100
AcDbEntity
  8
LAY-1
  6
CONTINUOUS
 62
     2
100
AcDbCircle
 10
133.58
 20
547.628
 30
0.0
 40
9.769139
100
AcDbArc
 50
319.842723
 51
348.135428
  0
LINE
  5
3F0
100
AcDbEntity
  8
LAY-1
  6
CONTINUOUS
 62
     2
100
AcDbLine
 10
151.22
 20
550.988
 30
0.0
 11
145.161927
 21
544.268
 31
0.0
  0
LINE
  5
3F1
100
AcDbEntity
  8
LAY-1
  6
CONTINUOUS
 62
     2
100
AcDbLine
 10
147.980154
 20
550.988
 30
0.0
 11
143.140434
 21
545.619474
 31
0.0
  0
LINE
  5
3F2
100
AcDbEntity
  8
LAY-1
  6
CONTINUOUS
 62
     2
100
AcDbLine
 10
152.648
 20
553.928
 30
0.0
 11
152.648
 21
541.328
 31
0.0
  0
LINE
  5
3F3
100
AcDbEntity
  8
LAY-1
  6
CONTINUOUS
 62
     2
100
AcDbLine
 10
155.588
 20
546.368
 30
0.0
 11
163.904
 21
546.368
 31
0.0
  0
LINE
  5
3F4
100
AcDbEntity
  8
LAY-1
  6
CONTINUOUS
 62
     2
100
AcDbLine
 10
165.164
 20
553.928
 30
0.0
 11
165.164
 21
541.328
 31
0.0
  0
LINE
  5
3F5
100
AcDbEntity
  8
LAY-1
  6
CONTINUOUS
 62
     2
100
AcDbLine
 10
176.756
 20
553.928
 30
0.0
 11
176.756
 21
541.328
 31
0.0
  0
LINE
  5
3F6
100
AcDbEntity
  8
LAY-1
  6
CONTINUOUS
 62
     2
100
AcDbLine
 10
173.9
 20
541.328
 30
0.0
 11
168.02
 21
550.262972
 31
0.0
  0
LINE
  5
3F7
100
AcDbEntity
  8
LAY-1
  6
CONTINUOUS
 62
     2
100
AcDbLine
 10
168.02
 20
553.928
 30
0.0
 11
173.9
 21
544.993028
 31
0.0
  0
LINE
  5
3F8
100
AcDbEntity
  8
LAY-1
  6
CONTINUOUS
 62
     2
100
AcDbLine
 10
163.904
 20
553.928
 30
0.0
 11
163.904
 21
550.988
 31
0.0
  0
LINE
  5
3F9
100
AcDbEntity
  8
LAY-1
  6
CONTINUOUS
 62
     2
100
AcDbLine
 10
163.904
 20
548.888
 30
0.0
 11
163.904
 21
546.368
 31
0.0
  0
LINE
  5
3FA
100
AcDbEntity
  8
LAY-1
  6
CONTINUOUS
 62
     2
100
AcDbLine
 10
163.904
 20
544.268
 30
0.0
 11
163.904
 21
541.328
 31
0.0
  0
LINE
  5
3FB
100
AcDbEntity
  8
LAY-1
  6
CONTINUOUS
 62
     2
100
AcDbLine
 10
155.588
 20
550.988
 30
0.0
 11
163.904
 21
550.988
 31
0.0
  0
LINE
  5
3FC
100
AcDbEntity
  8
LAY-1
  6
CONTINUOUS
 62
     2
100
AcDbLine
 10
155.588
 20
546.368
 30
0.0
 11
155.588
 21
544.268
 31
0.0
  0
LINE
  5
3FD
100
AcDbEntity
  8
LAY-1
  6
CONTINUOUS
 62
     2
100
AcDbLine
 10
152.648
 20
541.328
 30
0.0
 11
163.904
 21
541.328
 31
0.0
  0
LINE
  5
3FE
100
AcDbEntity
  8
LAY-1
  6
CONTINUOUS
 62
     2
100
AcDbLine
 10
168.02
 20
550.262972
 30
0.0
 11
168.02
 21
541.328
 31
0.0
  0
LINE
  5
3FF
100
AcDbEntity
  8
LAY-1
  6
CONTINUOUS
 62
     2
100
AcDbLine
 10
165.164
 20
541.328
 30
0.0
 11
168.02
 21
541.328
 31
0.0
  0
LINE
  5
400
100
AcDbEntity
  8
LAY-1
  6
CONTINUOUS
 62
     2
100
AcDbLine
 10
173.9
 20
541.328
 30
0.0
 11
176.756
 21
541.328
 31
0.0
  0
LINE
  5
401
100
AcDbEntity
  8
LAY-1
  6
CONTINUOUS
 62
     2
100
AcDbLine
 10
173.9
 20
553.928
 30
0.0
 11
173.9
 21
544.993028
 31
0.0
  0
LINE
  5
402
100
AcDbEntity
  8
LAY-1
  6
CONTINUOUS
 62
     2
100
AcDbLine
 10
112.58
 20
550.988
 30
0.0
 11
118.46
 21
550.988
 31
0.0
  0
LINE
  5
403
100
AcDbEntity
  8
LAY-1
  6
CONTINUOUS
 62
     2
100
AcDbLine
 10
121.4
 20
550.988
 30
0.0
 11
124.406862
 21
550.988
 31
0.0
  0
LINE
  5
404
100
AcDbEntity
  8
LAY-1
  6
CONTINUOUS
 62
     2
100
AcDbLine
 10
142.753138
 20
550.988
 30
0.0
 11
147.980154
 21
550.988
 31
0.0
  0
LINE
  5
405
100
AcDbEntity
  8
LAY-1
  6
CONTINUOUS
 62
     2
100
AcDbLine
 10
141.046329
 20
541.328
 30
0.0
 11
151.22
 21
541.328
 31
0.0
  0
LINE
  5
406
100
AcDbEntity
  8
LAY-1
  6
CONTINUOUS
 62
     2
100
AcDbLine
 10
155.588
 20
550.988
 30
0.0
 11
155.588
 21
548.888
 31
0.0
  0
LINE
  5
407
100
AcDbEntity
  8
LAY-1
  6
CONTINUOUS
 62
     2
100
AcDbLine
 10
132.35983
 20
556.448
 30
0.0
 11
134.80017
 21
556.448
 31
0.0
  0
LINE
  5
408
100
AcDbEntity
  8
LAY-1
  6
CONTINUOUS
 62
     2
100
AcDbLine
 10
130.62683
 20
556.028
 30
0.0
 11
136.53317
 21
556.028
 31
0.0
  0
LINE
  5
409
100
AcDbEntity
  8
LAY-1
  6
CONTINUOUS
 62
     2
100
AcDbLine
 10
129.630213
 20
555.608
 30
0.0
 11
137.529787
 21
555.608
 31
0.0
  0
LINE
  5
40A
100
AcDbEntity
  8
LAY-1
  6
CONTINUOUS
 62
     2
100
AcDbLine
 10
128.876
 20
555.188
 30
0.0
 11
138.284
 21
555.188
 31
0.0
  0
LINE
  5
40B
100
AcDbEntity
  8
LAY-1
  6
CONTINUOUS
 62
     2
100
AcDbLine
 10
128.260074
 20
554.768
 30
0.0
 11
138.899926
 21
554.768
 31
0.0
  0
LINE
  5
40C
100
AcDbEntity
  8
LAY-1
  6
CONTINUOUS
 62
     2
100
AcDbLine
 10
127.738526
 20
554.348
 30
0.0
 11
139.421474
 21
554.348
 31
0.0
  0
LINE
  5
40D
100
AcDbEntity
  8
LAY-1
  6
CONTINUOUS
 62
     2
100
AcDbLine
 10
112.58
 20
553.928
 30
0.0
 11
126.113671
 21
553.928
 31
0.0
  0
LINE
  5
40E
100
AcDbEntity
  8
LAY-1
  6
CONTINUOUS
 62
     2
100
AcDbLine
 10
127.287845
 20
553.928
 30
0.0
 11
139.872155
 21
553.928
 31
0.0
  0
LINE
  5
40F
100
AcDbEntity
  8
LAY-1
  6
CONTINUOUS
 62
     2
100
AcDbLine
 10
141.046329
 20
553.928
 30
0.0
 11
151.22
 21
553.928
 31
0.0
  0
LINE
  5
410
100
AcDbEntity
  8
LAY-1
  6
CONTINUOUS
 62
     2
100
AcDbLine
 10
152.648
 20
553.928
 30
0.0
 11
163.904
 21
553.928
 31
0.0
  0
LINE
  5
411
100
AcDbEntity
  8
LAY-1
  6
CONTINUOUS
 62
     2
100
AcDbLine
 10
165.164
 20
553.928
 30
0.0
 11
168.02
 21
553.928
 31
0.0
  0
LINE
  5
412
100
AcDbEntity
  8
LAY-1
  6
CONTINUOUS
 62
     2
100
AcDbLine
 10
173.9
 20
553.928
 30
0.0
 11
176.756
 21
553.928
 31
0.0
  0
LINE
  5
413
100
AcDbEntity
  8
LAY-1
  6
CONTINUOUS
 62
     2
100
AcDbLine
 10
112.58
 20
553.508
 30
0.0
 11
125.778611
 21
553.508
 31
0.0
  0
LINE
  5
414
100
AcDbEntity
  8
LAY-1
  6
CONTINUOUS
 62
     2
100
AcDbLine
 10
126.893684
 20
553.508
 30
0.0
 11
140.266316
 21
553.508
 31
0.0
  0
LINE
  5
415
100
AcDbEntity
  8
LAY-1
  6
CONTINUOUS
 62
     2
100
AcDbLine
 10
141.381389
 20
553.508
 30
0.0
 11
151.22
 21
553.508
 31
0.0
  0
LINE
  5
416
100
AcDbEntity
  8
LAY-1
  6
CONTINUOUS
 62
     2
100
AcDbLine
 10
152.648
 20
553.508
 30
0.0
 11
163.904
 21
553.508
 31
0.0
  0
LINE
  5
417
100
AcDbEntity
  8
LAY-1
  6
CONTINUOUS
 62
     2
100
AcDbLine
 10
165.164
 20
553.508
 30
0.0
 11
168.296397
 21
553.508
 31
0.0
  0
LINE
  5
418
100
AcDbEntity
  8
LAY-1
  6
CONTINUOUS
 62
     2
100
AcDbLine
 10
173.9
 20
553.508
 30
0.0
 11
176.756
 21
553.508
 31
0.0
  0
LINE
  5
419
100
AcDbEntity
  8
LAY-1
  6
CONTINUOUS
 62
     2
100
AcDbLine
 10
112.58
 20
553.088
 30
0.0
 11
125.479107
 21
553.088
 31
0.0
  0
LINE
  5
41A
100
AcDbEntity
  8
LAY-1
  6
CONTINUOUS
 62
     2
100
AcDbLine
 10
126.546536
 20
553.088
 30
0.0
 11
131.397616
 21
553.088
 31
0.0
  0
LINE
  5
41B
100
AcDbEntity
  8
LAY-1
  6
CONTINUOUS
 62
     2
100
AcDbLine
 10
135.762384
 20
553.088
 30
0.0
 11
140.613464
 21
553.088
 31
0.0
  0
LINE
  5
41C
100
AcDbEntity
  8
LAY-1
  6
CONTINUOUS
 62
     2
100
AcDbLine
 10
141.680893
 20
553.088
 30
0.0
 11
151.22
 21
553.088
 31
0.0
  0
LINE
  5
41D
100
AcDbEntity
  8
LAY-1
  6
CONTINUOUS
 62
     2
100
AcDbLine
 10
152.648
 20
553.088
 30
0.0
 11
163.904
 21
553.088
 31
0.0
  0
LINE
  5
41E
100
AcDbEntity
  8
LAY-1
  6
CONTINUOUS
 62
     2
100
AcDbLine
 10
165.164
 20
553.088
 30
0.0
 11
168.572794
 21
553.088
 31
0.0
  0
LINE
  5
41F
100
AcDbEntity
  8
LAY-1
  6
CONTINUOUS
 62
     2
100
AcDbLine
 10
173.9
 20
553.088
 30
0.0
 11
176.756
 21
553.088
 31
0.0
  0
LINE
  5
420
100
AcDbEntity
  8
LAY-1
  6
CONTINUOUS
 62
     2
100
AcDbLine
 10
112.58
 20
552.668
 30
0.0
 11
125.21134
 21
552.668
 31
0.0
  0
LINE
  5
421
100
AcDbEntity
  8
LAY-1
  6
CONTINUOUS
 62
     2
100
AcDbLine
 10
126.239726
 20
552.668
 30
0.0
 11
130.551337
 21
552.668
 31
0.0
  0
LINE
  5
422
100
AcDbEntity
  8
LAY-1
  6
CONTINUOUS
 62
     2
100
AcDbLine
 10
136.608663
 20
552.668
 30
0.0
 11
140.920274
 21
552.668
 31
0.0
  0
LINE
  5
423
100
AcDbEntity
  8
LAY-1
  6
CONTINUOUS
 62
     2
100
AcDbLine
 10
141.94866
 20
552.668
 30
0.0
 11
151.22
 21
552.668
 31
0.0
  0
LINE
  5
424
100
AcDbEntity
  8
LAY-1
  6
CONTINUOUS
 62
     2
100
AcDbLine
 10
152.648
 20
552.668
 30
0.0
 11
163.904
 21
552.668
 31
0.0
  0
LINE
  5
425
100
AcDbEntity
  8
LAY-1
  6
CONTINUOUS
 62
     2
100
AcDbLine
 10
165.164
 20
552.668
 30
0.0
 11
168.849191
 21
552.668
 31
0.0
  0
LINE
  5
426
100
AcDbEntity
  8
LAY-1
  6
CONTINUOUS
 62
     2
100
AcDbLine
 10
173.9
 20
552.668
 30
0.0
 11
176.756
 21
552.668
 31
0.0
  0
LINE
  5
427
100
AcDbEntity
  8
LAY-1
  6
CONTINUOUS
 62
     2
100
AcDbLine
 10
112.58
 20
552.248
 30
0.0
 11
124.972348
 21
552.248
 31
0.0
  0
LINE
  5
428
100
AcDbEntity
  8
LAY-1
  6
CONTINUOUS
 62
     2
100
AcDbLine
 10
125.968376
 20
552.248
 30
0.0
 11
129.942693
 21
552.248
 31
0.0
  0
LINE
  5
429
100
AcDbEntity
  8
LAY-1
  6
CONTINUOUS
 62
     2
100
AcDbLine
 10
137.217307
 20
552.248
 30
0.0
 11
141.191624
 21
552.248
 31
0.0
  0
LINE
  5
42A
100
AcDbEntity
  8
LAY-1
  6
CONTINUOUS
 62
     2
100
AcDbLine
 10
142.187652
 20
552.248
 30
0.0
 11
151.22
 21
552.248
 31
0.0
  0
LINE
  5
42B
100
AcDbEntity
  8
LAY-1
  6
CONTINUOUS
 62
     2
100
AcDbLine
 10
152.648
 20
552.248
 30
0.0
 11
163.904
 21
552.248
 31
0.0
  0
LINE
  5
42C
100
AcDbEntity
  8
LAY-1
  6
CONTINUOUS
 62
     2
100
AcDbLine
 10
165.164
 20
552.248
 30
0.0
 11
169.125588
 21
552.248
 31
0.0
  0
LINE
  5
42D
100
AcDbEntity
  8
LAY-1
  6
CONTINUOUS
 62
     2
100
AcDbLine
 10
173.9
 20
552.248
 30
0.0
 11
176.756
 21
552.248
 31
0.0
  0
LINE
  5
42E
100
AcDbEntity
  8
LAY-1
  6
CONTINUOUS
 62
     2
100
AcDbLine
 10
112.58
 20
551.828
 30
0.0
 11
124.759792
 21
551.828
 31
0.0
  0
LINE
  5
42F
100
AcDbEntity
  8
LAY-1
  6
CONTINUOUS
 62
     2
100
AcDbLine
 10
125.728808
 20
551.828
 30
0.0
 11
129.464857
 21
551.828
 31
0.0
  0
LINE
  5
430
100
AcDbEntity
  8
LAY-1
  6
CONTINUOUS
 62
     2
100
AcDbLine
 10
132.103415
 20
551.828
 30
0.0
 11
135.056585
 21
551.828
 31
0.0
  0
LINE
  5
431
100
AcDbEntity
  8
LAY-1
  6
CONTINUOUS
 62
     2
100
AcDbLine
 10
137.695143
 20
551.828
 30
0.0
 11
141.431192
 21
551.828
 31
0.0
  0
LINE
  5
432
100
AcDbEntity
  8
LAY-1
  6
CONTINUOUS
 62
     2
100
AcDbLine
 10
142.400208
 20
551.828
 30
0.0
 11
151.22
 21
551.828
 31
0.0
  0
LINE
  5
433
100
AcDbEntity
  8
LAY-1
  6
CONTINUOUS
 62
     2
100
AcDbLine
 10
152.648
 20
551.828
 30
0.0
 11
163.904
 21
551.828
 31
0.0
  0
LINE
  5
434
100
AcDbEntity
  8
LAY-1
  6
CONTINUOUS
 62
     2
100
AcDbLine
 10
165.164
 20
551.828
 30
0.0
 11
169.401985
 21
551.828
 31
0.0
  0
LINE
  5
435
100
AcDbEntity
  8
LAY-1
  6
CONTINUOUS
 62
     2
100
AcDbLine
 10
173.9
 20
551.828
 30
0.0
 11
176.756
 21
551.828
 31
0.0
  0
LINE
  5
436
100
AcDbEntity
  8
LAY-1
  6
CONTINUOUS
 62
     2
100
AcDbLine
 10
112.58
 20
551.408
 30
0.0
 11
124.5718
 21
551.408
 31
0.0
  0
LINE
  5
437
100
AcDbEntity
  8
LAY-1
  6
CONTINUOUS
 62
     2
100
AcDbLine
 10
125.518188
 20
551.408
 30
0.0
 11
129.076002
 21
551.408
 31
0.0
  0
LINE
  5
438
100
AcDbEntity
  8
LAY-1
  6
CONTINUOUS
 62
     2
100
AcDbLine
 10
131.228
 20
551.408
 30
0.0
 11
135.932
 21
551.408
 31
0.0
  0
LINE
  5
439
100
AcDbEntity
  8
LAY-1
  6
CONTINUOUS
 62
     2
100
AcDbLine
 10
138.083998
 20
551.408
 30
0.0
 11
141.641812
 21
551.408
 31
0.0
  0
LINE
  5
43A
100
AcDbEntity
  8
LAY-1
  6
CONTINUOUS
 62
     2
100
AcDbLine
 10
142.5882
 20
551.408
 30
0.0
 11
151.22
 21
551.408
 31
0.0
  0
LINE
  5
43B
100
AcDbEntity
  8
LAY-1
  6
CONTINUOUS
 62
     2
100
AcDbLine
 10
152.648
 20
551.408
 30
0.0
 11
163.904
 21
551.408
 31
0.0
  0
LINE
  5
43C
100
AcDbEntity
  8
LAY-1
  6
CONTINUOUS
 62
     2
100
AcDbLine
 10
165.164
 20
551.408
 30
0.0
 11
169.678382
 21
551.408
 31
0.0
  0
LINE
  5
43D
100
AcDbEntity
  8
LAY-1
  6
CONTINUOUS
 62
     2
100
AcDbLine
 10
173.9
 20
551.408
 30
0.0
 11
176.756
 21
551.408
 31
0.0
  0
LINE
  5
43E
100
AcDbEntity
  8
LAY-1
  6
CONTINUOUS
 62
     2
100
AcDbLine
 10
118.46
 20
550.988
 30
0.0
 11
121.4
 21
550.988
 31
0.0
  0
LINE
  5
43F
100
AcDbEntity
  8
LAY-1
  6
CONTINUOUS
 62
     2
100
AcDbLine
 10
125.334297
 20
550.988
 30
0.0
 11
128.754567
 21
550.988
 31
0.0
  0
LINE
  5
440
100
AcDbEntity
  8
LAY-1
  6
CONTINUOUS
 62
     2
100
AcDbLine
 10
130.659263
 20
550.988
 30
0.0
 11
136.500737
 21
550.988
 31
0.0
  0
LINE
  5
441
100
AcDbEntity
  8
LAY-1
  6
CONTINUOUS
 62
     2
100
AcDbLine
 10
138.405433
 20
550.988
 30
0.0
 11
141.825703
 21
550.988
 31
0.0
  0
LINE
  5
442
100
AcDbEntity
  8
LAY-1
  6
CONTINUOUS
 62
     2
100
AcDbLine
 10
147.980154
 20
550.988
 30
0.0
 11
151.22
 21
550.988
 31
0.0
  0
LINE
  5
443
100
AcDbEntity
  8
LAY-1
  6
CONTINUOUS
 62
     2
100
AcDbLine
 10
152.648
 20
550.988
 30
0.0
 11
155.588
 21
550.988
 31
0.0
  0
LINE
  5
444
100
AcDbEntity
  8
LAY-1
  6
CONTINUOUS
 62
     2
100
AcDbLine
 10
165.164
 20
550.988
 30
0.0
 11
169.954779
 21
550.988
 31
0.0
  0
LINE
  5
445
100
AcDbEntity
  8
LAY-1
  6
CONTINUOUS
 62
     2
100
AcDbLine
 10
173.9
 20
550.988
 30
0.0
 11
176.756
 21
550.988
 31
0.0
  0
LINE
  5
446
100
AcDbEntity
  8
LAY-1
  6
CONTINUOUS
 62
     2
100
AcDbLine
 10
118.46
 20
550.568
 30
0.0
 11
121.4
 21
550.568
 31
0.0
  0
LINE
  5
447
100
AcDbEntity
  8
LAY-1
  6
CONTINUOUS
 62
     2
100
AcDbLine
 10
125.175381
 20
550.568
 30
0.0
 11
128.487771
 21
550.568
 31
0.0
  0
LINE
  5
448
100
AcDbEntity
  8
LAY-1
  6
CONTINUOUS
 62
     2
100
AcDbLine
 10
130.236842
 20
550.568
 30
0.0
 11
136.923158
 21
550.568
 31
0.0
  0
LINE
  5
449
100
AcDbEntity
  8
LAY-1
  6
CONTINUOUS
 62
     2
100
AcDbLine
 10
138.672229
 20
550.568
 30
0.0
 11
141.984619
 21
550.568
 31
0.0
  0
LINE
  5
44A
100
AcDbEntity
  8
LAY-1
  6
CONTINUOUS
 62
     2
100
AcDbLine
 10
147.601525
 20
550.568
 30
0.0
 11
150.84137
 21
550.568
 31
0.0
  0
LINE
  5
44B
100
AcDbEntity
  8
LAY-1
  6
CONTINUOUS
 62
     2
100
AcDbLine
 10
152.648
 20
550.568
 30
0.0
 11
155.588
 21
550.568
 31
0.0
  0
LINE
  5
44C
100
AcDbEntity
  8
LAY-1
  6
CONTINUOUS
 62
     2
100
AcDbLine
 10
165.164
 20
550.568
 30
0.0
 11
170.231176
 21
550.568
 31
0.0
  0
LINE
  5
44D
100
AcDbEntity
  8
LAY-1
  6
CONTINUOUS
 62
     2
100
AcDbLine
 10
173.9
 20
550.568
 30
0.0
 11
176.756
 21
550.568
 31
0.0
  0
LINE
  5
44E
100
AcDbEntity
  8
LAY-1
  6
CONTINUOUS
 62
     2
100
AcDbLine
 10
118.46
 20
550.148
 30
0.0
 11
121.4
 21
550.148
 31
0.0
  0
LINE
  5
44F
100
AcDbEntity
  8
LAY-1
  6
CONTINUOUS
 62
     2
100
AcDbLine
 10
125.040046
 20
550.148
 30
0.0
 11
128.267374
 21
550.148
 31
0.0
  0
LINE
  5
450
100
AcDbEntity
  8
LAY-1
  6
CONTINUOUS
 62
     2
100
AcDbLine
 10
129.909863
 20
550.148
 30
0.0
 11
137.250137
 21
550.148
 31
0.0
  0
LINE
  5
451
100
AcDbEntity
  8
LAY-1
  6
CONTINUOUS
 62
     2
100
AcDbLine
 10
138.892626
 20
550.148
 30
0.0
 11
142.119954
 21
550.148
 31
0.0
  0
LINE
  5
452
100
AcDbEntity
  8
LAY-1
  6
CONTINUOUS
 62
     2
100
AcDbLine
 10
147.222895
 20
550.148
 30
0.0
 11
150.462741
 21
550.148
 31
0.0
  0
LINE
  5
453
100
AcDbEntity
  8
LAY-1
  6
CONTINUOUS
 62
     2
100
AcDbLine
 10
152.648
 20
550.148
 30
0.0
 11
155.588
 21
550.148
 31
0.0
  0
LINE
  5
454
100
AcDbEntity
  8
LAY-1
  6
CONTINUOUS
 62
     2
100
AcDbLine
 10
165.164
 20
550.148
 30
0.0
 11
168.02
 21
550.148
 31
0.0
  0
LINE
  5
455
100
AcDbEntity
  8
LAY-1
  6
CONTINUOUS
 62
     2
100
AcDbLine
 10
168.095662
 20
550.148
 30
0.0
 11
170.507574
 21
550.148
 31
0.0
  0
LINE
  5
456
100
AcDbEntity
  8
LAY-1
  6
CONTINUOUS
 62
     2
100
AcDbLine
 10
173.9
 20
550.148
 30
0.0
 11
176.756
 21
550.148
 31
0.0
  0
LINE
  5
457
100
AcDbEntity
  8
LAY-1
  6
CONTINUOUS
 62
     2
100
AcDbLine
 10
118.46
 20
549.728
 30
0.0
 11
121.4
 21
549.728
 31
0.0
  0
LINE
  5
458
100
AcDbEntity
  8
LAY-1
  6
CONTINUOUS
 62
     2
100
AcDbLine
 10
124.927185
 20
549.728
 30
0.0
 11
128.087787
 21
549.728
 31
0.0
  0
LINE
  5
459
100
AcDbEntity
  8
LAY-1
  6
CONTINUOUS
 62
     2
100
AcDbLine
 10
129.654404
 20
549.728
 30
0.0
 11
137.505596
 21
549.728
 31
0.0
  0
LINE
  5
45A
100
AcDbEntity
  8
LAY-1
  6
CONTINUOUS
 62
     2
100
AcDbLine
 10
139.072213
 20
549.728
 30
0.0
 11
142.232815
 21
549.728
 31
0.0
  0
LINE
  5
45B
100
AcDbEntity
  8
LAY-1
  6
CONTINUOUS
 62
     2
100
AcDbLine
 10
146.844266
 20
549.728
 30
0.0
 11
150.084111
 21
549.728
 31
0.0
  0
LINE
  5
45C
100
AcDbEntity
  8
LAY-1
  6
CONTINUOUS
 62
     2
100
AcDbLine
 10
152.648
 20
549.728
 30
0.0
 11
155.588
 21
549.728
 31
0.0
  0
LINE
  5
45D
100
AcDbEntity
  8
LAY-1
  6
CONTINUOUS
 62
     2
100
AcDbLine
 10
165.164
 20
549.728
 30
0.0
 11
168.02
 21
549.728
 31
0.0
  0
LINE
  5
45E
100
AcDbEntity
  8
LAY-1
  6
CONTINUOUS
 62
     2
100
AcDbLine
 10
168.372059
 20
549.728
 30
0.0
 11
170.783971
 21
549.728
 31
0.0
  0
LINE
  5
45F
100
AcDbEntity
  8
LAY-1
  6
CONTINUOUS
 62
     2
100
AcDbLine
 10
173.9
 20
549.728
 30
0.0
 11
176.756
 21
549.728
 31
0.0
  0
LINE
  5
460
100
AcDbEntity
  8
LAY-1
  6
CONTINUOUS
 62
     2
100
AcDbLine
 10
118.46
 20
549.308
 30
0.0
 11
121.4
 21
549.308
 31
0.0
  0
LINE
  5
461
100
AcDbEntity
  8
LAY-1
  6
CONTINUOUS
 62
     2
100
AcDbLine
 10
124.835927
 20
549.308
 30
0.0
 11
127.945109
 21
549.308
 31
0.0
  0
LINE
  5
462
100
AcDbEntity
  8
LAY-1
  6
CONTINUOUS
 62
     2
100
AcDbLine
 10
129.457149
 20
549.308
 30
0.0
 11
137.702851
 21
549.308
 31
0.0
  0
LINE
  5
463
100
AcDbEntity
  8
LAY-1
  6
CONTINUOUS
 62
     2
100
AcDbLine
 10
139.214891
 20
549.308
 30
0.0
 11
142.324073
 21
549.308
 31
0.0
  0
LINE
  5
464
100
AcDbEntity
  8
LAY-1
  6
CONTINUOUS
 62
     2
100
AcDbLine
 10
146.465636
 20
549.308
 30
0.0
 11
149.705482
 21
549.308
 31
0.0
  0
LINE
  5
465
100
AcDbEntity
  8
LAY-1
  6
CONTINUOUS
 62
     2
100
AcDbLine
 10
152.648
 20
549.308
 30
0.0
 11
155.588
 21
549.308
 31
0.0
  0
LINE
  5
466
100
AcDbEntity
  8
LAY-1
  6
CONTINUOUS
 62
     2
100
AcDbLine
 10
165.164
 20
549.308
 30
0.0
 11
168.02
 21
549.308
 31
0.0
  0
LINE
  5
467
100
AcDbEntity
  8
LAY-1
  6
CONTINUOUS
 62
     2
100
AcDbLine
 10
168.648456
 20
549.308
 30
0.0
 11
171.060368
 21
549.308
 31
0.0
  0
LINE
  5
468
100
AcDbEntity
  8
LAY-1
  6
CONTINUOUS
 62
     2
100
AcDbLine
 10
173.9
 20
549.308
 30
0.0
 11
176.756
 21
549.308
 31
0.0
  0
LINE
  5
469
100
AcDbEntity
  8
LAY-1
  6
CONTINUOUS
 62
     2
100
AcDbLine
 10
118.46
 20
548.888
 30
0.0
 11
121.4
 21
548.888
 31
0.0
  0
LINE
  5
46A
100
AcDbEntity
  8
LAY-1
  6
CONTINUOUS
 62
     2
100
AcDbLine
 10
124.765602
 20
548.888
 30
0.0
 11
127.836586
 21
548.888
 31
0.0
  0
LINE
  5
46B
100
AcDbEntity
  8
LAY-1
  6
CONTINUOUS
 62
     2
100
AcDbLine
 10
129.310023
 20
548.888
 30
0.0
 11
137.849977
 21
548.888
 31
0.0
  0
LINE
  5
46C
100
AcDbEntity
  8
LAY-1
  6
CONTINUOUS
 62
     2
100
AcDbLine
 10
139.323414
 20
548.888
 30
0.0
 11
142.394398
 21
548.888
 31
0.0
  0
LINE
  5
46D
100
AcDbEntity
  8
LAY-1
  6
CONTINUOUS
 62
     2
100
AcDbLine
 10
146.087006
 20
548.888
 30
0.0
 11
149.326852
 21
548.888
 31
0.0
  0
LINE
  5
46E
100
AcDbEntity
  8
LAY-1
  6
CONTINUOUS
 62
     2
100
AcDbLine
 10
152.648
 20
548.888
 30
0.0
 11
163.904
 21
548.888
 31
0.0
  0
LINE
  5
46F
100
AcDbEntity
  8
LAY-1
  6
CONTINUOUS
 62
     2
100
AcDbLine
 10
165.164
 20
548.888
 30
0.0
 11
168.02
 21
548.888
 31
0.0
  0
LINE
  5
470
100
AcDbEntity
  8
LAY-1
  6
CONTINUOUS
 62
     2
100
AcDbLine
 10
168.924853
 20
548.888
 30
0.0
 11
171.336765
 21
548.888
 31
0.0
  0
LINE
  5
471
100
AcDbEntity
  8
LAY-1
  6
CONTINUOUS
 62
     2
100
AcDbLine
 10
173.9
 20
548.888
 30
0.0
 11
176.756
 21
548.888
 31
0.0
  0
LINE
  5
472
100
AcDbEntity
  8
LAY-1
  6
CONTINUOUS
 62
     2
100
AcDbLine
 10
118.46
 20
548.468
 30
0.0
 11
121.4
 21
548.468
 31
0.0
  0
LINE
  5
473
100
AcDbEntity
  8
LAY-1
  6
CONTINUOUS
 62
     2
100
AcDbLine
 10
124.715711
 20
548.468
 30
0.0
 11
127.760309
 21
548.468
 31
0.0
  0
LINE
  5
474
100
AcDbEntity
  8
LAY-1
  6
CONTINUOUS
 62
     2
100
AcDbLine
 10
129.207963
 20
548.468
 30
0.0
 11
137.952037
 21
548.468
 31
0.0
  0
LINE
  5
475
100
AcDbEntity
  8
LAY-1
  6
CONTINUOUS
 62
     2
100
AcDbLine
 10
139.399691
 20
548.468
 30
0.0
 11
142.444289
 21
548.468
 31
0.0
  0
LINE
  5
476
100
AcDbEntity
  8
LAY-1
  6
CONTINUOUS
 62
     2
100
AcDbLine
 10
145.708377
 20
548.468
 30
0.0
 11
148.948223
 21
548.468
 31
0.0
  0
LINE
  5
477
100
AcDbEntity
  8
LAY-1
  6
CONTINUOUS
 62
     2
100
AcDbLine
 10
152.648
 20
548.468
 30
0.0
 11
163.904
 21
548.468
 31
0.0
  0
LINE
  5
478
100
AcDbEntity
  8
LAY-1
  6
CONTINUOUS
 62
     2
100
AcDbLine
 10
165.164
 20
548.468
 30
0.0
 11
168.02
 21
548.468
 31
0.0
  0
LINE
  5
479
100
AcDbEntity
  8
LAY-1
  6
CONTINUOUS
 62
     2
100
AcDbLine
 10
169.20125
 20
548.468
 30
0.0
 11
171.613162
 21
548.468
 31
0.0
  0
LINE
  5
47A
100
AcDbEntity
  8
LAY-1
  6
CONTINUOUS
 62
     2
100
AcDbLine
 10
173.9
 20
548.468
 30
0.0
 11
176.756
 21
548.468
 31
0.0
  0
LINE
  5
47B
100
AcDbEntity
  8
LAY-1
  6
CONTINUOUS
 62
     2
100
AcDbLine
 10
118.46
 20
548.048
 30
0.0
 11
121.4
 21
548.048
 31
0.0
  0
LINE
  5
47C
100
AcDbEntity
  8
LAY-1
  6
CONTINUOUS
 62
     2
100
AcDbLine
 10
124.685911
 20
548.048
 30
0.0
 11
127.715019
 21
548.048
 31
0.0
  0
LINE
  5
47D
100
AcDbEntity
  8
LAY-1
  6
CONTINUOUS
 62
     2
100
AcDbLine
 10
129.147856
 20
548.048
 30
0.0
 11
138.012144
 21
548.048
 31
0.0
  0
LINE
  5
47E
100
AcDbEntity
  8
LAY-1
  6
CONTINUOUS
 62
     2
100
AcDbLine
 10
139.444981
 20
548.048
 30
0.0
 11
142.474089
 21
548.048
 31
0.0
  0
LINE
  5
47F
100
AcDbEntity
  8
LAY-1
  6
CONTINUOUS
 62
     2
100
AcDbLine
 10
145.329747
 20
548.048
 30
0.0
 11
148.569593
 21
548.048
 31
0.0
  0
LINE
  5
480
100
AcDbEntity
  8
LAY-1
  6
CONTINUOUS
 62
     2
100
AcDbLine
 10
152.648
 20
548.048
 30
0.0
 11
163.904
 21
548.048
 31
0.0
  0
LINE
  5
481
100
AcDbEntity
  8
LAY-1
  6
CONTINUOUS
 62
     2
100
AcDbLine
 10
165.164
 20
548.048
 30
0.0
 11
168.02
 21
548.048
 31
0.0
  0
LINE
  5
482
100
AcDbEntity
  8
LAY-1
  6
CONTINUOUS
 62
     2
100
AcDbLine
 10
169.477647
 20
548.048
 30
0.0
 11
171.889559
 21
548.048
 31
0.0
  0
LINE
  5
483
100
AcDbEntity
  8
LAY-1
  6
CONTINUOUS
 62
     2
100
AcDbLine
 10
173.9
 20
548.048
 30
0.0
 11
176.756
 21
548.048
 31
0.0
  0
LINE
  5
484
100
AcDbEntity
  8
LAY-1
  6
CONTINUOUS
 62
     2
100
AcDbLine
 10
118.46
 20
547.628
 30
0.0
 11
121.4
 21
547.628
 31
0.0
  0
LINE
  5
485
100
AcDbEntity
  8
LAY-1
  6
CONTINUOUS
 62
     2
100
AcDbLine
 10
124.676
 20
547.628
 30
0.0
 11
127.7
 21
547.628
 31
0.0
  0
LINE
  5
486
100
AcDbEntity
  8
LAY-1
  6
CONTINUOUS
 62
     2
100
AcDbLine
 10
129.128
 20
547.628
 30
0.0
 11
138.032
 21
547.628
 31
0.0
  0
LINE
  5
487
100
AcDbEntity
  8
LAY-1
  6
CONTINUOUS
 62
     2
100
AcDbLine
 10
139.46
 20
547.628
 30
0.0
 11
142.484
 21
547.628
 31
0.0
  0
LINE
  5
488
100
AcDbEntity
  8
LAY-1
  6
CONTINUOUS
 62
     2
100
AcDbLine
 10
144.951118
 20
547.628
 30
0.0
 11
148.190964
 21
547.628
 31
0.0
  0
LINE
  5
489
100
AcDbEntity
  8
LAY-1
  6
CONTINUOUS
 62
     2
100
AcDbLine
 10
152.648
 20
547.628
 30
0.0
 11
163.904
 21
547.628
 31
0.0
  0
LINE
  5
48A
100
AcDbEntity
  8
LAY-1
  6
CONTINUOUS
 62
     2
100
AcDbLine
 10
165.164
 20
547.628
 30
0.0
 11
168.02
 21
547.628
 31
0.0
  0
LINE
  5
48B
100
AcDbEntity
  8
LAY-1
  6
CONTINUOUS
 62
     2
100
AcDbLine
 10
169.754044
 20
547.628
 30
0.0
 11
172.165956
 21
547.628
 31
0.0
  0
LINE
  5
48C
100
AcDbEntity
  8
LAY-1
  6
CONTINUOUS
 62
     2
100
AcDbLine
 10
173.9
 20
547.628
 30
0.0
 11
176.756
 21
547.628
 31
0.0
  0
LINE
  5
48D
100
AcDbEntity
  8
LAY-1
  6
CONTINUOUS
 62
     2
100
AcDbLine
 10
118.46
 20
547.208
 30
0.0
 11
121.4
 21
547.208
 31
0.0
  0
LINE
  5
48E
100
AcDbEntity
  8
LAY-1
  6
CONTINUOUS
 62
     2
100
AcDbLine
 10
124.685911
 20
547.208
 30
0.0
 11
127.715019
 21
547.208
 31
0.0
  0
LINE
  5
48F
100
AcDbEntity
  8
LAY-1
  6
CONTINUOUS
 62
     2
100
AcDbLine
 10
129.147856
 20
547.208
 30
0.0
 11
138.012144
 21
547.208
 31
0.0
  0
LINE
  5
490
100
AcDbEntity
  8
LAY-1
  6
CONTINUOUS
 62
     2
100
AcDbLine
 10
139.444981
 20
547.208
 30
0.0
 11
142.474089
 21
547.208
 31
0.0
  0
LINE
  5
491
100
AcDbEntity
  8
LAY-1
  6
CONTINUOUS
 62
     2
100
AcDbLine
 10
144.572488
 20
547.208
 30
0.0
 11
147.812334
 21
547.208
 31
0.0
  0
LINE
  5
492
100
AcDbEntity
  8
LAY-1
  6
CONTINUOUS
 62
     2
100
AcDbLine
 10
152.648
 20
547.208
 30
0.0
 11
163.904
 21
547.208
 31
0.0
  0
LINE
  5
493
100
AcDbEntity
  8
LAY-1
  6
CONTINUOUS
 62
     2
100
AcDbLine
 10
165.164
 20
547.208
 30
0.0
 11
168.02
 21
547.208
 31
0.0
  0
LINE
  5
494
100
AcDbEntity
  8
LAY-1
  6
CONTINUOUS
 62
     2
100
AcDbLine
 10
170.030441
 20
547.208
 30
0.0
 11
172.442353
 21
547.208
 31
0.0
  0
LINE
  5
495
100
AcDbEntity
  8
LAY-1
  6
CONTINUOUS
 62
     2
100
AcDbLine
 10
173.9
 20
547.208
 30
0.0
 11
176.756
 21
547.208
 31
0.0
  0
LINE
  5
496
100
AcDbEntity
  8
LAY-1
  6
CONTINUOUS
 62
     2
100
AcDbLine
 10
118.46
 20
546.788
 30
0.0
 11
121.4
 21
546.788
 31
0.0
  0
LINE
  5
497
100
AcDbEntity
  8
LAY-1
  6
CONTINUOUS
 62
     2
100
AcDbLine
 10
124.715711
 20
546.788
 30
0.0
 11
127.760309
 21
546.788
 31
0.0
  0
LINE
  5
498
100
AcDbEntity
  8
LAY-1
  6
CONTINUOUS
 62
     2
100
AcDbLine
 10
129.207963
 20
546.788
 30
0.0
 11
137.952037
 21
546.788
 31
0.0
  0
LINE
  5
499
100
AcDbEntity
  8
LAY-1
  6
CONTINUOUS
 62
     2
100
AcDbLine
 10
139.399691
 20
546.788
 30
0.0
 11
142.444289
 21
546.788
 31
0.0
  0
LINE
  5
49A
100
AcDbEntity
  8
LAY-1
  6
CONTINUOUS
 62
     2
100
AcDbLine
 10
144.193859
 20
546.788
 30
0.0
 11
147.433704
 21
546.788
 31
0.0
  0
LINE
  5
49B
100
AcDbEntity
  8
LAY-1
  6
CONTINUOUS
 62
     2
100
AcDbLine
 10
152.648
 20
546.788
 30
0.0
 11
163.904
 21
546.788
 31
0.0
  0
LINE
  5
49C
100
AcDbEntity
  8
LAY-1
  6
CONTINUOUS
 62
     2
100
AcDbLine
 10
165.164
 20
546.788
 30
0.0
 11
168.02
 21
546.788
 31
0.0
  0
LINE
  5
49D
100
AcDbEntity
  8
LAY-1
  6
CONTINUOUS
 62
     2
100
AcDbLine
 10
170.306838
 20
546.788
 30
0.0
 11
172.71875
 21
546.788
 31
0.0
  0
LINE
  5
49E
100
AcDbEntity
  8
LAY-1
  6
CONTINUOUS
 62
     2
100
AcDbLine
 10
173.9
 20
546.788
 30
0.0
 11
176.756
 21
546.788
 31
0.0
  0
LINE
  5
49F
100
AcDbEntity
  8
LAY-1
  6
CONTINUOUS
 62
     2
100
AcDbLine
 10
118.46
 20
546.368
 30
0.0
 11
121.4
 21
546.368
 31
0.0
  0
LINE
  5
4A0
100
AcDbEntity
  8
LAY-1
  6
CONTINUOUS
 62
     2
100
AcDbLine
 10
124.765602
 20
546.368
 30
0.0
 11
127.836586
 21
546.368
 31
0.0
  0
LINE
  5
4A1
100
AcDbEntity
  8
LAY-1
  6
CONTINUOUS
 62
     2
100
AcDbLine
 10
129.310023
 20
546.368
 30
0.0
 11
137.849977
 21
546.368
 31
0.0
  0
LINE
  5
4A2
100
AcDbEntity
  8
LAY-1
  6
CONTINUOUS
 62
     2
100
AcDbLine
 10
139.323414
 20
546.368
 30
0.0
 11
142.394398
 21
546.368
 31
0.0
  0
LINE
  5
4A3
100
AcDbEntity
  8
LAY-1
  6
CONTINUOUS
 62
     2
100
AcDbLine
 10
143.815229
 20
546.368
 30
0.0
 11
147.055075
 21
546.368
 31
0.0
  0
LINE
  5
4A4
100
AcDbEntity
  8
LAY-1
  6
CONTINUOUS
 62
     2
100
AcDbLine
 10
152.648
 20
546.368
 30
0.0
 11
155.588
 21
546.368
 31
0.0
  0
LINE
  5
4A5
100
AcDbEntity
  8
LAY-1
  6
CONTINUOUS
 62
     2
100
AcDbLine
 10
165.164
 20
546.368
 30
0.0
 11
168.02
 21
546.368
 31
0.0
  0
LINE
  5
4A6
100
AcDbEntity
  8
LAY-1
  6
CONTINUOUS
 62
     2
100
AcDbLine
 10
170.583235
 20
546.368
 30
0.0
 11
172.995147
 21
546.368
 31
0.0
  0
LINE
  5
4A7
100
AcDbEntity
  8
LAY-1
  6
CONTINUOUS
 62
     2
100
AcDbLine
 10
173.9
 20
546.368
 30
0.0
 11
176.756
 21
546.368
 31
0.0
  0
LINE
  5
4A8
100
AcDbEntity
  8
LAY-1
  6
CONTINUOUS
 62
     2
100
AcDbLine
 10
118.46
 20
545.948
 30
0.0
 11
121.4
 21
545.948
 31
0.0
  0
LINE
  5
4A9
100
AcDbEntity
  8
LAY-1
  6
CONTINUOUS
 62
     2
100
AcDbLine
 10
124.835927
 20
545.948
 30
0.0
 11
127.945109
 21
545.948
 31
0.0
  0
LINE
  5
4AA
100
AcDbEntity
  8
LAY-1
  6
CONTINUOUS
 62
     2
100
AcDbLine
 10
129.457149
 20
545.948
 30
0.0
 11
137.702851
 21
545.948
 31
0.0
  0
LINE
  5
4AB
100
AcDbEntity
  8
LAY-1
  6
CONTINUOUS
 62
     2
100
AcDbLine
 10
139.214891
 20
545.948
 30
0.0
 11
142.324073
 21
545.948
 31
0.0
  0
LINE
  5
4AC
100
AcDbEntity
  8
LAY-1
  6
CONTINUOUS
 62
     2
100
AcDbLine
 10
143.4366
 20
545.948
 30
0.0
 11
146.676445
 21
545.948
 31
0.0
  0
LINE
  5
4AD
100
AcDbEntity
  8
LAY-1
  6
CONTINUOUS
 62
     2
100
AcDbLine
 10
152.648
 20
545.948
 30
0.0
 11
155.588
 21
545.948
 31
0.0
  0
LINE
  5
4AE
100
AcDbEntity
  8
LAY-1
  6
CONTINUOUS
 62
     2
100
AcDbLine
 10
165.164
 20
545.948
 30
0.0
 11
168.02
 21
545.948
 31
0.0
  0
LINE
  5
4AF
100
AcDbEntity
  8
LAY-1
  6
CONTINUOUS
 62
     2
100
AcDbLine
 10
170.859632
 20
545.948
 30
0.0
 11
173.271544
 21
545.948
 31
0.0
  0
LINE
  5
4B0
100
AcDbEntity
  8
LAY-1
  6
CONTINUOUS
 62
     2
100
AcDbLine
 10
173.9
 20
545.948
 30
0.0
 11
176.756
 21
545.948
 31
0.0
  0
LINE
  5
4B1
100
AcDbEntity
  8
LAY-1
  6
CONTINUOUS
 62
     2
100
AcDbLine
 10
118.46
 20
545.528
 30
0.0
 11
121.4
 21
545.528
 31
0.0
  0
LINE
  5
4B2
100
AcDbEntity
  8
LAY-1
  6
CONTINUOUS
 62
     2
100
AcDbLine
 10
124.927185
 20
545.528
 30
0.0
 11
128.087787
 21
545.528
 31
0.0
  0
LINE
  5
4B3
100
AcDbEntity
  8
LAY-1
  6
CONTINUOUS
 62
     2
100
AcDbLine
 10
129.654404
 20
545.528
 30
0.0
 11
137.505596
 21
545.528
 31
0.0
  0
LINE
  5
4B4
100
AcDbEntity
  8
LAY-1
  6
CONTINUOUS
 62
     2
100
AcDbLine
 10
139.072213
 20
545.528
 30
0.0
 11
142.232815
 21
545.528
 31
0.0
  0
LINE
  5
4B5
100
AcDbEntity
  8
LAY-1
  6
CONTINUOUS
 62
     2
100
AcDbLine
 10
143.120758
 20
545.528
 30
0.0
 11
146.297816
 21
545.528
 31
0.0
  0
LINE
  5
4B6
100
AcDbEntity
  8
LAY-1
  6
CONTINUOUS
 62
     2
100
AcDbLine
 10
152.648
 20
545.528
 30
0.0
 11
155.588
 21
545.528
 31
0.0
  0
LINE
  5
4B7
100
AcDbEntity
  8
LAY-1
  6
CONTINUOUS
 62
     2
100
AcDbLine
 10
165.164
 20
545.528
 30
0.0
 11
168.02
 21
545.528
 31
0.0
  0
LINE
  5
4B8
100
AcDbEntity
  8
LAY-1
  6
CONTINUOUS
 62
     2
100
AcDbLine
 10
171.136029
 20
545.528
 30
0.0
 11
173.547941
 21
545.528
 31
0.0
  0
LINE
  5
4B9
100
AcDbEntity
  8
LAY-1
  6
CONTINUOUS
 62
     2
100
AcDbLine
 10
173.9
 20
545.528
 30
0.0
 11
176.756
 21
545.528
 31
0.0
  0
LINE
  5
4BA
100
AcDbEntity
  8
LAY-1
  6
CONTINUOUS
 62
     2
100
AcDbLine
 10
118.46
 20
545.108
 30
0.0
 11
121.4
 21
545.108
 31
0.0
  0
LINE
  5
4BB
100
AcDbEntity
  8
LAY-1
  6
CONTINUOUS
 62
     2
100
AcDbLine
 10
125.040046
 20
545.108
 30
0.0
 11
128.267374
 21
545.108
 31
0.0
  0
LINE
  5
4BC
100
AcDbEntity
  8
LAY-1
  6
CONTINUOUS
 62
     2
100
AcDbLine
 10
129.909863
 20
545.108
 30
0.0
 11
137.250137
 21
545.108
 31
0.0
  0
LINE
  5
4BD
100
AcDbEntity
  8
LAY-1
  6
CONTINUOUS
 62
     2
100
AcDbLine
 10
138.892626
 20
545.108
 30
0.0
 11
142.119954
 21
545.108
 31
0.0
  0
LINE
  5
4BE
100
AcDbEntity
  8
LAY-1
  6
CONTINUOUS
 62
     2
100
AcDbLine
 10
143.01852
 20
545.108
 30
0.0
 11
145.919186
 21
545.108
 31
0.0
  0
LINE
  5
4BF
100
AcDbEntity
  8
LAY-1
  6
CONTINUOUS
 62
     2
100
AcDbLine
 10
152.648
 20
545.108
 30
0.0
 11
155.588
 21
545.108
 31
0.0
  0
LINE
  5
4C0
100
AcDbEntity
  8
LAY-1
  6
CONTINUOUS
 62
     2
100
AcDbLine
 10
165.164
 20
545.108
 30
0.0
 11
168.02
 21
545.108
 31
0.0
  0
LINE
  5
4C1
100
AcDbEntity
  8
LAY-1
  6
CONTINUOUS
 62
     2
100
AcDbLine
 10
171.412426
 20
545.108
 30
0.0
 11
173.824338
 21
545.108
 31
0.0
  0
LINE
  5
4C2
100
AcDbEntity
  8
LAY-1
  6
CONTINUOUS
 62
     2
100
AcDbLine
 10
173.9
 20
545.108
 30
0.0
 11
176.756
 21
545.108
 31
0.0
  0
LINE
  5
4C3
100
AcDbEntity
  8
LAY-1
  6
CONTINUOUS
 62
     2
100
AcDbLine
 10
118.46
 20
544.688
 30
0.0
 11
121.4
 21
544.688
 31
0.0
  0
LINE
  5
4C4
100
AcDbEntity
  8
LAY-1
  6
CONTINUOUS
 62
     2
100
AcDbLine
 10
125.175381
 20
544.688
 30
0.0
 11
128.487771
 21
544.688
 31
0.0
  0
LINE
  5
4C5
100
AcDbEntity
  8
LAY-1
  6
CONTINUOUS
 62
     2
100
AcDbLine
 10
130.236842
 20
544.688
 30
0.0
 11
136.923158
 21
544.688
 31
0.0
  0
LINE
  5
4C6
100
AcDbEntity
  8
LAY-1
  6
CONTINUOUS
 62
     2
100
AcDbLine
 10
138.672229
 20
544.688
 30
0.0
 11
141.984619
 21
544.688
 31
0.0
  0
LINE
  5
4C7
100
AcDbEntity
  8
LAY-1
  6
CONTINUOUS
 62
     2
100
AcDbLine
 10
142.896248
 20
544.688
 30
0.0
 11
145.540557
 21
544.688
 31
0.0
  0
LINE
  5
4C8
100
AcDbEntity
  8
LAY-1
  6
CONTINUOUS
 62
     2
100
AcDbLine
 10
152.648
 20
544.688
 30
0.0
 11
155.588
 21
544.688
 31
0.0
  0
LINE
  5
4C9
100
AcDbEntity
  8
LAY-1
  6
CONTINUOUS
 62
     2
100
AcDbLine
 10
165.164
 20
544.688
 30
0.0
 11
168.02
 21
544.688
 31
0.0
  0
LINE
  5
4CA
100
AcDbEntity
  8
LAY-1
  6
CONTINUOUS
 62
     2
100
AcDbLine
 10
171.688824
 20
544.688
 30
0.0
 11
176.756
 21
544.688
 31
0.0
  0
LINE
  5
4CB
100
AcDbEntity
  8
LAY-1
  6
CONTINUOUS
 62
     2
100
AcDbLine
 10
118.46
 20
544.268
 30
0.0
 11
121.4
 21
544.268
 31
0.0
  0
LINE
  5
4CC
100
AcDbEntity
  8
LAY-1
  6
CONTINUOUS
 62
     2
100
AcDbLine
 10
125.334297
 20
544.268
 30
0.0
 11
128.754567
 21
544.268
 31
0.0
  0
LINE
  5
4CD
100
AcDbEntity
  8
LAY-1
  6
CONTINUOUS
 62
     2
100
AcDbLine
 10
130.659263
 20
544.268
 30
0.0
 11
136.500737
 21
544.268
 31
0.0
  0
LINE
  5
4CE
100
AcDbEntity
  8
LAY-1
  6
CONTINUOUS
 62
     2
100
AcDbLine
 10
138.405433
 20
544.268
 30
0.0
 11
141.825703
 21
544.268
 31
0.0
  0
LINE
  5
4CF
100
AcDbEntity
  8
LAY-1
  6
CONTINUOUS
 62
     2
100
AcDbLine
 10
142.753138
 20
544.268
 30
0.0
 11
151.22
 21
544.268
 31
0.0
  0
LINE
  5
4D0
100
AcDbEntity
  8
LAY-1
  6
CONTINUOUS
 62
     2
100
AcDbLine
 10
152.648
 20
544.268
 30
0.0
 11
163.904
 21
544.268
 31
0.0
  0
LINE
  5
4D1
100
AcDbEntity
  8
LAY-1
  6
CONTINUOUS
 62
     2
100
AcDbLine
 10
165.164
 20
544.268
 30
0.0
 11
168.02
 21
544.268
 31
0.0
  0
LINE
  5
4D2
100
AcDbEntity
  8
LAY-1
  6
CONTINUOUS
 62
     2
100
AcDbLine
 10
171.965221
 20
544.268
 30
0.0
 11
176.756
 21
544.268
 31
0.0
  0
LINE
  5
4D3
100
AcDbEntity
  8
LAY-1
  6
CONTINUOUS
 62
     2
100
AcDbLine
 10
118.46
 20
543.848
 30
0.0
 11
121.4
 21
543.848
 31
0.0
  0
LINE
  5
4D4
100
AcDbEntity
  8
LAY-1
  6
CONTINUOUS
 62
     2
100
AcDbLine
 10
125.518188
 20
543.848
 30
0.0
 11
129.076002
 21
543.848
 31
0.0
  0
LINE
  5
4D5
100
AcDbEntity
  8
LAY-1
  6
CONTINUOUS
 62
     2
100
AcDbLine
 10
131.228
 20
543.848
 30
0.0
 11
135.932
 21
543.848
 31
0.0
  0
LINE
  5
4D6
100
AcDbEntity
  8
LAY-1
  6
CONTINUOUS
 62
     2
100
AcDbLine
 10
138.083998
 20
543.848
 30
0.0
 11
141.641812
 21
543.848
 31
0.0
  0
LINE
  5
4D7
100
AcDbEntity
  8
LAY-1
  6
CONTINUOUS
 62
     2
100
AcDbLine
 10
142.5882
 20
543.848
 30
0.0
 11
151.22
 21
543.848
 31
0.0
  0
LINE
  5
4D8
100
AcDbEntity
  8
LAY-1
  6
CONTINUOUS
 62
     2
100
AcDbLine
 10
152.648
 20
543.848
 30
0.0
 11
163.904
 21
543.848
 31
0.0
  0
LINE
  5
4D9
100
AcDbEntity
  8
LAY-1
  6
CONTINUOUS
 62
     2
100
AcDbLine
 10
165.164
 20
543.848
 30
0.0
 11
168.02
 21
543.848
 31
0.0
  0
LINE
  5
4DA
100
AcDbEntity
  8
LAY-1
  6
CONTINUOUS
 62
     2
100
AcDbLine
 10
172.241618
 20
543.848
 30
0.0
 11
176.756
 21
543.848
 31
0.0
  0
LINE
  5
4DB
100
AcDbEntity
  8
LAY-1
  6
CONTINUOUS
 62
     2
100
AcDbLine
 10
118.46
 20
543.428
 30
0.0
 11
121.4
 21
543.428
 31
0.0
  0
LINE
  5
4DC
100
AcDbEntity
  8
LAY-1
  6
CONTINUOUS
 62
     2
100
AcDbLine
 10
125.728808
 20
543.428
 30
0.0
 11
129.464857
 21
543.428
 31
0.0
  0
LINE
  5
4DD
100
AcDbEntity
  8
LAY-1
  6
CONTINUOUS
 62
     2
100
AcDbLine
 10
132.103415
 20
543.428
 30
0.0
 11
135.056585
 21
543.428
 31
0.0
  0
LINE
  5
4DE
100
AcDbEntity
  8
LAY-1
  6
CONTINUOUS
 62
     2
100
AcDbLine
 10
137.695143
 20
543.428
 30
0.0
 11
141.431192
 21
543.428
 31
0.0
  0
LINE
  5
4DF
100
AcDbEntity
  8
LAY-1
  6
CONTINUOUS
 62
     2
100
AcDbLine
 10
142.400208
 20
543.428
 30
0.0
 11
151.22
 21
543.428
 31
0.0
  0
LINE
  5
4E0
100
AcDbEntity
  8
LAY-1
  6
CONTINUOUS
 62
     2
100
AcDbLine
 10
152.648
 20
543.428
 30
0.0
 11
163.904
 21
543.428
 31
0.0
  0
LINE
  5
4E1
100
AcDbEntity
  8
LAY-1
  6
CONTINUOUS
 62
     2
100
AcDbLine
 10
165.164
 20
543.428
 30
0.0
 11
168.02
 21
543.428
 31
0.0
  0
LINE
  5
4E2
100
AcDbEntity
  8
LAY-1
  6
CONTINUOUS
 62
     2
100
AcDbLine
 10
172.518015
 20
543.428
 30
0.0
 11
176.756
 21
543.428
 31
0.0
  0
LINE
  5
4E3
100
AcDbEntity
  8
LAY-1
  6
CONTINUOUS
 62
     2
100
AcDbLine
 10
118.46
 20
543.008
 30
0.0
 11
121.4
 21
543.008
 31
0.0
  0
LINE
  5
4E4
100
AcDbEntity
  8
LAY-1
  6
CONTINUOUS
 62
     2
100
AcDbLine
 10
125.968376
 20
543.008
 30
0.0
 11
129.942693
 21
543.008
 31
0.0
  0
LINE
  5
4E5
100
AcDbEntity
  8
LAY-1
  6
CONTINUOUS
 62
     2
100
AcDbLine
 10
137.217307
 20
543.008
 30
0.0
 11
141.191624
 21
543.008
 31
0.0
  0
LINE
  5
4E6
100
AcDbEntity
  8
LAY-1
  6
CONTINUOUS
 62
     2
100
AcDbLine
 10
142.187652
 20
543.008
 30
0.0
 11
151.22
 21
543.008
 31
0.0
  0
LINE
  5
4E7
100
AcDbEntity
  8
LAY-1
  6
CONTINUOUS
 62
     2
100
AcDbLine
 10
152.648
 20
543.008
 30
0.0
 11
163.904
 21
543.008
 31
0.0
  0
LINE
  5
4E8
100
AcDbEntity
  8
LAY-1
  6
CONTINUOUS
 62
     2
100
AcDbLine
 10
165.164
 20
543.008
 30
0.0
 11
168.02
 21
543.008
 31
0.0
  0
LINE
  5
4E9
100
AcDbEntity
  8
LAY-1
  6
CONTINUOUS
 62
     2
100
AcDbLine
 10
172.794412
 20
543.008
 30
0.0
 11
176.756
 21
543.008
 31
0.0
  0
LINE
  5
4EA
100
AcDbEntity
  8
LAY-1
  6
CONTINUOUS
 62
     2
100
AcDbLine
 10
118.46
 20
542.588
 30
0.0
 11
121.4
 21
542.588
 31
0.0
  0
LINE
  5
4EB
100
AcDbEntity
  8
LAY-1
  6
CONTINUOUS
 62
     2
100
AcDbLine
 10
126.239726
 20
542.588
 30
0.0
 11
130.551337
 21
542.588
 31
0.0
  0
LINE
  5
4EC
100
AcDbEntity
  8
LAY-1
  6
CONTINUOUS
 62
     2
100
AcDbLine
 10
136.608663
 20
542.588
 30
0.0
 11
140.920274
 21
542.588
 31
0.0
  0
LINE
  5
4ED
100
AcDbEntity
  8
LAY-1
  6
CONTINUOUS
 62
     2
100
AcDbLine
 10
141.94866
 20
542.588
 30
0.0
 11
151.22
 21
542.588
 31
0.0
  0
LINE
  5
4EE
100
AcDbEntity
  8
LAY-1
  6
CONTINUOUS
 62
     2
100
AcDbLine
 10
152.648
 20
542.588
 30
0.0
 11
163.904
 21
542.588
 31
0.0
  0
LINE
  5
4EF
100
AcDbEntity
  8
LAY-1
  6
CONTINUOUS
 62
     2
100
AcDbLine
 10
165.164
 20
542.588
 30
0.0
 11
168.02
 21
542.588
 31
0.0
  0
LINE
  5
4F0
100
AcDbEntity
  8
LAY-1
  6
CONTINUOUS
 62
     2
100
AcDbLine
 10
173.070809
 20
542.588
 30
0.0
 11
176.756
 21
542.588
 31
0.0
  0
LINE
  5
4F1
100
AcDbEntity
  8
LAY-1
  6
CONTINUOUS
 62
     2
100
AcDbLine
 10
118.46
 20
542.168
 30
0.0
 11
121.4
 21
542.168
 31
0.0
  0
LINE
  5
4F2
100
AcDbEntity
  8
LAY-1
  6
CONTINUOUS
 62
     2
100
AcDbLine
 10
126.546536
 20
542.168
 30
0.0
 11
131.397616
 21
542.168
 31
0.0
  0
LINE
  5
4F3
100
AcDbEntity
  8
LAY-1
  6
CONTINUOUS
 62
     2
100
AcDbLine
 10
135.762384
 20
542.168
 30
0.0
 11
140.613464
 21
542.168
 31
0.0
  0
LINE
  5
4F4
100
AcDbEntity
  8
LAY-1
  6
CONTINUOUS
 62
     2
100
AcDbLine
 10
141.680893
 20
542.168
 30
0.0
 11
151.22
 21
542.168
 31
0.0
  0
LINE
  5
4F5
100
AcDbEntity
  8
LAY-1
  6
CONTINUOUS
 62
     2
100
AcDbLine
 10
152.648
 20
542.168
 30
0.0
 11
163.904
 21
542.168
 31
0.0
  0
LINE
  5
4F6
100
AcDbEntity
  8
LAY-1
  6
CONTINUOUS
 62
     2
100
AcDbLine
 10
165.164
 20
542.168
 30
0.0
 11
168.02
 21
542.168
 31
0.0
  0
LINE
  5
4F7
100
AcDbEntity
  8
LAY-1
  6
CONTINUOUS
 62
     2
100
AcDbLine
 10
173.347206
 20
542.168
 30
0.0
 11
176.756
 21
542.168
 31
0.0
  0
LINE
  5
4F8
100
AcDbEntity
  8
LAY-1
  6
CONTINUOUS
 62
     2
100
AcDbLine
 10
118.46
 20
541.748
 30
0.0
 11
121.4
 21
541.748
 31
0.0
  0
LINE
  5
4F9
100
AcDbEntity
  8
LAY-1
  6
CONTINUOUS
 62
     2
100
AcDbLine
 10
126.893684
 20
541.748
 30
0.0
 11
140.266316
 21
541.748
 31
0.0
  0
LINE
  5
4FA
100
AcDbEntity
  8
LAY-1
  6
CONTINUOUS
 62
     2
100
AcDbLine
 10
141.381389
 20
541.748
 30
0.0
 11
151.22
 21
541.748
 31
0.0
  0
LINE
  5
4FB
100
AcDbEntity
  8
LAY-1
  6
CONTINUOUS
 62
     2
100
AcDbLine
 10
152.648
 20
541.748
 30
0.0
 11
163.904
 21
541.748
 31
0.0
  0
LINE
  5
4FC
100
AcDbEntity
  8
LAY-1
  6
CONTINUOUS
 62
     2
100
AcDbLine
 10
165.164
 20
541.748
 30
0.0
 11
168.02
 21
541.748
 31
0.0
  0
LINE
  5
4FD
100
AcDbEntity
  8
LAY-1
  6
CONTINUOUS
 62
     2
100
AcDbLine
 10
173.623603
 20
541.748
 30
0.0
 11
176.756
 21
541.748
 31
0.0
  0
LINE
  5
4FE
100
AcDbEntity
  8
LAY-1
  6
CONTINUOUS
 62
     2
100
AcDbLine
 10
127.287845
 20
541.328
 30
0.0
 11
139.872155
 21
541.328
 31
0.0
  0
LINE
  5
4FF
100
AcDbEntity
  8
LAY-1
  6
CONTINUOUS
 62
     2
100
AcDbLine
 10
127.738526
 20
540.908
 30
0.0
 11
139.421474
 21
540.908
 31
0.0
  0
LINE
  5
500
100
AcDbEntity
  8
LAY-1
  6
CONTINUOUS
 62
     2
100
AcDbLine
 10
128.260074
 20
540.488
 30
0.0
 11
138.899926
 21
540.488
 31
0.0
  0
LINE
  5
501
100
AcDbEntity
  8
LAY-1
  6
CONTINUOUS
 62
     2
100
AcDbLine
 10
128.876
 20
540.068
 30
0.0
 11
138.284
 21
540.068
 31
0.0
  0
LINE
  5
502
100
AcDbEntity
  8
LAY-1
  6
CONTINUOUS
 62
     2
100
AcDbLine
 10
129.630213
 20
539.648
 30
0.0
 11
137.529787
 21
539.648
 31
0.0
  0
LINE
  5
503
100
AcDbEntity
  8
LAY-1
  6
CONTINUOUS
 62
     2
100
AcDbLine
 10
130.62683
 20
539.228
 30
0.0
 11
136.53317
 21
539.228
 31
0.0
  0
LINE
  5
504
100
AcDbEntity
  8
LAY-1
  6
CONTINUOUS
 62
     2
100
AcDbLine
 10
132.35983
 20
538.808
 30
0.0
 11
134.80017
 21
538.808
 31
0.0
  0
TEXT
  5
506
100
AcDbEntity
  8
LAY-1
  6
CONTINUOUS
 62
     1
100
AcDbText
 10
187.150002
 20
-30.3
 30
0.0
 40
11.25
  1
スケールは１／１０となっています。必要に応じてサイズを１０倍して下さい。
 41
0.966667
  7
EXCADTTF1
 72
     5
 11
709.650002
 21
-30.3
 31
0.0
100
AcDbText
  0
ENDSEC
  0
SECTION
  2
OBJECTS
  0
DICTIONARY
  5
19
100
AcDbDictionary
  3
ACAD_GROUP
350
1A
  3
ACAD_MLINESTYLE
350
1B
  0
DICTIONARY
  5
1A
102
{ACAD_REACTORS
330
19
102
}
100
AcDbDictionary
  0
DICTIONARY
  5
1B
102
{ACAD_REACTORS
330
19
102
}
100
AcDbDictionary
  3
STANDARD
350
1C
  0
MLINESTYLE
  5
1C
102
{ACAD_REACTORS
330
1B
102
}
100
AcDbMlineStyle
  2
Standard
 70
     0
  3

 62
     0
 51
90.0
 52
90.0
 71
     2
 49
0.5
 62
   256
  6
ByLayer
 49
-0.5
 62
   256
  6
ByLayer
  0
ENDSEC
  0
EOF
