  0
SECTION
  2
HEADER
  9
$ACADVER
  1
AC1014
  9
$ACADMAINTVER
 70
     0
  9
$DWGCODEPAGE
  3
DOS932
  9
$INSBASE
 10
0.0
 20
0.0
 30
0.0
  9
$EXTMIN
 10
31.378571
 20
-33.2
 30
0.0
  9
$EXTMAX
 10
811.478571
 20
559.6
 30
0.0
  9
$LIMMIN
 10
0.0
 20
0.0
  9
$LIMMAX
 10
841.0
 20
594.0
  9
$ORTHOMODE
 70
     0
  9
$REGENMODE
 70
     1
  9
$FILLMODE
 70
     1
  9
$QTEXTMODE
 70
     0
  9
$MIRRTEXT
 70
     1
  9
$DRAGMODE
 70
     2
  9
$LTSCALE
 40
1.0
  9
$OSMODE
 70
     0
  9
$ATTMODE
 70
     1
  9
$TEXTSIZE
 40
0.2
  9
$TRACEWID
 40
0.05
  9
$TEXTSTYLE
  7
STANDARD
  9
$CLAYER
  8
LAY-1
  9
$CELTYPE
  6
CONTINUOUS
  9
$CECOLOR
 62
   256
  9
$CELTSCALE
 40
1.0
  9
$DELOBJ
 70
     1
  9
$DISPSILH
 70
     0
  9
$DIMSCALE
 40
1.0
  9
$DIMASZ
 40
0.18
  9
$DIMEXO
 40
0.0625
  9
$DIMDLI
 40
0.38
  9
$DIMRND
 40
0.0
  9
$DIMDLE
 40
0.0
  9
$DIMEXE
 40
0.18
  9
$DIMTP
 40
0.0
  9
$DIMTM
 40
0.0
  9
$DIMTXT
 40
0.18
  9
$DIMCEN
 40
0.09
  9
$DIMTSZ
 40
0.0
  9
$DIMTOL
 70
     0
  9
$DIMLIM
 70
     0
  9
$DIMTIH
 70
     1
  9
$DIMTOH
 70
     1
  9
$DIMSE1
 70
     0
  9
$DIMSE2
 70
     0
  9
$DIMTAD
 70
     0
  9
$DIMZIN
 70
     0
  9
$DIMBLK
  1

  9
$DIMASO
 70
     1
  9
$DIMSHO
 70
     1
  9
$DIMPOST
  1

  9
$DIMAPOST
  1

  9
$DIMALT
 70
     0
  9
$DIMALTD
 70
     2
  9
$DIMALTF
 40
25.4
  9
$DIMLFAC
 40
1.0
  9
$DIMTOFL
 70
     0
  9
$DIMTVP
 40
0.0
  9
$DIMTIX
 70
     0
  9
$DIMSOXD
 70
     0
  9
$DIMSAH
 70
     0
  9
$DIMBLK1
  1

  9
$DIMBLK2
  1

  9
$DIMSTYLE
  2
STANDARD
  9
$DIMCLRD
 70
     0
  9
$DIMCLRE
 70
     0
  9
$DIMCLRT
 70
     0
  9
$DIMTFAC
 40
1.0
  9
$DIMGAP
 40
0.09
  9
$DIMJUST
 70
     0
  9
$DIMSD1
 70
     0
  9
$DIMSD2
 70
     0
  9
$DIMTOLJ
 70
     1
  9
$DIMTZIN
 70
     0
  9
$DIMALTZ
 70
     0
  9
$DIMALTTZ
 70
     0
  9
$DIMFIT
 70
     3
  9
$DIMUPT
 70
     0
  9
$DIMUNIT
 70
     2
  9
$DIMDEC
 70
     4
  9
$DIMTDEC
 70
     4
  9
$DIMALTU
 70
     2
  9
$DIMALTTD
 70
     2
  9
$DIMTXSTY
  7
STANDARD
  9
$DIMAUNIT
 70
     0
  9
$LUNITS
 70
     2
  9
$LUPREC
 70
     4
  9
$SKETCHINC
 40
0.1
  9
$FILLETRAD
 40
0.0
  9
$AUNITS
 70
     0
  9
$AUPREC
 70
     0
  9
$MENU
  1
acad
  9
$ELEVATION
 40
0.0
  9
$PELEVATION
 40
0.0
  9
$THICKNESS
 40
0.0
  9
$LIMCHECK
 70
     0
  9
$BLIPMODE
 70
     1
  9
$CHAMFERA
 40
0.0
  9
$CHAMFERB
 40
0.0
  9
$CHAMFERC
 40
0.0
  9
$CHAMFERD
 40
0.0
  9
$SKPOLY
 70
     0
  9
$TDCREATE
 40
2453502.818077847
  9
$TDUPDATE
 40
2453502.818077847
  9
$TDINDWG
 40
0.0000000000
  9
$TDUSRTIMER
 40
0.0000000000
  9
$USRTIMER
 70
     1
  9
$ANGBASE
 50
0.0
  9
$ANGDIR
 70
     0
  9
$PDMODE
 70
     0
  9
$PDSIZE
 40
0.0
  9
$PLINEWID
 40
0.0
  9
$COORDS
 70
     1
  9
$SPLFRAME
 70
     0
  9
$SPLINETYPE
 70
     6
  9
$SPLINESEGS
 70
     8
  9
$ATTDIA
 70
     0
  9
$ATTREQ
 70
     1
  9
$HANDLING
 70
     1
  9
$HANDSEED
  5
560
  9
$SURFTAB1
 70
     6
  9
$SURFTAB2
 70
     6
  9
$SURFTYPE
 70
     6
  9
$SURFU
 70
     6
  9
$SURFV
 70
     6
  9
$UCSNAME
  2

  9
$UCSORG
 10
0.0
 20
0.0
 30
0.0
  9
$UCSXDIR
 10
1.0
 20
0.0
 30
0.0
  9
$UCSYDIR
 10
0.0
 20
1.0
 30
0.0
  9
$PUCSNAME
  2

  9
$PUCSORG
 10
0.0
 20
0.0
 30
0.0
  9
$PUCSXDIR
 10
1.0
 20
0.0
 30
0.0
  9
$PUCSYDIR
 10
0.0
 20
1.0
 30
0.0
  9
$USERI1
 70
     0
  9
$USERI2
 70
     0
  9
$USERI3
 70
     0
  9
$USERI4
 70
     0
  9
$USERI5
 70
     0
  9
$USERR1
 40
0.0
  9
$USERR2
 40
0.0
  9
$USERR3
 40
0.0
  9
$USERR4
 40
0.0
  9
$USERR5
 40
0.0
  9
$WORLDVIEW
 70
     1
  9
$SHADEDGE
 70
     3
  9
$SHADEDIF
 70
    70
  9
$TILEMODE
 70
     1
  9
$MAXACTVP
 70
    16
  9
$PINSBASE
 10
0.0
 20
0.0
 30
0.0
  9
$PLIMCHECK
 70
     0
  9
$PEXTMIN
 10
1.000000E+20
 20
1.000000E+20
 30
1.000000E+20
  9
$PEXTMAX
 10
-1.000000E+20
 20
-1.000000E+20
 30
-1.000000E+20
  9
$PLIMMIN
 10
0.0
 20
0.0
  9
$PLIMMAX
 10
12.0
 20
9.0
  9
$UNITMODE
 70
     0
  9
$VISRETAIN
 70
     0
  9
$PLINEGEN
 70
     1
  9
$PSLTSCALE
 70
     0
  9
$TREEDEPTH
 70
  3020
  9
$PICKSTYLE
 70
     1
  9
$CMLSTYLE
  2
Standard
  9
$CMLJUST
 70
     0
  9
$CMLSCALE
 40
1.0
  9
$PROXYGRAPHICS
 70
     0
  9
$MEASUREMENT
 70
     0
  0
ENDSEC
  0
SECTION
  2
CLASSES
  0
CLASS
  1
LWPOLYLINE
  2
AcDbPolyline
  3
"AutoCAD"
 90
        0
280
     0
281
     1
  0
CLASS
  1
IMAGE
  2
AcDbRasterImage
  3
ISM
 90
      127
280
     0
281
     1
  0
CLASS
  1
OLE2FRAME
  2
AcDbOle2Frame
  3
""
 90
        0
280
     0
281
     1
  0
CLASS
  1
HATCH
  2
AcDbHatch
  3
"ACAD_SEDONA"
 90
        0
280
     0
281
     1
  0
CLASS
  1
DICTIONARYVAR
  2
AcDbDictionaryVar
  3
"AutoCAD"
 90
        0
280
     0
281
     0
  0
CLASS
  1
RASTERVARIABLES
  2
AcDbRasterVariables
  3
ISM
 90
        0
280
     0
281
     0
  0
CLASS
  1
IMAGEDEF
  2
AcDbRasterImageDef
  3
ISM
 90
        0
280
     0
281
     0
  0
CLASS
  1
IMAGEDEF_REACTOR
  2
AcDbRasterImageDefReactor
  3
ISM
 90
        1
280
     0
281
     0
  0
CLASS
  1
IDBUFFER
  2
AcDbIdBuffer
  3
"Acad"
 90
        0
280
     0
281
     0
  0
CLASS
  1
SPATIAL_FILTER
  2
AcDbSpatialFilter
  3
"Acad"
 90
        0
280
     0
281
     0
  0
CLASS
  1
XRECORD
  2
AcDbXrecord
  3
"<Built In>"
 90
        0
280
     0
281
     0
  0
CLASS
  1
SORTENTSTABLE
  2
AcDbSortentsTable
  3
"AutoCAD"
 90
        0
280
     0
281
     0
  0
CLASS
  1
LAYER_INDEX
  2
AcDbLayerIndex
  3
"Acad"
 90
        0
280
     0
281
     0
  0
CLASS
  1
SPATIAL_INDEX
  2
AcDbSpatialIndex
  3
"Acad"
 90
        0
280
     0
281
     0
  0
CLASS
  1
OBJECT_PTR
  2
CAseDLPNTableRecord
  3
"ASE-LPNTableRecord"
 90
        1
280
     0
281
     0
  0
CLASS
  1
LAYOUT
  2
AcDbLayout
  3
"AutoCAD 2000"
 90
        1
280
     0
281
     0
  0
CLASS
  1
PLOTSETTINGS
  2
AcDbPlotSettings
  3
"AutoCAD 2000"
 90
        1
280
     0
281
     0
  0
CLASS
  1
ACDBDICTIONARYWDFLT
  2
AcDbDictionaryWithDefault
  3
"AutoCAD 2000"
 90
        1
280
     0
281
     0
  0
CLASS
  1
ACDBPLACEHOLDER
  2
AcDbPlaceHolder
  3
"AutoCAD 2000"
 90
        1
280
     0
281
     0
  0
CLASS
  1
VBA_PROJECT
  2
AcDbVbaProject
  3
"acadvba"
 90
        1
280
     0
281
     0
  0
CLASS
  1
WIPEOUT
  2
AcDbWipeout
  3
WipeOut|AutoCAD Express Tool|expresstools@autodesk.com
 90
      127
280
     0
281
     1
  0
CLASS
  1
WIPEOUTVARIABLES
  2
AcDbWipeoutVariables
  3
WipeOut|AutoCAD Express Tool|expresstools@autodesk.com
 90
        0
280
     0
281
     0
  0
CLASS
  1
RTEXT
  2
RText
  3
RText|AutoCAD Express Tool|expresstools@autodesk.com
 90
        0
280
     0
281
     1
  0
CLASS
  1
ARCALIGNEDTEXT
  2
AcDbArcAlignedText
  3
ATEXT|AutoCAD Express Tool|expresstools@autodesk.com
 90
        0
280
     0
281
     1
  0
ENDSEC
  0
SECTION
  2
TABLES
  0
TABLE
  2
VPORT
  5
7
100
AcDbSymbolTable
 70
     1
  0
VPORT
  5
15
100
AcDbSymbolTableRecord
100
AcDbViewportTableRecord
  2
*ACTIVE
 70
     0
 10
0.0
 20
0.0
 11
1.0
 21
1.0
 12
421.428571
 22
263.2
 13
0.0
 23
0.0
 14
1.0
 24
1.0
 15
0.0
 25
0.0
 16
0.0
 26
0.0
 36
1.0
 17
0.0
 27
0.0
 37
0.0
 40
592.8
 41
1.722533
 42
50.0
 43
0.0
 44
0.0
 50
0.0
 51
0.0
 71
     0
 72
   100
 73
     1
 74
     1
 75
     0
 76
     0
 77
     0
 78
     0
  0
ENDTAB
  0
TABLE
  2
LTYPE
  5
4
100
AcDbSymbolTable
 70
     9
  0
LTYPE
  5
11
100
AcDbSymbolTableRecord
100
AcDbLinetypeTableRecord
  2
BYBLOCK
 70
    64
  3

 72
    65
 73
     0
 40
0.0
  0
LTYPE
  5
12
100
AcDbSymbolTableRecord
100
AcDbLinetypeTableRecord
  2
BYLAYER
 70
    64
  3

 72
    65
 73
     0
 40
0.0
  0
LTYPE
  5
13
100
AcDbSymbolTableRecord
100
AcDbLinetypeTableRecord
  2
CONTINUOUS
 70
    64
  3
実線
 72
    65
 73
     0
 40
0.0
  0
LTYPE
  5
1D
100
AcDbSymbolTableRecord
100
AcDbLinetypeTableRecord
  2
EXLTYPE1
 70
    64
  3
破線
 72
    65
 73
     2
 40
4.0
 49
3.0
 74
     0
 49
-1.0
 74
     0
  0
LTYPE
  5
1E
100
AcDbSymbolTableRecord
100
AcDbLinetypeTableRecord
  2
EXLTYPE2
 70
    64
  3
点線
 72
    65
 73
     2
 40
2.0
 49
1.0
 74
     0
 49
-1.0
 74
     0
  0
LTYPE
  5
1F
100
AcDbSymbolTableRecord
100
AcDbLinetypeTableRecord
  2
EXLTYPE3
 70
    64
  3
一点鎖線
 72
    65
 73
     4
 40
33.0
 49
30.0
 74
     0
 49
-1.0
 74
     0
 49
1.0
 74
     0
 49
-1.0
 74
     0
  0
LTYPE
  5
20
100
AcDbSymbolTableRecord
100
AcDbLinetypeTableRecord
  2
EXLTYPE4
 70
    64
  3
二点鎖線
 72
    65
 73
     6
 40
35.0
 49
30.0
 74
     0
 49
-1.0
 74
     0
 49
1.0
 74
     0
 49
-1.0
 74
     0
 49
1.0
 74
     0
 49
-1.0
 74
     0
  0
LTYPE
  5
21
100
AcDbSymbolTableRecord
100
AcDbLinetypeTableRecord
  2
EXLTYPE5
 70
    64
  3
三点鎖線
 72
    65
 73
     8
 40
37.0
 49
30.0
 74
     0
 49
-1.0
 74
     0
 49
1.0
 74
     0
 49
-1.0
 74
     0
 49
1.0
 74
     0
 49
-1.0
 74
     0
 49
1.0
 74
     0
 49
-1.0
 74
     0
  0
LTYPE
  5
22
100
AcDbSymbolTableRecord
100
AcDbLinetypeTableRecord
  2
EXLTYPE6
 70
    64
  3
四点鎖線
 72
    65
 73
    10
 40
39.0
 49
30.0
 74
     0
 49
-1.0
 74
     0
 49
1.0
 74
     0
 49
-1.0
 74
     0
 49
1.0
 74
     0
 49
-1.0
 74
     0
 49
1.0
 74
     0
 49
-1.0
 74
     0
 49
1.0
 74
     0
 49
-1.0
 74
     0
  0
ENDTAB
  0
TABLE
  2
LAYER
  5
2
100
AcDbSymbolTable
 70
     3
  0
LAYER
  5
14
100
AcDbSymbolTableRecord
100
AcDbLayerTableRecord
  2
0
 70
     0
 62
     7
  6
CONTINUOUS
  0
LAYER
  5
25
100
AcDbSymbolTableRecord
100
AcDbLayerTableRecord
  2
LAY-1
 70
    64
 62
     7
  6
CONTINUOUS
  0
LAYER
  5
26
100
AcDbSymbolTableRecord
100
AcDbLayerTableRecord
  2
LAY-2
 70
    64
 62
     7
  6
CONTINUOUS
  0
ENDTAB
  0
TABLE
  2
STYLE
  5
3
100
AcDbSymbolTable
 70
     4
  0
STYLE
  5
17
100
AcDbSymbolTableRecord
100
AcDbTextStyleTableRecord
  2
STANDARD
 70
     0
 40
0.0
 41
1.0
 50
0.0
 71
     0
 42
0.0
  3
monotxt
  4
extfont
  0
STYLE
  5
23
100
AcDbSymbolTableRecord
100
AcDbTextStyleTableRecord
  2
EXCADSTD
 70
    64
 40
0.0
 41
1.0
 50
0.0
 71
     0
 42
0.2
  3
monotxt
  4
extfont
  0
STYLE
  5
24
100
AcDbSymbolTableRecord
100
AcDbTextStyleTableRecord
  2
EXCADVERT
 70
    68
 40
0.0
 41
1.0
 50
0.0
 71
     0
 42
0.286885
  3
monotxt
  4
extfont
  0
STYLE
  5
43C
100
AcDbSymbolTableRecord
100
AcDbTextStyleTableRecord
  2
EXCADTTF1
 70
    64
 40
0.0
 41
1.0
 50
0.0
 71
     0
 42
0.2
  3
MS Gothic.ttf
  4

1001
ACAD
1000
MS Gothic
1071
    32817
  0
ENDTAB
  0
TABLE
  2
VIEW
  5
5
100
AcDbSymbolTable
 70
     0
  0
ENDTAB
  0
TABLE
  2
UCS
  5
6
100
AcDbSymbolTable
 70
     0
  0
ENDTAB
  0
TABLE
  2
APPID
  5
8
100
AcDbSymbolTable
 70
     1
  0
APPID
  5
16
100
AcDbSymbolTableRecord
100
AcDbRegAppTableRecord
  2
ACAD
 70
     0
  0
ENDTAB
  0
TABLE
  2
DIMSTYLE
  5
9
100
AcDbSymbolTable
 70
     1
  0
DIMSTYLE
105
18
100
AcDbSymbolTableRecord
100
AcDbDimStyleTableRecord
  2
STANDARD
 70
     0
  3

  4

  5

  6

  7

 40
1.0
 41
0.18
 42
0.0625
 43
0.38
 44
0.18
 45
0.0
 46
0.0
 47
0.0
 48
0.0
 71
     0
 72
     0
 73
     1
 74
     1
 75
     0
 76
     0
 77
     0
 78
     0
140
0.18
141
0.09
142
0.0
143
25.4
144
1.0
145
0.0
146
1.0
147
0.09
170
     0
171
     2
172
     0
173
     0
174
     0
175
     0
176
     0
177
     0
178
     0
270
     2
271
     4
272
     4
273
     2
274
     2
275
     0
280
     0
281
     0
282
     0
283
     1
284
     0
285
     0
286
     0
287
     0
288
     0
340
17
  0
ENDTAB
  0
TABLE
  2
BLOCK_RECORD
  5
1
100
AcDbSymbolTable
 70
    14
  0
BLOCK_RECORD
  5
A
100
AcDbSymbolTableRecord
100
AcDbBlockTableRecord
  2
*MODEL_SPACE
  0
BLOCK_RECORD
  5
B
100
AcDbSymbolTableRecord
100
AcDbBlockTableRecord
  2
*PAPER_SPACE
  0
BLOCK_RECORD
  5
27
100
AcDbSymbolTableRecord
100
AcDbBlockTableRecord
  2
_EX_NORM
  0
BLOCK_RECORD
  5
28
100
AcDbSymbolTableRecord
100
AcDbBlockTableRecord
  2
_EX_BNORM
  0
BLOCK_RECORD
  5
29
100
AcDbSymbolTableRecord
100
AcDbBlockTableRecord
  2
_EX_BCIR
  0
BLOCK_RECORD
  5
2A
100
AcDbSymbolTableRecord
100
AcDbBlockTableRecord
  2
_EX_RCIVIL
  0
BLOCK_RECORD
  5
2B
100
AcDbSymbolTableRecord
100
AcDbBlockTableRecord
  2
_EX_SLANT
  0
BLOCK_RECORD
  5
2C
100
AcDbSymbolTableRecord
100
AcDbBlockTableRecord
  2
_EX_NONE
  0
BLOCK_RECORD
  5
2D
100
AcDbSymbolTableRecord
100
AcDbBlockTableRecord
  2
_EX_CIVIL
  0
BLOCK_RECORD
  5
2E
100
AcDbSymbolTableRecord
100
AcDbBlockTableRecord
  2
_EX_WCIR
  0
BLOCK_RECORD
  5
2F
100
AcDbSymbolTableRecord
100
AcDbBlockTableRecord
  2
_EX_WCIR2
  0
BLOCK_RECORD
  5
30
100
AcDbSymbolTableRecord
100
AcDbBlockTableRecord
  2
_EX_WNORM
  0
BLOCK_RECORD
  5
31
100
AcDbSymbolTableRecord
100
AcDbBlockTableRecord
  2
_EX_NNORM
  0
BLOCK_RECORD
  5
32
100
AcDbSymbolTableRecord
100
AcDbBlockTableRecord
  2
_EX_BBOX
  0
BLOCK_RECORD
  5
33
100
AcDbSymbolTableRecord
100
AcDbBlockTableRecord
  2
_EX_WBOX
  0
BLOCK_RECORD
  5
34
100
AcDbSymbolTableRecord
100
AcDbBlockTableRecord
  2
_EX_INTEGRAL
  0
ENDTAB
  0
ENDSEC
  0
SECTION
  2
BLOCKS
  0
BLOCK
  5
D
100
AcDbEntity
  8
0
100
AcDbBlockBegin
  2
*MODEL_SPACE
 70
     0
 10
0.0
 20
0.0
 30
0.0
  3
*MODEL_SPACE
  1

  0
ENDBLK
  5
E
100
AcDbEntity
  8
0
100
AcDbBlockEnd
  0
BLOCK
  5
F
100
AcDbEntity
 67
     1
  8
0
100
AcDbBlockBegin
  2
*PAPER_SPACE
 70
     0
 10
0.0
 20
0.0
 30
0.0
  3
*PAPER_SPACE
  1

  0
ENDBLK
  5
10
100
AcDbEntity
 67
     1
  8
0
100
AcDbBlockEnd
  0
BLOCK
  5
35
100
AcDbEntity
  8
0
100
AcDbBlockBegin
  2
_EX_NORM
 70
     0
 10
0.0
 20
0.0
 30
0.0
  3
_EX_NORM
  1

  0
LINE
  5
36
100
AcDbEntity
  8
0
  6
CONTINUOUS
 62
     0
100
AcDbLine
 10
0.0
 20
0.0
 30
0.0
 11
-1.0
 21
0.0
 31
0.0
  0
LINE
  5
37
100
AcDbEntity
  8
0
  6
CONTINUOUS
 62
     0
100
AcDbLine
 10
0.0
 20
0.0
 30
0.0
 11
-1.0
 21
0.166667
 31
0.0
  0
LINE
  5
38
100
AcDbEntity
  8
0
  6
CONTINUOUS
 62
     0
100
AcDbLine
 10
0.0
 20
0.0
 30
0.0
 11
-1.0
 21
-0.166667
 31
0.0
  0
ENDBLK
  5
39
100
AcDbEntity
  8
0
100
AcDbBlockEnd
  0
BLOCK
  5
3A
100
AcDbEntity
  8
0
100
AcDbBlockBegin
  2
_EX_BNORM
 70
     0
 10
0.0
 20
0.0
 30
0.0
  3
_EX_BNORM
  1

  0
LINE
  5
3B
100
AcDbEntity
  8
0
  6
CONTINUOUS
 62
     0
100
AcDbLine
 10
0.0
 20
0.0
 30
0.0
 11
-1.0
 21
0.0
 31
0.0
  0
LINE
  5
3C
100
AcDbEntity
  8
0
  6
CONTINUOUS
 62
     0
100
AcDbLine
 10
0.0
 20
0.0
 30
0.0
 11
-1.0
 21
0.166667
 31
0.0
  0
LINE
  5
3D
100
AcDbEntity
  8
0
  6
CONTINUOUS
 62
     0
100
AcDbLine
 10
0.0
 20
0.0
 30
0.0
 11
-1.0
 21
-0.166667
 31
0.0
  0
LINE
  5
3E
100
AcDbEntity
  8
0
  6
CONTINUOUS
 62
     0
100
AcDbLine
 10
0.0
 20
0.0
 30
0.0
 11
-1.0
 21
0.083333
 31
0.0
  0
LINE
  5
3F
100
AcDbEntity
  8
0
  6
CONTINUOUS
 62
     0
100
AcDbLine
 10
0.0
 20
0.0
 30
0.0
 11
-1.0
 21
-0.083333
 31
0.0
  0
LINE
  5
40
100
AcDbEntity
  8
0
  6
CONTINUOUS
 62
     0
100
AcDbLine
 10
-1.0
 20
0.166667
 30
0.0
 11
-1.0
 21
-0.166667
 31
0.0
  0
ENDBLK
  5
41
100
AcDbEntity
  8
0
100
AcDbBlockEnd
  0
BLOCK
  5
42
100
AcDbEntity
  8
0
100
AcDbBlockBegin
  2
_EX_BCIR
 70
     0
 10
0.0
 20
0.0
 30
0.0
  3
_EX_BCIR
  1

  0
LINE
  5
43
100
AcDbEntity
  8
0
  6
CONTINUOUS
 62
     0
100
AcDbLine
 10
0.0
 20
0.0
 30
0.0
 11
-1.0
 21
0.0
 31
0.0
  0
CIRCLE
  5
44
100
AcDbEntity
  8
0
  6
CONTINUOUS
 62
     0
100
AcDbCircle
 10
0.0
 20
0.0
 30
0.0
 40
0.5
  0
CIRCLE
  5
45
100
AcDbEntity
  8
0
  6
CONTINUOUS
 62
     0
100
AcDbCircle
 10
0.0
 20
0.0
 30
0.0
 40
0.25
  0
ENDBLK
  5
46
100
AcDbEntity
  8
0
100
AcDbBlockEnd
  0
BLOCK
  5
47
100
AcDbEntity
  8
0
100
AcDbBlockBegin
  2
_EX_RCIVIL
 70
     0
 10
0.0
 20
0.0
 30
0.0
  3
_EX_RCIVIL
  1

  0
LINE
  5
48
100
AcDbEntity
  8
0
  6
CONTINUOUS
 62
     0
100
AcDbLine
 10
0.0
 20
0.0
 30
0.0
 11
-1.0
 21
0.0
 31
0.0
  0
LINE
  5
49
100
AcDbEntity
  8
0
  6
CONTINUOUS
 62
     0
100
AcDbLine
 10
-1.0
 20
-0.25
 30
0.0
 11
0.0
 21
-0.25
 31
0.0
  0
LINE
  5
4A
100
AcDbEntity
  8
0
  6
CONTINUOUS
 62
     0
100
AcDbLine
 10
-1.0
 20
-0.125
 30
0.0
 11
0.0
 21
-0.125
 31
0.0
  0
ENDBLK
  5
4B
100
AcDbEntity
  8
0
100
AcDbBlockEnd
  0
BLOCK
  5
4C
100
AcDbEntity
  8
0
100
AcDbBlockBegin
  2
_EX_SLANT
 70
     0
 10
0.0
 20
0.0
 30
0.0
  3
_EX_SLANT
  1

  0
LINE
  5
4D
100
AcDbEntity
  8
0
  6
CONTINUOUS
 62
     0
100
AcDbLine
 10
0.0
 20
0.0
 30
0.0
 11
-1.0
 21
0.0
 31
0.0
  0
LINE
  5
4E
100
AcDbEntity
  8
0
  6
CONTINUOUS
 62
     0
100
AcDbLine
 10
0.707107
 20
0.707107
 30
0.0
 11
-0.707107
 21
-0.707107
 31
0.0
  0
ENDBLK
  5
4F
100
AcDbEntity
  8
0
100
AcDbBlockEnd
  0
BLOCK
  5
50
100
AcDbEntity
  8
0
100
AcDbBlockBegin
  2
_EX_NONE
 70
     0
 10
0.0
 20
0.0
 30
0.0
  3
_EX_NONE
  1

  0
LINE
  5
51
100
AcDbEntity
  8
0
  6
CONTINUOUS
 62
     0
100
AcDbLine
 10
0.0
 20
0.0
 30
0.0
 11
-1.0
 21
0.0
 31
0.0
  0
ENDBLK
  5
52
100
AcDbEntity
  8
0
100
AcDbBlockEnd
  0
BLOCK
  5
53
100
AcDbEntity
  8
0
100
AcDbBlockBegin
  2
_EX_CIVIL
 70
     0
 10
0.0
 20
0.0
 30
0.0
  3
_EX_CIVIL
  1

  0
LINE
  5
54
100
AcDbEntity
  8
0
  6
CONTINUOUS
 62
     0
100
AcDbLine
 10
0.0
 20
0.0
 30
0.0
 11
-1.0
 21
0.0
 31
0.0
  0
LINE
  5
55
100
AcDbEntity
  8
0
  6
CONTINUOUS
 62
     0
100
AcDbLine
 10
-1.0
 20
0.25
 30
0.0
 11
0.0
 21
0.25
 31
0.0
  0
LINE
  5
56
100
AcDbEntity
  8
0
  6
CONTINUOUS
 62
     0
100
AcDbLine
 10
-1.0
 20
0.125
 30
0.0
 11
0.0
 21
0.125
 31
0.0
  0
ENDBLK
  5
57
100
AcDbEntity
  8
0
100
AcDbBlockEnd
  0
BLOCK
  5
58
100
AcDbEntity
  8
0
100
AcDbBlockBegin
  2
_EX_WCIR
 70
     0
 10
0.0
 20
0.0
 30
0.0
  3
_EX_WCIR
  1

  0
LINE
  5
59
100
AcDbEntity
  8
0
  6
CONTINUOUS
 62
     0
100
AcDbLine
 10
0.0
 20
0.0
 30
0.0
 11
-1.0
 21
0.0
 31
0.0
  0
CIRCLE
  5
5A
100
AcDbEntity
  8
0
  6
CONTINUOUS
 62
     0
100
AcDbCircle
 10
0.0
 20
0.0
 30
0.0
 40
0.5
  0
ENDBLK
  5
5B
100
AcDbEntity
  8
0
100
AcDbBlockEnd
  0
BLOCK
  5
5C
100
AcDbEntity
  8
0
100
AcDbBlockBegin
  2
_EX_WCIR2
 70
     0
 10
0.0
 20
0.0
 30
0.0
  3
_EX_WCIR2
  1

  0
LINE
  5
5D
100
AcDbEntity
  8
0
  6
CONTINUOUS
 62
     0
100
AcDbLine
 10
-0.5
 20
0.0
 30
0.0
 11
-1.0
 21
0.0
 31
0.0
  0
CIRCLE
  5
5E
100
AcDbEntity
  8
0
  6
CONTINUOUS
 62
     0
100
AcDbCircle
 10
0.0
 20
0.0
 30
0.0
 40
0.5
  0
ENDBLK
  5
5F
100
AcDbEntity
  8
0
100
AcDbBlockEnd
  0
BLOCK
  5
60
100
AcDbEntity
  8
0
100
AcDbBlockBegin
  2
_EX_WNORM
 70
     0
 10
0.0
 20
0.0
 30
0.0
  3
_EX_WNORM
  1

  0
LINE
  5
61
100
AcDbEntity
  8
0
  6
CONTINUOUS
 62
     0
100
AcDbLine
 10
-1.0
 20
0.0
 30
0.0
 11
-1.0
 21
0.0
 31
0.0
  0
LINE
  5
62
100
AcDbEntity
  8
0
  6
CONTINUOUS
 62
     0
100
AcDbLine
 10
0.0
 20
0.0
 30
0.0
 11
-1.0
 21
0.166667
 31
0.0
  0
LINE
  5
63
100
AcDbEntity
  8
0
  6
CONTINUOUS
 62
     0
100
AcDbLine
 10
0.0
 20
0.0
 30
0.0
 11
-1.0
 21
-0.166667
 31
0.0
  0
LINE
  5
64
100
AcDbEntity
  8
0
  6
CONTINUOUS
 62
     0
100
AcDbLine
 10
-1.0
 20
0.166667
 30
0.0
 11
-1.0
 21
-0.166667
 31
0.0
  0
ENDBLK
  5
65
100
AcDbEntity
  8
0
100
AcDbBlockEnd
  0
BLOCK
  5
66
100
AcDbEntity
  8
0
100
AcDbBlockBegin
  2
_EX_NNORM
 70
     0
 10
0.0
 20
0.0
 30
0.0
  3
_EX_NNORM
  1

  0
LINE
  5
67
100
AcDbEntity
  8
0
  6
CONTINUOUS
 62
     0
100
AcDbLine
 10
0.0
 20
0.0
 30
0.0
 11
-1.0
 21
0.0
 31
0.0
  0
LINE
  5
68
100
AcDbEntity
  8
0
  6
CONTINUOUS
 62
     0
100
AcDbLine
 10
0.0
 20
0.0
 30
0.0
 11
-1.0
 21
0.166667
 31
0.0
  0
LINE
  5
69
100
AcDbEntity
  8
0
  6
CONTINUOUS
 62
     0
100
AcDbLine
 10
0.0
 20
0.0
 30
0.0
 11
-1.0
 21
-0.166667
 31
0.0
  0
LINE
  5
6A
100
AcDbEntity
  8
0
  6
CONTINUOUS
 62
     0
100
AcDbLine
 10
-1.0
 20
0.166667
 30
0.0
 11
-1.0
 21
-0.166667
 31
0.0
  0
ENDBLK
  5
6B
100
AcDbEntity
  8
0
100
AcDbBlockEnd
  0
BLOCK
  5
6C
100
AcDbEntity
  8
0
100
AcDbBlockBegin
  2
_EX_BBOX
 70
     0
 10
0.0
 20
0.0
 30
0.0
  3
_EX_BBOX
  1

  0
LINE
  5
6D
100
AcDbEntity
  8
0
  6
CONTINUOUS
 62
     0
100
AcDbLine
 10
0.0
 20
0.0
 30
0.0
 11
-1.0
 21
0.0
 31
0.0
  0
LINE
  5
6E
100
AcDbEntity
  8
0
  6
CONTINUOUS
 62
     0
100
AcDbLine
 10
-0.5
 20
0.5
 30
0.0
 11
0.5
 21
0.5
 31
0.0
  0
LINE
  5
6F
100
AcDbEntity
  8
0
  6
CONTINUOUS
 62
     0
100
AcDbLine
 10
0.5
 20
0.5
 30
0.0
 11
0.5
 21
-0.5
 31
0.0
  0
LINE
  5
70
100
AcDbEntity
  8
0
  6
CONTINUOUS
 62
     0
100
AcDbLine
 10
0.5
 20
-0.5
 30
0.0
 11
-0.5
 21
-0.5
 31
0.0
  0
LINE
  5
71
100
AcDbEntity
  8
0
  6
CONTINUOUS
 62
     0
100
AcDbLine
 10
-0.5
 20
-0.5
 30
0.0
 11
-0.5
 21
0.5
 31
0.0
  0
LINE
  5
72
100
AcDbEntity
  8
0
  6
CONTINUOUS
 62
     0
100
AcDbLine
 10
-0.25
 20
0.25
 30
0.0
 11
0.25
 21
0.25
 31
0.0
  0
LINE
  5
73
100
AcDbEntity
  8
0
  6
CONTINUOUS
 62
     0
100
AcDbLine
 10
0.25
 20
0.25
 30
0.0
 11
0.25
 21
-0.25
 31
0.0
  0
LINE
  5
74
100
AcDbEntity
  8
0
  6
CONTINUOUS
 62
     0
100
AcDbLine
 10
0.25
 20
-0.25
 30
0.0
 11
-0.25
 21
-0.25
 31
0.0
  0
LINE
  5
75
100
AcDbEntity
  8
0
  6
CONTINUOUS
 62
     0
100
AcDbLine
 10
-0.25
 20
-0.25
 30
0.0
 11
-0.25
 21
0.25
 31
0.0
  0
ENDBLK
  5
76
100
AcDbEntity
  8
0
100
AcDbBlockEnd
  0
BLOCK
  5
77
100
AcDbEntity
  8
0
100
AcDbBlockBegin
  2
_EX_WBOX
 70
     0
 10
0.0
 20
0.0
 30
0.0
  3
_EX_WBOX
  1

  0
LINE
  5
78
100
AcDbEntity
  8
0
  6
CONTINUOUS
 62
     0
100
AcDbLine
 10
-0.5
 20
0.0
 30
0.0
 11
-1.0
 21
0.0
 31
0.0
  0
LINE
  5
79
100
AcDbEntity
  8
0
  6
CONTINUOUS
 62
     0
100
AcDbLine
 10
-0.5
 20
0.5
 30
0.0
 11
0.5
 21
0.5
 31
0.0
  0
LINE
  5
7A
100
AcDbEntity
  8
0
  6
CONTINUOUS
 62
     0
100
AcDbLine
 10
0.5
 20
0.5
 30
0.0
 11
0.5
 21
-0.5
 31
0.0
  0
LINE
  5
7B
100
AcDbEntity
  8
0
  6
CONTINUOUS
 62
     0
100
AcDbLine
 10
0.5
 20
-0.5
 30
0.0
 11
-0.5
 21
-0.5
 31
0.0
  0
LINE
  5
7C
100
AcDbEntity
  8
0
  6
CONTINUOUS
 62
     0
100
AcDbLine
 10
-0.5
 20
-0.5
 30
0.0
 11
-0.5
 21
0.5
 31
0.0
  0
ENDBLK
  5
7D
100
AcDbEntity
  8
0
100
AcDbBlockEnd
  0
BLOCK
  5
7E
100
AcDbEntity
  8
0
100
AcDbBlockBegin
  2
_EX_INTEGRAL
 70
     0
 10
0.0
 20
0.0
 30
0.0
  3
_EX_INTEGRAL
  1

  0
LINE
  5
7F
100
AcDbEntity
  8
0
  6
CONTINUOUS
 62
     0
100
AcDbLine
 10
0.0
 20
0.0
 30
0.0
 11
-1.0
 21
0.0
 31
0.0
  0
ARC
  5
80
100
AcDbEntity
  8
0
  6
CONTINUOUS
 62
     0
100
AcDbCircle
 10
0.0
 20
0.0
 30
0.0
 40
0.707107
100
AcDbArc
 50
90.0
 51
180.0
  0
ARC
  5
81
100
AcDbEntity
  8
0
  6
CONTINUOUS
 62
     0
100
AcDbCircle
 10
0.0
 20
0.0
 30
0.0
 40
0.707107
100
AcDbArc
 50
270.0
 51
0.0
  0
ENDBLK
  5
82
100
AcDbEntity
  8
0
100
AcDbBlockEnd
  0
ENDSEC
  0
SECTION
  2
ENTITIES
  0
LINE
  5
83
100
AcDbEntity
  8
LAY-1
  6
CONTINUOUS
 62
     2
100
AcDbLine
 10
811.478571
 20
559.6
 30
0.0
 11
31.378571
 21
559.6
 31
0.0
  0
LINE
  5
84
100
AcDbEntity
  8
LAY-1
  6
CONTINUOUS
 62
     2
100
AcDbLine
 10
31.378571
 20
526.3
 30
0.0
 11
811.478571
 21
526.3
 31
0.0
  0
LINE
  5
85
100
AcDbEntity
  8
LAY-1
  6
CONTINUOUS
 62
     2
100
AcDbLine
 10
31.378571
 20
536.3
 30
0.0
 11
811.478571
 21
536.3
 31
0.0
  0
LINE
  5
86
100
AcDbEntity
  8
LAY-1
  6
CONTINUOUS
 62
     2
100
AcDbLine
 10
31.378571
 20
446.3
 30
0.0
 11
811.478571
 21
446.3
 31
0.0
  0
LINE
  5
87
100
AcDbEntity
  8
LAY-1
  6
CONTINUOUS
 62
     2
100
AcDbLine
 10
31.378571
 20
456.3
 30
0.0
 11
811.478571
 21
456.3
 31
0.0
  0
LINE
  5
88
100
AcDbEntity
  8
LAY-1
  6
CONTINUOUS
 62
     2
100
AcDbLine
 10
31.378571
 20
376.3
 30
0.0
 11
811.478571
 21
376.3
 31
0.0
  0
LINE
  5
89
100
AcDbEntity
  8
LAY-1
  6
CONTINUOUS
 62
     2
100
AcDbLine
 10
31.378571
 20
286.3
 30
0.0
 11
811.478571
 21
286.3
 31
0.0
  0
LINE
  5
8A
100
AcDbEntity
  8
LAY-1
  6
CONTINUOUS
 62
     3
100
AcDbLine
 10
158.388571
 20
496.3
 30
0.0
 11
156.988571
 21
496.3
 31
0.0
  0
LINE
  5
8B
100
AcDbEntity
  8
LAY-1
  6
CONTINUOUS
 62
     3
100
AcDbLine
 10
158.388571
 20
486.3
 30
0.0
 11
156.988571
 21
486.3
 31
0.0
  0
LINE
  5
8C
100
AcDbEntity
  8
LAY-1
  6
CONTINUOUS
 62
     3
100
AcDbLine
 10
159.388571
 20
494.05
 30
0.0
 11
158.388571
 21
494.05
 31
0.0
  0
LINE
  5
8D
100
AcDbEntity
  8
LAY-1
  6
CONTINUOUS
 62
     3
100
AcDbLine
 10
159.388571
 20
488.55
 30
0.0
 11
158.388571
 21
488.55
 31
0.0
  0
LINE
  5
8E
100
AcDbEntity
  8
LAY-1
  6
CONTINUOUS
 62
     3
100
AcDbLine
 10
159.388571
 20
494.05
 30
0.0
 11
159.388571
 21
488.55
 31
0.0
  0
LINE
  5
8F
100
AcDbEntity
  8
LAY-1
  6
CONTINUOUS
 62
     3
100
AcDbLine
 10
158.388571
 20
496.3
 30
0.0
 11
158.388571
 21
486.3
 31
0.0
  0
LINE
  5
90
100
AcDbEntity
  8
LAY-1
  6
CONTINUOUS
 62
     3
100
AcDbLine
 10
156.988571
 20
496.3
 30
0.0
 11
156.988571
 21
486.3
 31
0.0
  0
LINE
  5
91
100
AcDbEntity
  8
LAY-1
  6
CONTINUOUS
 62
     3
100
AcDbLine
 10
60.388571
 20
496.3
 30
0.0
 11
61.788571
 21
496.3
 31
0.0
  0
LINE
  5
92
100
AcDbEntity
  8
LAY-1
  6
CONTINUOUS
 62
     3
100
AcDbLine
 10
60.388571
 20
486.3
 30
0.0
 11
61.788571
 21
486.3
 31
0.0
  0
LINE
  5
93
100
AcDbEntity
  8
LAY-1
  6
CONTINUOUS
 62
     3
100
AcDbLine
 10
59.388571
 20
494.05
 30
0.0
 11
60.388571
 21
494.05
 31
0.0
  0
LINE
  5
94
100
AcDbEntity
  8
LAY-1
  6
CONTINUOUS
 62
     3
100
AcDbLine
 10
59.388571
 20
488.55
 30
0.0
 11
60.388571
 21
488.55
 31
0.0
  0
LINE
  5
95
100
AcDbEntity
  8
LAY-1
  6
CONTINUOUS
 62
     3
100
AcDbLine
 10
59.388571
 20
494.05
 30
0.0
 11
59.388571
 21
488.55
 31
0.0
  0
LINE
  5
96
100
AcDbEntity
  8
LAY-1
  6
CONTINUOUS
 62
     3
100
AcDbLine
 10
60.388571
 20
496.3
 30
0.0
 11
60.388571
 21
486.3
 31
0.0
  0
LINE
  5
97
100
AcDbEntity
  8
LAY-1
  6
CONTINUOUS
 62
     3
100
AcDbLine
 10
61.788571
 20
496.3
 30
0.0
 11
61.788571
 21
486.3
 31
0.0
  0
ARC
  5
98
100
AcDbEntity
  8
LAY-1
  6
CONTINUOUS
 62
     3
100
AcDbCircle
 10
574.215671
 20
351.1
 30
0.0
 40
0.5
100
AcDbArc
 50
270.0
 51
329.553958
  0
ARC
  5
99
100
AcDbEntity
  8
LAY-1
  6
CONTINUOUS
 62
     3
100
AcDbCircle
 10
577.448571
 20
349.199775
 30
0.0
 40
3.25
100
AcDbArc
 50
30.446042
 51
149.553958
  0
ARC
  5
9A
100
AcDbEntity
  8
LAY-1
  6
CONTINUOUS
 62
     3
100
AcDbCircle
 10
580.681472
 20
351.1
 30
0.0
 40
0.5
100
AcDbArc
 50
210.446042
 51
270.0
  0
ARC
  5
9B
100
AcDbEntity
  8
LAY-1
  6
CONTINUOUS
 62
     3
100
AcDbCircle
 10
580.681472
 20
311.5
 30
0.0
 40
0.5
100
AcDbArc
 50
90.0
 51
149.553958
  0
ARC
  5
9C
100
AcDbEntity
  8
LAY-1
  6
CONTINUOUS
 62
     3
100
AcDbCircle
 10
577.448571
 20
313.400225
 30
0.0
 40
3.25
100
AcDbArc
 50
210.446042
 51
329.553958
  0
ARC
  5
9D
100
AcDbEntity
  8
LAY-1
  6
CONTINUOUS
 62
     3
100
AcDbCircle
 10
574.215671
 20
311.5
 30
0.0
 40
0.5
100
AcDbArc
 50
30.446042
 51
90.0
  0
LINE
  5
9E
100
AcDbEntity
  8
LAY-1
  6
CONTINUOUS
 62
     3
100
AcDbLine
 10
574.646725
 20
311.753363
 30
0.0
 11
574.646725
 21
350.846637
 31
0.0
  0
LINE
  5
9F
100
AcDbEntity
  8
LAY-1
  6
CONTINUOUS
 62
     3
100
AcDbLine
 10
580.319779
 20
350.754778
 30
0.0
 11
580.319779
 21
311.753363
 31
0.0
  0
ARC
  5
A0
100
AcDbEntity
  8
LAY-1
  6
CONTINUOUS
 62
     3
100
AcDbCircle
 10
730.235671
 20
355.05
 30
0.0
 40
0.5
100
AcDbArc
 50
270.0
 51
329.553958
  0
ARC
  5
A1
100
AcDbEntity
  8
LAY-1
  6
CONTINUOUS
 62
     3
100
AcDbCircle
 10
733.468571
 20
353.149775
 30
0.0
 40
3.25
100
AcDbArc
 50
30.446042
 51
149.553958
  0
ARC
  5
A2
100
AcDbEntity
  8
LAY-1
  6
CONTINUOUS
 62
     3
100
AcDbCircle
 10
736.701472
 20
355.05
 30
0.0
 40
0.5
100
AcDbArc
 50
210.446042
 51
270.0
  0
ARC
  5
A3
100
AcDbEntity
  8
LAY-1
  6
CONTINUOUS
 62
     3
100
AcDbCircle
 10
736.701472
 20
307.55
 30
0.0
 40
0.5
100
AcDbArc
 50
90.0
 51
149.553958
  0
ARC
  5
A4
100
AcDbEntity
  8
LAY-1
  6
CONTINUOUS
 62
     3
100
AcDbCircle
 10
733.468571
 20
309.450225
 30
0.0
 40
3.25
100
AcDbArc
 50
210.446042
 51
329.553958
  0
ARC
  5
A5
100
AcDbEntity
  8
LAY-1
  6
CONTINUOUS
 62
     3
100
AcDbCircle
 10
730.235671
 20
307.55
 30
0.0
 40
0.5
100
AcDbArc
 50
30.446042
 51
90.0
  0
LINE
  5
A6
100
AcDbEntity
  8
LAY-1
  6
CONTINUOUS
 62
     3
100
AcDbLine
 10
730.666725
 20
307.803363
 30
0.0
 11
730.666725
 21
354.796637
 31
0.0
  0
LINE
  5
A7
100
AcDbEntity
  8
LAY-1
  6
CONTINUOUS
 62
     3
100
AcDbLine
 10
736.339779
 20
354.704778
 30
0.0
 11
736.339779
 21
307.803363
 31
0.0
  0
ARC
  5
A8
100
AcDbEntity
  8
LAY-1
  6
CONTINUOUS
 62
     3
100
AcDbCircle
 10
106.155671
 20
267.55
 30
0.0
 40
0.5
100
AcDbArc
 50
270.0
 51
329.553958
  0
ARC
  5
A9
100
AcDbEntity
  8
LAY-1
  6
CONTINUOUS
 62
     3
100
AcDbCircle
 10
109.388571
 20
265.649775
 30
0.0
 40
3.25
100
AcDbArc
 50
30.446042
 51
149.553958
  0
ARC
  5
AA
100
AcDbEntity
  8
LAY-1
  6
CONTINUOUS
 62
     3
100
AcDbCircle
 10
112.621472
 20
267.55
 30
0.0
 40
0.5
100
AcDbArc
 50
210.446042
 51
270.0
  0
ARC
  5
AB
100
AcDbEntity
  8
LAY-1
  6
CONTINUOUS
 62
     3
100
AcDbCircle
 10
112.621472
 20
215.05
 30
0.0
 40
0.5
100
AcDbArc
 50
90.0
 51
149.553958
  0
ARC
  5
AC
100
AcDbEntity
  8
LAY-1
  6
CONTINUOUS
 62
     3
100
AcDbCircle
 10
109.388571
 20
216.950225
 30
0.0
 40
3.25
100
AcDbArc
 50
210.446042
 51
329.553958
  0
ARC
  5
AD
100
AcDbEntity
  8
LAY-1
  6
CONTINUOUS
 62
     3
100
AcDbCircle
 10
106.155671
 20
215.05
 30
0.0
 40
0.5
100
AcDbArc
 50
30.446042
 51
90.0
  0
LINE
  5
AE
100
AcDbEntity
  8
LAY-1
  6
CONTINUOUS
 62
     3
100
AcDbLine
 10
106.586725
 20
215.303363
 30
0.0
 11
106.586725
 21
267.296637
 31
0.0
  0
LINE
  5
AF
100
AcDbEntity
  8
LAY-1
  6
CONTINUOUS
 62
     3
100
AcDbLine
 10
112.259779
 20
267.204778
 30
0.0
 11
112.259779
 21
215.303363
 31
0.0
  0
ARC
  5
B0
100
AcDbEntity
  8
LAY-1
  6
CONTINUOUS
 62
     3
100
AcDbCircle
 10
262.175671
 20
270.05
 30
0.0
 40
0.5
100
AcDbArc
 50
270.0
 51
329.553958
  0
ARC
  5
B1
100
AcDbEntity
  8
LAY-1
  6
CONTINUOUS
 62
     3
100
AcDbCircle
 10
265.408571
 20
268.149775
 30
0.0
 40
3.25
100
AcDbArc
 50
30.446042
 51
149.553958
  0
ARC
  5
B2
100
AcDbEntity
  8
LAY-1
  6
CONTINUOUS
 62
     3
100
AcDbCircle
 10
268.641472
 20
270.05
 30
0.0
 40
0.5
100
AcDbArc
 50
210.446042
 51
270.0
  0
ARC
  5
B3
100
AcDbEntity
  8
LAY-1
  6
CONTINUOUS
 62
     3
100
AcDbCircle
 10
268.641472
 20
212.55
 30
0.0
 40
0.5
100
AcDbArc
 50
90.0
 51
149.553958
  0
ARC
  5
B4
100
AcDbEntity
  8
LAY-1
  6
CONTINUOUS
 62
     3
100
AcDbCircle
 10
265.408571
 20
214.450225
 30
0.0
 40
3.25
100
AcDbArc
 50
210.446042
 51
329.553958
  0
ARC
  5
B5
100
AcDbEntity
  8
LAY-1
  6
CONTINUOUS
 62
     3
100
AcDbCircle
 10
262.175671
 20
212.55
 30
0.0
 40
0.5
100
AcDbArc
 50
30.446042
 51
90.0
  0
LINE
  5
B6
100
AcDbEntity
  8
LAY-1
  6
CONTINUOUS
 62
     3
100
AcDbLine
 10
262.606725
 20
212.803363
 30
0.0
 11
262.606725
 21
269.796637
 31
0.0
  0
LINE
  5
B7
100
AcDbEntity
  8
LAY-1
  6
CONTINUOUS
 62
     3
100
AcDbLine
 10
268.279779
 20
269.704778
 30
0.0
 11
268.279779
 21
212.803363
 31
0.0
  0
LINE
  5
B8
100
AcDbEntity
  8
LAY-1
  6
CONTINUOUS
 62
     2
100
AcDbLine
 10
31.378571
 20
196.3
 30
0.0
 11
811.478571
 21
196.3
 31
0.0
  0
LINE
  5
B9
100
AcDbEntity
  8
LAY-1
  6
CONTINUOUS
 62
     2
100
AcDbLine
 10
811.478571
 20
196.3
 30
0.0
 11
811.478571
 21
559.6
 31
0.0
  0
LINE
  5
BA
100
AcDbEntity
  8
LAY-1
  6
CONTINUOUS
 62
     2
100
AcDbLine
 10
31.378571
 20
559.6
 30
0.0
 11
31.378571
 21
196.3
 31
0.0
  0
LINE
  5
BB
100
AcDbEntity
  8
LAY-1
  6
CONTINUOUS
 62
     2
100
AcDbLine
 10
187.398571
 20
536.3
 30
0.0
 11
187.398571
 21
196.3
 31
0.0
  0
LINE
  5
BC
100
AcDbEntity
  8
LAY-1
  6
CONTINUOUS
 62
     2
100
AcDbLine
 10
343.418571
 20
536.3
 30
0.0
 11
343.418571
 21
196.3
 31
0.0
  0
LINE
  5
BD
100
AcDbEntity
  8
LAY-1
  6
CONTINUOUS
 62
     2
100
AcDbLine
 10
499.438571
 20
536.3
 30
0.0
 11
499.438571
 21
196.3
 31
0.0
  0
LINE
  5
BE
100
AcDbEntity
  8
LAY-1
  6
CONTINUOUS
 62
     3
100
AcDbLine
 10
314.408571
 20
497.55
 30
0.0
 11
314.408571
 21
485.05
 31
0.0
  0
LINE
  5
BF
100
AcDbEntity
  8
LAY-1
  6
CONTINUOUS
 62
     3
100
AcDbLine
 10
314.408571
 20
497.55
 30
0.0
 11
313.008571
 21
497.55
 31
0.0
  0
LINE
  5
C0
100
AcDbEntity
  8
LAY-1
  6
CONTINUOUS
 62
     3
100
AcDbLine
 10
314.408571
 20
485.05
 30
0.0
 11
313.008571
 21
485.05
 31
0.0
  0
LINE
  5
C1
100
AcDbEntity
  8
LAY-1
  6
CONTINUOUS
 62
     3
100
AcDbLine
 10
313.008571
 20
497.55
 30
0.0
 11
313.008571
 21
485.05
 31
0.0
  0
LINE
  5
C2
100
AcDbEntity
  8
LAY-1
  6
CONTINUOUS
 62
     3
100
AcDbLine
 10
315.408571
 20
488.3
 30
0.0
 11
314.408571
 21
488.3
 31
0.0
  0
LINE
  5
C3
100
AcDbEntity
  8
LAY-1
  6
CONTINUOUS
 62
     3
100
AcDbLine
 10
315.408571
 20
494.3
 30
0.0
 11
314.408571
 21
494.3
 31
0.0
  0
LINE
  5
C4
100
AcDbEntity
  8
LAY-1
  6
CONTINUOUS
 62
     3
100
AcDbLine
 10
315.408571
 20
488.3
 30
0.0
 11
315.408571
 21
494.3
 31
0.0
  0
LINE
  5
C5
100
AcDbEntity
  8
LAY-1
  6
CONTINUOUS
 62
     3
100
AcDbLine
 10
216.408571
 20
497.55
 30
0.0
 11
217.808571
 21
497.55
 31
0.0
  0
LINE
  5
C6
100
AcDbEntity
  8
LAY-1
  6
CONTINUOUS
 62
     3
100
AcDbLine
 10
216.408571
 20
485.05
 30
0.0
 11
217.808571
 21
485.05
 31
0.0
  0
LINE
  5
C7
100
AcDbEntity
  8
LAY-1
  6
CONTINUOUS
 62
     3
100
AcDbLine
 10
215.408571
 20
494.3
 30
0.0
 11
216.408571
 21
494.3
 31
0.0
  0
LINE
  5
C8
100
AcDbEntity
  8
LAY-1
  6
CONTINUOUS
 62
     3
100
AcDbLine
 10
215.408571
 20
488.3
 30
0.0
 11
216.408571
 21
488.3
 31
0.0
  0
LINE
  5
C9
100
AcDbEntity
  8
LAY-1
  6
CONTINUOUS
 62
     3
100
AcDbLine
 10
215.408571
 20
494.3
 30
0.0
 11
215.408571
 21
488.3
 31
0.0
  0
LINE
  5
CA
100
AcDbEntity
  8
LAY-1
  6
CONTINUOUS
 62
     3
100
AcDbLine
 10
216.408571
 20
497.55
 30
0.0
 11
216.408571
 21
485.05
 31
0.0
  0
LINE
  5
CB
100
AcDbEntity
  8
LAY-1
  6
CONTINUOUS
 62
     3
100
AcDbLine
 10
217.808571
 20
497.55
 30
0.0
 11
217.808571
 21
485.05
 31
0.0
  0
LINE
  5
CC
100
AcDbEntity
  8
LAY-1
  6
CONTINUOUS
 62
     3
100
AcDbLine
 10
470.428571
 20
498.05
 30
0.0
 11
468.828571
 21
498.05
 31
0.0
  0
LINE
  5
CD
100
AcDbEntity
  8
LAY-1
  6
CONTINUOUS
 62
     3
100
AcDbLine
 10
470.428571
 20
484.55
 30
0.0
 11
468.828571
 21
484.55
 31
0.0
  0
LINE
  5
CE
100
AcDbEntity
  8
LAY-1
  6
CONTINUOUS
 62
     3
100
AcDbLine
 10
471.428571
 20
495.15
 30
0.0
 11
470.428571
 21
495.15
 31
0.0
  0
LINE
  5
CF
100
AcDbEntity
  8
LAY-1
  6
CONTINUOUS
 62
     3
100
AcDbLine
 10
471.428571
 20
487.45
 30
0.0
 11
470.428571
 21
487.45
 31
0.0
  0
LINE
  5
D0
100
AcDbEntity
  8
LAY-1
  6
CONTINUOUS
 62
     3
100
AcDbLine
 10
471.428571
 20
495.15
 30
0.0
 11
471.428571
 21
487.45
 31
0.0
  0
LINE
  5
D1
100
AcDbEntity
  8
LAY-1
  6
CONTINUOUS
 62
     3
100
AcDbLine
 10
470.428571
 20
498.05
 30
0.0
 11
470.428571
 21
484.55
 31
0.0
  0
LINE
  5
D2
100
AcDbEntity
  8
LAY-1
  6
CONTINUOUS
 62
     3
100
AcDbLine
 10
468.828571
 20
498.05
 30
0.0
 11
468.828571
 21
484.55
 31
0.0
  0
LINE
  5
D3
100
AcDbEntity
  8
LAY-1
  6
CONTINUOUS
 62
     3
100
AcDbLine
 10
372.428571
 20
498.05
 30
0.0
 11
374.028571
 21
498.05
 31
0.0
  0
LINE
  5
D4
100
AcDbEntity
  8
LAY-1
  6
CONTINUOUS
 62
     3
100
AcDbLine
 10
372.428571
 20
484.55
 30
0.0
 11
374.028571
 21
484.55
 31
0.0
  0
LINE
  5
D5
100
AcDbEntity
  8
LAY-1
  6
CONTINUOUS
 62
     3
100
AcDbLine
 10
371.428571
 20
495.15
 30
0.0
 11
372.428571
 21
495.15
 31
0.0
  0
LINE
  5
D6
100
AcDbEntity
  8
LAY-1
  6
CONTINUOUS
 62
     3
100
AcDbLine
 10
371.428571
 20
487.45
 30
0.0
 11
372.428571
 21
487.45
 31
0.0
  0
LINE
  5
D7
100
AcDbEntity
  8
LAY-1
  6
CONTINUOUS
 62
     3
100
AcDbLine
 10
374.028571
 20
498.05
 30
0.0
 11
374.028571
 21
484.55
 31
0.0
  0
LINE
  5
D8
100
AcDbEntity
  8
LAY-1
  6
CONTINUOUS
 62
     3
100
AcDbLine
 10
372.428571
 20
498.05
 30
0.0
 11
372.428571
 21
484.55
 31
0.0
  0
LINE
  5
D9
100
AcDbEntity
  8
LAY-1
  6
CONTINUOUS
 62
     3
100
AcDbLine
 10
371.428571
 20
495.15
 30
0.0
 11
371.428571
 21
487.45
 31
0.0
  0
LINE
  5
DA
100
AcDbEntity
  8
LAY-1
  6
CONTINUOUS
 62
     3
100
AcDbLine
 10
528.448571
 20
498.3
 30
0.0
 11
530.048571
 21
498.3
 31
0.0
  0
LINE
  5
DB
100
AcDbEntity
  8
LAY-1
  6
CONTINUOUS
 62
     3
100
AcDbLine
 10
528.448571
 20
484.3
 30
0.0
 11
530.048571
 21
484.3
 31
0.0
  0
LINE
  5
DC
100
AcDbEntity
  8
LAY-1
  6
CONTINUOUS
 62
     3
100
AcDbLine
 10
527.448571
 20
495.3
 30
0.0
 11
528.448571
 21
495.3
 31
0.0
  0
LINE
  5
DD
100
AcDbEntity
  8
LAY-1
  6
CONTINUOUS
 62
     3
100
AcDbLine
 10
527.448571
 20
487.3
 30
0.0
 11
528.448571
 21
487.3
 31
0.0
  0
LINE
  5
DE
100
AcDbEntity
  8
LAY-1
  6
CONTINUOUS
 62
     3
100
AcDbLine
 10
527.448571
 20
495.3
 30
0.0
 11
527.448571
 21
487.3
 31
0.0
  0
LINE
  5
DF
100
AcDbEntity
  8
LAY-1
  6
CONTINUOUS
 62
     3
100
AcDbLine
 10
528.448571
 20
498.3
 30
0.0
 11
528.448571
 21
484.3
 31
0.0
  0
LINE
  5
E0
100
AcDbEntity
  8
LAY-1
  6
CONTINUOUS
 62
     3
100
AcDbLine
 10
530.048571
 20
498.3
 30
0.0
 11
530.048571
 21
484.3
 31
0.0
  0
LINE
  5
E1
100
AcDbEntity
  8
LAY-1
  6
CONTINUOUS
 62
     3
100
AcDbLine
 10
626.448571
 20
498.3
 30
0.0
 11
624.848571
 21
498.3
 31
0.0
  0
LINE
  5
E2
100
AcDbEntity
  8
LAY-1
  6
CONTINUOUS
 62
     3
100
AcDbLine
 10
626.448571
 20
484.3
 30
0.0
 11
624.848571
 21
484.3
 31
0.0
  0
LINE
  5
E3
100
AcDbEntity
  8
LAY-1
  6
CONTINUOUS
 62
     3
100
AcDbLine
 10
627.448571
 20
495.3
 30
0.0
 11
626.448571
 21
495.3
 31
0.0
  0
LINE
  5
E4
100
AcDbEntity
  8
LAY-1
  6
CONTINUOUS
 62
     3
100
AcDbLine
 10
627.448571
 20
487.3
 30
0.0
 11
626.448571
 21
487.3
 31
0.0
  0
LINE
  5
E5
100
AcDbEntity
  8
LAY-1
  6
CONTINUOUS
 62
     3
100
AcDbLine
 10
627.448571
 20
495.3
 30
0.0
 11
627.448571
 21
487.3
 31
0.0
  0
LINE
  5
E6
100
AcDbEntity
  8
LAY-1
  6
CONTINUOUS
 62
     3
100
AcDbLine
 10
626.448571
 20
498.3
 30
0.0
 11
626.448571
 21
484.3
 31
0.0
  0
LINE
  5
E7
100
AcDbEntity
  8
LAY-1
  6
CONTINUOUS
 62
     3
100
AcDbLine
 10
624.848571
 20
498.3
 30
0.0
 11
624.848571
 21
484.3
 31
0.0
  0
LINE
  5
E8
100
AcDbEntity
  8
LAY-1
  6
CONTINUOUS
 62
     3
100
AcDbLine
 10
679.468571
 20
499.05
 30
0.0
 11
681.068571
 21
499.05
 31
0.0
  0
LINE
  5
E9
100
AcDbEntity
  8
LAY-1
  6
CONTINUOUS
 62
     3
100
AcDbLine
 10
679.468571
 20
483.55
 30
0.0
 11
681.068571
 21
483.55
 31
0.0
  0
LINE
  5
EA
100
AcDbEntity
  8
LAY-1
  6
CONTINUOUS
 62
     3
100
AcDbLine
 10
678.468571
 20
496.05
 30
0.0
 11
679.468571
 21
496.05
 31
0.0
  0
LINE
  5
EB
100
AcDbEntity
  8
LAY-1
  6
CONTINUOUS
 62
     3
100
AcDbLine
 10
678.468571
 20
486.55
 30
0.0
 11
679.468571
 21
486.55
 31
0.0
  0
LINE
  5
EC
100
AcDbEntity
  8
LAY-1
  6
CONTINUOUS
 62
     3
100
AcDbLine
 10
678.468571
 20
496.05
 30
0.0
 11
678.468571
 21
486.55
 31
0.0
  0
LINE
  5
ED
100
AcDbEntity
  8
LAY-1
  6
CONTINUOUS
 62
     3
100
AcDbLine
 10
679.468571
 20
499.05
 30
0.0
 11
679.468571
 21
483.55
 31
0.0
  0
LINE
  5
EE
100
AcDbEntity
  8
LAY-1
  6
CONTINUOUS
 62
     3
100
AcDbLine
 10
681.068571
 20
499.05
 30
0.0
 11
681.068571
 21
483.55
 31
0.0
  0
LINE
  5
EF
100
AcDbEntity
  8
LAY-1
  6
CONTINUOUS
 62
     3
100
AcDbLine
 10
787.468571
 20
499.05
 30
0.0
 11
785.868571
 21
499.05
 31
0.0
  0
LINE
  5
F0
100
AcDbEntity
  8
LAY-1
  6
CONTINUOUS
 62
     3
100
AcDbLine
 10
787.468571
 20
483.55
 30
0.0
 11
785.868571
 21
483.55
 31
0.0
  0
LINE
  5
F1
100
AcDbEntity
  8
LAY-1
  6
CONTINUOUS
 62
     3
100
AcDbLine
 10
788.468571
 20
496.05
 30
0.0
 11
787.468571
 21
496.05
 31
0.0
  0
LINE
  5
F2
100
AcDbEntity
  8
LAY-1
  6
CONTINUOUS
 62
     3
100
AcDbLine
 10
788.468571
 20
486.55
 30
0.0
 11
787.468571
 21
486.55
 31
0.0
  0
LINE
  5
F3
100
AcDbEntity
  8
LAY-1
  6
CONTINUOUS
 62
     3
100
AcDbLine
 10
788.468571
 20
496.05
 30
0.0
 11
788.468571
 21
486.55
 31
0.0
  0
LINE
  5
F4
100
AcDbEntity
  8
LAY-1
  6
CONTINUOUS
 62
     3
100
AcDbLine
 10
787.468571
 20
499.05
 30
0.0
 11
787.468571
 21
483.55
 31
0.0
  0
LINE
  5
F5
100
AcDbEntity
  8
LAY-1
  6
CONTINUOUS
 62
     3
100
AcDbLine
 10
785.868571
 20
499.05
 30
0.0
 11
785.868571
 21
483.55
 31
0.0
  0
LINE
  5
F6
100
AcDbEntity
  8
LAY-1
  6
CONTINUOUS
 62
     3
100
AcDbLine
 10
792.468571
 20
425.3
 30
0.0
 11
790.668571
 21
425.3
 31
0.0
  0
LINE
  5
F7
100
AcDbEntity
  8
LAY-1
  6
CONTINUOUS
 62
     3
100
AcDbLine
 10
792.468571
 20
397.3
 30
0.0
 11
790.668571
 21
397.3
 31
0.0
  0
LINE
  5
F8
100
AcDbEntity
  8
LAY-1
  6
CONTINUOUS
 62
     3
100
AcDbLine
 10
793.468571
 20
421.8
 30
0.0
 11
792.468571
 21
421.8
 31
0.0
  0
LINE
  5
F9
100
AcDbEntity
  8
LAY-1
  6
CONTINUOUS
 62
     3
100
AcDbLine
 10
793.468571
 20
400.8
 30
0.0
 11
792.468571
 21
400.8
 31
0.0
  0
LINE
  5
FA
100
AcDbEntity
  8
LAY-1
  6
CONTINUOUS
 62
     3
100
AcDbLine
 10
790.668571
 20
401.8
 30
0.0
 11
790.668571
 21
397.3
 31
0.0
  0
LINE
  5
FB
100
AcDbEntity
  8
LAY-1
  6
CONTINUOUS
 62
     3
100
AcDbLine
 10
793.468571
 20
421.8
 30
0.0
 11
793.468571
 21
400.8
 31
0.0
  0
LINE
  5
FC
100
AcDbEntity
  8
LAY-1
  6
CONTINUOUS
 62
     3
100
AcDbLine
 10
792.468571
 20
425.3
 30
0.0
 11
792.468571
 21
397.3
 31
0.0
  0
LINE
  5
FD
100
AcDbEntity
  8
LAY-1
  6
CONTINUOUS
 62
     3
100
AcDbLine
 10
790.668571
 20
425.3
 30
0.0
 11
790.668571
 21
401.8
 31
0.0
  0
LINE
  5
FE
100
AcDbEntity
  8
LAY-1
  6
CONTINUOUS
 62
     3
100
AcDbLine
 10
674.468571
 20
425.3
 30
0.0
 11
676.268571
 21
425.3
 31
0.0
  0
LINE
  5
FF
100
AcDbEntity
  8
LAY-1
  6
CONTINUOUS
 62
     3
100
AcDbLine
 10
674.468571
 20
397.3
 30
0.0
 11
676.268571
 21
397.3
 31
0.0
  0
LINE
  5
100
100
AcDbEntity
  8
LAY-1
  6
CONTINUOUS
 62
     3
100
AcDbLine
 10
673.468571
 20
421.8
 30
0.0
 11
674.468571
 21
421.8
 31
0.0
  0
LINE
  5
101
100
AcDbEntity
  8
LAY-1
  6
CONTINUOUS
 62
     3
100
AcDbLine
 10
673.468571
 20
400.8
 30
0.0
 11
674.468571
 21
400.8
 31
0.0
  0
LINE
  5
102
100
AcDbEntity
  8
LAY-1
  6
CONTINUOUS
 62
     3
100
AcDbLine
 10
676.268571
 20
401.8
 30
0.0
 11
676.268571
 21
397.3
 31
0.0
  0
LINE
  5
103
100
AcDbEntity
  8
LAY-1
  6
CONTINUOUS
 62
     3
100
AcDbLine
 10
673.468571
 20
421.8
 30
0.0
 11
673.468571
 21
400.8
 31
0.0
  0
LINE
  5
104
100
AcDbEntity
  8
LAY-1
  6
CONTINUOUS
 62
     3
100
AcDbLine
 10
674.468571
 20
425.3
 30
0.0
 11
674.468571
 21
397.3
 31
0.0
  0
LINE
  5
105
100
AcDbEntity
  8
LAY-1
  6
CONTINUOUS
 62
     3
100
AcDbLine
 10
676.268571
 20
425.3
 30
0.0
 11
676.268571
 21
401.8
 31
0.0
  0
LINE
  5
106
100
AcDbEntity
  8
LAY-1
  6
CONTINUOUS
 62
     3
100
AcDbLine
 10
636.448571
 20
423.8
 30
0.0
 11
634.648571
 21
423.8
 31
0.0
  0
LINE
  5
107
100
AcDbEntity
  8
LAY-1
  6
CONTINUOUS
 62
     3
100
AcDbLine
 10
636.448571
 20
398.8
 30
0.0
 11
634.648571
 21
398.8
 31
0.0
  0
LINE
  5
108
100
AcDbEntity
  8
LAY-1
  6
CONTINUOUS
 62
     3
100
AcDbLine
 10
637.448571
 20
420.3
 30
0.0
 11
636.448571
 21
420.3
 31
0.0
  0
LINE
  5
109
100
AcDbEntity
  8
LAY-1
  6
CONTINUOUS
 62
     3
100
AcDbLine
 10
637.448571
 20
402.3
 30
0.0
 11
636.448571
 21
402.3
 31
0.0
  0
LINE
  5
10A
100
AcDbEntity
  8
LAY-1
  6
CONTINUOUS
 62
     3
100
AcDbLine
 10
637.448571
 20
420.3
 30
0.0
 11
637.448571
 21
402.3
 31
0.0
  0
LINE
  5
10B
100
AcDbEntity
  8
LAY-1
  6
CONTINUOUS
 62
     3
100
AcDbLine
 10
636.448571
 20
423.8
 30
0.0
 11
636.448571
 21
398.8
 31
0.0
  0
LINE
  5
10C
100
AcDbEntity
  8
LAY-1
  6
CONTINUOUS
 62
     3
100
AcDbLine
 10
634.648571
 20
423.8
 30
0.0
 11
634.648571
 21
398.8
 31
0.0
  0
LINE
  5
10D
100
AcDbEntity
  8
LAY-1
  6
CONTINUOUS
 62
     3
100
AcDbLine
 10
518.448571
 20
423.8
 30
0.0
 11
520.248571
 21
423.8
 31
0.0
  0
LINE
  5
10E
100
AcDbEntity
  8
LAY-1
  6
CONTINUOUS
 62
     3
100
AcDbLine
 10
518.448571
 20
398.8
 30
0.0
 11
520.248571
 21
398.8
 31
0.0
  0
LINE
  5
10F
100
AcDbEntity
  8
LAY-1
  6
CONTINUOUS
 62
     3
100
AcDbLine
 10
517.448571
 20
420.3
 30
0.0
 11
518.448571
 21
420.3
 31
0.0
  0
LINE
  5
110
100
AcDbEntity
  8
LAY-1
  6
CONTINUOUS
 62
     3
100
AcDbLine
 10
517.448571
 20
402.3
 30
0.0
 11
518.448571
 21
402.3
 31
0.0
  0
LINE
  5
111
100
AcDbEntity
  8
LAY-1
  6
CONTINUOUS
 62
     3
100
AcDbLine
 10
517.448571
 20
420.3
 30
0.0
 11
517.448571
 21
402.3
 31
0.0
  0
LINE
  5
112
100
AcDbEntity
  8
LAY-1
  6
CONTINUOUS
 62
     3
100
AcDbLine
 10
518.448571
 20
423.8
 30
0.0
 11
518.448571
 21
398.8
 31
0.0
  0
LINE
  5
113
100
AcDbEntity
  8
LAY-1
  6
CONTINUOUS
 62
     3
100
AcDbLine
 10
520.248571
 20
423.8
 30
0.0
 11
520.248571
 21
398.8
 31
0.0
  0
LINE
  5
114
100
AcDbEntity
  8
LAY-1
  6
CONTINUOUS
 62
     3
100
AcDbLine
 10
480.428571
 20
421.8
 30
0.0
 11
478.628571
 21
421.8
 31
0.0
  0
LINE
  5
115
100
AcDbEntity
  8
LAY-1
  6
CONTINUOUS
 62
     3
100
AcDbLine
 10
480.428571
 20
400.8
 30
0.0
 11
478.628571
 21
400.8
 31
0.0
  0
LINE
  5
116
100
AcDbEntity
  8
LAY-1
  6
CONTINUOUS
 62
     3
100
AcDbLine
 10
481.428571
 20
418.8
 30
0.0
 11
480.428571
 21
418.8
 31
0.0
  0
LINE
  5
117
100
AcDbEntity
  8
LAY-1
  6
CONTINUOUS
 62
     3
100
AcDbLine
 10
481.428571
 20
403.8
 30
0.0
 11
480.428571
 21
403.8
 31
0.0
  0
LINE
  5
118
100
AcDbEntity
  8
LAY-1
  6
CONTINUOUS
 62
     3
100
AcDbLine
 10
481.428571
 20
418.8
 30
0.0
 11
481.428571
 21
403.8
 31
0.0
  0
LINE
  5
119
100
AcDbEntity
  8
LAY-1
  6
CONTINUOUS
 62
     3
100
AcDbLine
 10
480.428571
 20
421.8
 30
0.0
 11
480.428571
 21
400.8
 31
0.0
  0
LINE
  5
11A
100
AcDbEntity
  8
LAY-1
  6
CONTINUOUS
 62
     3
100
AcDbLine
 10
478.628571
 20
421.8
 30
0.0
 11
478.628571
 21
400.8
 31
0.0
  0
LINE
  5
11B
100
AcDbEntity
  8
LAY-1
  6
CONTINUOUS
 62
     3
100
AcDbLine
 10
362.428571
 20
421.8
 30
0.0
 11
364.228571
 21
421.8
 31
0.0
  0
LINE
  5
11C
100
AcDbEntity
  8
LAY-1
  6
CONTINUOUS
 62
     3
100
AcDbLine
 10
362.428571
 20
400.8
 30
0.0
 11
364.228571
 21
400.8
 31
0.0
  0
LINE
  5
11D
100
AcDbEntity
  8
LAY-1
  6
CONTINUOUS
 62
     3
100
AcDbLine
 10
361.428571
 20
418.8
 30
0.0
 11
362.428571
 21
418.8
 31
0.0
  0
LINE
  5
11E
100
AcDbEntity
  8
LAY-1
  6
CONTINUOUS
 62
     3
100
AcDbLine
 10
361.428571
 20
403.8
 30
0.0
 11
362.428571
 21
403.8
 31
0.0
  0
LINE
  5
11F
100
AcDbEntity
  8
LAY-1
  6
CONTINUOUS
 62
     3
100
AcDbLine
 10
361.428571
 20
418.8
 30
0.0
 11
361.428571
 21
403.8
 31
0.0
  0
LINE
  5
120
100
AcDbEntity
  8
LAY-1
  6
CONTINUOUS
 62
     3
100
AcDbLine
 10
362.428571
 20
421.8
 30
0.0
 11
362.428571
 21
400.8
 31
0.0
  0
LINE
  5
121
100
AcDbEntity
  8
LAY-1
  6
CONTINUOUS
 62
     3
100
AcDbLine
 10
364.228571
 20
421.8
 30
0.0
 11
364.228571
 21
400.8
 31
0.0
  0
LINE
  5
122
100
AcDbEntity
  8
LAY-1
  6
CONTINUOUS
 62
     3
100
AcDbLine
 10
319.408571
 20
420.55
 30
0.0
 11
317.608571
 21
420.55
 31
0.0
  0
LINE
  5
123
100
AcDbEntity
  8
LAY-1
  6
CONTINUOUS
 62
     3
100
AcDbLine
 10
319.408571
 20
402.05
 30
0.0
 11
317.608571
 21
402.05
 31
0.0
  0
LINE
  5
124
100
AcDbEntity
  8
LAY-1
  6
CONTINUOUS
 62
     3
100
AcDbLine
 10
320.408571
 20
417.55
 30
0.0
 11
319.408571
 21
417.55
 31
0.0
  0
LINE
  5
125
100
AcDbEntity
  8
LAY-1
  6
CONTINUOUS
 62
     3
100
AcDbLine
 10
320.408571
 20
405.05
 30
0.0
 11
319.408571
 21
405.05
 31
0.0
  0
LINE
  5
126
100
AcDbEntity
  8
LAY-1
  6
CONTINUOUS
 62
     3
100
AcDbLine
 10
320.408571
 20
417.55
 30
0.0
 11
320.408571
 21
405.05
 31
0.0
  0
LINE
  5
127
100
AcDbEntity
  8
LAY-1
  6
CONTINUOUS
 62
     3
100
AcDbLine
 10
319.408571
 20
420.55
 30
0.0
 11
319.408571
 21
402.05
 31
0.0
  0
LINE
  5
128
100
AcDbEntity
  8
LAY-1
  6
CONTINUOUS
 62
     3
100
AcDbLine
 10
317.608571
 20
420.55
 30
0.0
 11
317.608571
 21
402.05
 31
0.0
  0
LINE
  5
129
100
AcDbEntity
  8
LAY-1
  6
CONTINUOUS
 62
     3
100
AcDbLine
 10
211.408571
 20
420.55
 30
0.0
 11
213.208571
 21
420.55
 31
0.0
  0
LINE
  5
12A
100
AcDbEntity
  8
LAY-1
  6
CONTINUOUS
 62
     3
100
AcDbLine
 10
211.408571
 20
402.05
 30
0.0
 11
213.208571
 21
402.05
 31
0.0
  0
LINE
  5
12B
100
AcDbEntity
  8
LAY-1
  6
CONTINUOUS
 62
     3
100
AcDbLine
 10
210.408571
 20
417.55
 30
0.0
 11
211.408571
 21
417.55
 31
0.0
  0
LINE
  5
12C
100
AcDbEntity
  8
LAY-1
  6
CONTINUOUS
 62
     3
100
AcDbLine
 10
210.408571
 20
405.05
 30
0.0
 11
211.408571
 21
405.05
 31
0.0
  0
LINE
  5
12D
100
AcDbEntity
  8
LAY-1
  6
CONTINUOUS
 62
     3
100
AcDbLine
 10
210.408571
 20
417.55
 30
0.0
 11
210.408571
 21
405.05
 31
0.0
  0
LINE
  5
12E
100
AcDbEntity
  8
LAY-1
  6
CONTINUOUS
 62
     3
100
AcDbLine
 10
211.408571
 20
420.55
 30
0.0
 11
211.408571
 21
402.05
 31
0.0
  0
LINE
  5
12F
100
AcDbEntity
  8
LAY-1
  6
CONTINUOUS
 62
     3
100
AcDbLine
 10
213.208571
 20
420.55
 30
0.0
 11
213.208571
 21
402.05
 31
0.0
  0
LINE
  5
130
100
AcDbEntity
  8
LAY-1
  6
CONTINUOUS
 62
     3
100
AcDbLine
 10
163.388571
 20
420.05
 30
0.0
 11
161.588571
 21
420.05
 31
0.0
  0
LINE
  5
131
100
AcDbEntity
  8
LAY-1
  6
CONTINUOUS
 62
     3
100
AcDbLine
 10
163.388571
 20
402.55
 30
0.0
 11
161.588571
 21
402.55
 31
0.0
  0
LINE
  5
132
100
AcDbEntity
  8
LAY-1
  6
CONTINUOUS
 62
     3
100
AcDbLine
 10
164.388571
 20
417.05
 30
0.0
 11
163.388571
 21
417.05
 31
0.0
  0
LINE
  5
133
100
AcDbEntity
  8
LAY-1
  6
CONTINUOUS
 62
     3
100
AcDbLine
 10
164.388571
 20
405.55
 30
0.0
 11
163.388571
 21
405.55
 31
0.0
  0
LINE
  5
134
100
AcDbEntity
  8
LAY-1
  6
CONTINUOUS
 62
     3
100
AcDbLine
 10
164.388571
 20
417.05
 30
0.0
 11
164.388571
 21
405.55
 31
0.0
  0
LINE
  5
135
100
AcDbEntity
  8
LAY-1
  6
CONTINUOUS
 62
     3
100
AcDbLine
 10
163.388571
 20
420.05
 30
0.0
 11
163.388571
 21
402.55
 31
0.0
  0
LINE
  5
136
100
AcDbEntity
  8
LAY-1
  6
CONTINUOUS
 62
     3
100
AcDbLine
 10
161.588571
 20
420.05
 30
0.0
 11
161.588571
 21
402.55
 31
0.0
  0
LINE
  5
137
100
AcDbEntity
  8
LAY-1
  6
CONTINUOUS
 62
     3
100
AcDbLine
 10
55.388571
 20
420.05
 30
0.0
 11
57.188571
 21
420.05
 31
0.0
  0
LINE
  5
138
100
AcDbEntity
  8
LAY-1
  6
CONTINUOUS
 62
     3
100
AcDbLine
 10
55.388571
 20
402.55
 30
0.0
 11
57.188571
 21
402.55
 31
0.0
  0
LINE
  5
139
100
AcDbEntity
  8
LAY-1
  6
CONTINUOUS
 62
     3
100
AcDbLine
 10
54.388571
 20
417.05
 30
0.0
 11
55.388571
 21
417.05
 31
0.0
  0
LINE
  5
13A
100
AcDbEntity
  8
LAY-1
  6
CONTINUOUS
 62
     3
100
AcDbLine
 10
54.388571
 20
405.55
 30
0.0
 11
55.388571
 21
405.55
 31
0.0
  0
LINE
  5
13B
100
AcDbEntity
  8
LAY-1
  6
CONTINUOUS
 62
     3
100
AcDbLine
 10
54.388571
 20
417.05
 30
0.0
 11
54.388571
 21
405.55
 31
0.0
  0
LINE
  5
13C
100
AcDbEntity
  8
LAY-1
  6
CONTINUOUS
 62
     3
100
AcDbLine
 10
55.388571
 20
420.05
 30
0.0
 11
55.388571
 21
402.55
 31
0.0
  0
LINE
  5
13D
100
AcDbEntity
  8
LAY-1
  6
CONTINUOUS
 62
     3
100
AcDbLine
 10
57.188571
 20
420.05
 30
0.0
 11
57.188571
 21
402.55
 31
0.0
  0
LINE
  5
13E
100
AcDbEntity
  8
LAY-1
  6
CONTINUOUS
 62
     3
100
AcDbLine
 10
45.888571
 20
347.8
 30
0.0
 11
47.688571
 21
347.8
 31
0.0
  0
LINE
  5
13F
100
AcDbEntity
  8
LAY-1
  6
CONTINUOUS
 62
     3
100
AcDbLine
 10
45.888571
 20
314.8
 30
0.0
 11
47.688571
 21
314.8
 31
0.0
  0
LINE
  5
140
100
AcDbEntity
  8
LAY-1
  6
CONTINUOUS
 62
     3
100
AcDbLine
 10
44.388571
 20
344.15
 30
0.0
 11
45.888571
 21
344.15
 31
0.0
  0
LINE
  5
141
100
AcDbEntity
  8
LAY-1
  6
CONTINUOUS
 62
     3
100
AcDbLine
 10
44.388571
 20
318.45
 30
0.0
 11
45.888571
 21
318.45
 31
0.0
  0
LINE
  5
142
100
AcDbEntity
  8
LAY-1
  6
CONTINUOUS
 62
     3
100
AcDbLine
 10
44.388571
 20
344.15
 30
0.0
 11
44.388571
 21
318.45
 31
0.0
  0
LINE
  5
143
100
AcDbEntity
  8
LAY-1
  6
CONTINUOUS
 62
     3
100
AcDbLine
 10
45.888571
 20
347.8
 30
0.0
 11
45.888571
 21
314.8
 31
0.0
  0
LINE
  5
144
100
AcDbEntity
  8
LAY-1
  6
CONTINUOUS
 62
     3
100
AcDbLine
 10
47.688571
 20
347.8
 30
0.0
 11
47.688571
 21
314.8
 31
0.0
  0
LINE
  5
145
100
AcDbEntity
  8
LAY-1
  6
CONTINUOUS
 62
     3
100
AcDbLine
 10
172.888571
 20
347.8
 30
0.0
 11
171.088571
 21
347.8
 31
0.0
  0
LINE
  5
146
100
AcDbEntity
  8
LAY-1
  6
CONTINUOUS
 62
     3
100
AcDbLine
 10
172.888571
 20
314.8
 30
0.0
 11
171.088571
 21
314.8
 31
0.0
  0
LINE
  5
147
100
AcDbEntity
  8
LAY-1
  6
CONTINUOUS
 62
     3
100
AcDbLine
 10
174.388571
 20
344.15
 30
0.0
 11
172.888571
 21
344.15
 31
0.0
  0
LINE
  5
148
100
AcDbEntity
  8
LAY-1
  6
CONTINUOUS
 62
     3
100
AcDbLine
 10
174.388571
 20
318.45
 30
0.0
 11
172.888571
 21
318.45
 31
0.0
  0
LINE
  5
149
100
AcDbEntity
  8
LAY-1
  6
CONTINUOUS
 62
     3
100
AcDbLine
 10
174.388571
 20
344.15
 30
0.0
 11
174.388571
 21
318.45
 31
0.0
  0
LINE
  5
14A
100
AcDbEntity
  8
LAY-1
  6
CONTINUOUS
 62
     3
100
AcDbLine
 10
172.888571
 20
347.8
 30
0.0
 11
172.888571
 21
314.8
 31
0.0
  0
LINE
  5
14B
100
AcDbEntity
  8
LAY-1
  6
CONTINUOUS
 62
     3
100
AcDbLine
 10
171.088571
 20
347.8
 30
0.0
 11
171.088571
 21
314.8
 31
0.0
  0
LINE
  5
14C
100
AcDbEntity
  8
LAY-1
  6
CONTINUOUS
 62
     3
100
AcDbLine
 10
196.908571
 20
351.3
 30
0.0
 11
198.708571
 21
351.3
 31
0.0
  0
LINE
  5
14D
100
AcDbEntity
  8
LAY-1
  6
CONTINUOUS
 62
     3
100
AcDbLine
 10
196.908571
 20
311.3
 30
0.0
 11
198.708571
 21
311.3
 31
0.0
  0
LINE
  5
14E
100
AcDbEntity
  8
LAY-1
  6
CONTINUOUS
 62
     3
100
AcDbLine
 10
195.408571
 20
347.5
 30
0.0
 11
196.908571
 21
347.5
 31
0.0
  0
LINE
  5
14F
100
AcDbEntity
  8
LAY-1
  6
CONTINUOUS
 62
     3
100
AcDbLine
 10
195.408571
 20
315.1
 30
0.0
 11
196.908571
 21
315.1
 31
0.0
  0
LINE
  5
150
100
AcDbEntity
  8
LAY-1
  6
CONTINUOUS
 62
     3
100
AcDbLine
 10
195.408571
 20
347.5
 30
0.0
 11
195.408571
 21
315.1
 31
0.0
  0
LINE
  5
151
100
AcDbEntity
  8
LAY-1
  6
CONTINUOUS
 62
     3
100
AcDbLine
 10
196.908571
 20
351.3
 30
0.0
 11
196.908571
 21
311.3
 31
0.0
  0
LINE
  5
152
100
AcDbEntity
  8
LAY-1
  6
CONTINUOUS
 62
     3
100
AcDbLine
 10
198.708571
 20
351.3
 30
0.0
 11
198.708571
 21
311.3
 31
0.0
  0
LINE
  5
153
100
AcDbEntity
  8
LAY-1
  6
CONTINUOUS
 62
     2
100
AcDbLine
 10
31.378571
 20
296.3
 30
0.0
 11
811.478571
 21
296.3
 31
0.0
  0
LINE
  5
154
100
AcDbEntity
  8
LAY-1
  6
CONTINUOUS
 62
     3
100
AcDbLine
 10
333.908571
 20
351.3
 30
0.0
 11
332.108571
 21
351.3
 31
0.0
  0
LINE
  5
155
100
AcDbEntity
  8
LAY-1
  6
CONTINUOUS
 62
     3
100
AcDbLine
 10
333.908571
 20
311.3
 30
0.0
 11
332.108571
 21
311.3
 31
0.0
  0
LINE
  5
156
100
AcDbEntity
  8
LAY-1
  6
CONTINUOUS
 62
     3
100
AcDbLine
 10
335.408571
 20
347.5
 30
0.0
 11
333.908571
 21
347.5
 31
0.0
  0
LINE
  5
157
100
AcDbEntity
  8
LAY-1
  6
CONTINUOUS
 62
     3
100
AcDbLine
 10
335.408571
 20
315.1
 30
0.0
 11
333.908571
 21
315.1
 31
0.0
  0
LINE
  5
158
100
AcDbEntity
  8
LAY-1
  6
CONTINUOUS
 62
     3
100
AcDbLine
 10
335.408571
 20
347.5
 30
0.0
 11
335.408571
 21
315.1
 31
0.0
  0
LINE
  5
159
100
AcDbEntity
  8
LAY-1
  6
CONTINUOUS
 62
     3
100
AcDbLine
 10
333.908571
 20
351.3
 30
0.0
 11
333.908571
 21
311.3
 31
0.0
  0
LINE
  5
15A
100
AcDbEntity
  8
LAY-1
  6
CONTINUOUS
 62
     3
100
AcDbLine
 10
332.108571
 20
351.3
 30
0.0
 11
332.108571
 21
311.3
 31
0.0
  0
LINE
  5
15B
100
AcDbEntity
  8
LAY-1
  6
CONTINUOUS
 62
     3
100
AcDbLine
 10
352.928571
 20
353.55
 30
0.0
 11
354.928571
 21
353.55
 31
0.0
  0
LINE
  5
15C
100
AcDbEntity
  8
LAY-1
  6
CONTINUOUS
 62
     3
100
AcDbLine
 10
352.928571
 20
309.05
 30
0.0
 11
354.928571
 21
309.05
 31
0.0
  0
LINE
  5
15D
100
AcDbEntity
  8
LAY-1
  6
CONTINUOUS
 62
     3
100
AcDbLine
 10
351.428571
 20
349.6
 30
0.0
 11
352.928571
 21
349.6
 31
0.0
  0
LINE
  5
15E
100
AcDbEntity
  8
LAY-1
  6
CONTINUOUS
 62
     3
100
AcDbLine
 10
351.428571
 20
313.0
 30
0.0
 11
352.928571
 21
313.0
 31
0.0
  0
LINE
  5
15F
100
AcDbEntity
  8
LAY-1
  6
CONTINUOUS
 62
     3
100
AcDbLine
 10
351.428571
 20
349.6
 30
0.0
 11
351.428571
 21
313.0
 31
0.0
  0
LINE
  5
160
100
AcDbEntity
  8
LAY-1
  6
CONTINUOUS
 62
     3
100
AcDbLine
 10
352.928571
 20
353.55
 30
0.0
 11
352.928571
 21
309.05
 31
0.0
  0
LINE
  5
161
100
AcDbEntity
  8
LAY-1
  6
CONTINUOUS
 62
     3
100
AcDbLine
 10
354.928571
 20
353.55
 30
0.0
 11
354.928571
 21
309.05
 31
0.0
  0
LINE
  5
162
100
AcDbEntity
  8
LAY-1
  6
CONTINUOUS
 62
     3
100
AcDbLine
 10
489.928571
 20
309.05
 30
0.0
 11
487.928571
 21
309.05
 31
0.0
  0
LINE
  5
163
100
AcDbEntity
  8
LAY-1
  6
CONTINUOUS
 62
     3
100
AcDbLine
 10
489.928571
 20
353.55
 30
0.0
 11
487.928571
 21
353.55
 31
0.0
  0
LINE
  5
164
100
AcDbEntity
  8
LAY-1
  6
CONTINUOUS
 62
     3
100
AcDbLine
 10
491.428571
 20
349.6
 30
0.0
 11
489.928571
 21
349.6
 31
0.0
  0
LINE
  5
165
100
AcDbEntity
  8
LAY-1
  6
CONTINUOUS
 62
     3
100
AcDbLine
 10
491.428571
 20
313.0
 30
0.0
 11
489.928571
 21
313.0
 31
0.0
  0
LINE
  5
166
100
AcDbEntity
  8
LAY-1
  6
CONTINUOUS
 62
     3
100
AcDbLine
 10
491.428571
 20
349.6
 30
0.0
 11
491.428571
 21
313.0
 31
0.0
  0
LINE
  5
167
100
AcDbEntity
  8
LAY-1
  6
CONTINUOUS
 62
     3
100
AcDbLine
 10
487.928571
 20
353.55
 30
0.0
 11
487.928571
 21
309.05
 31
0.0
  0
LINE
  5
168
100
AcDbEntity
  8
LAY-1
  6
CONTINUOUS
 62
     3
100
AcDbLine
 10
489.928571
 20
353.55
 30
0.0
 11
489.928571
 21
309.05
 31
0.0
  0
LINE
  5
169
100
AcDbEntity
  8
LAY-1
  6
CONTINUOUS
 62
     3
100
AcDbLine
 10
630.948571
 20
355.8
 30
0.0
 11
628.948571
 21
355.8
 31
0.0
  0
LINE
  5
16A
100
AcDbEntity
  8
LAY-1
  6
CONTINUOUS
 62
     3
100
AcDbLine
 10
630.948571
 20
306.8
 30
0.0
 11
628.948571
 21
306.8
 31
0.0
  0
LINE
  5
16B
100
AcDbEntity
  8
LAY-1
  6
CONTINUOUS
 62
     3
100
AcDbLine
 10
632.448571
 20
352.1
 30
0.0
 11
630.948571
 21
352.1
 31
0.0
  0
LINE
  5
16C
100
AcDbEntity
  8
LAY-1
  6
CONTINUOUS
 62
     3
100
AcDbLine
 10
632.448571
 20
310.5
 30
0.0
 11
630.948571
 21
310.5
 31
0.0
  0
LINE
  5
16D
100
AcDbEntity
  8
LAY-1
  6
CONTINUOUS
 62
     3
100
AcDbLine
 10
632.448571
 20
352.1
 30
0.0
 11
632.448571
 21
310.5
 31
0.0
  0
LINE
  5
16E
100
AcDbEntity
  8
LAY-1
  6
CONTINUOUS
 62
     3
100
AcDbLine
 10
630.948571
 20
355.8
 30
0.0
 11
630.948571
 21
306.8
 31
0.0
  0
LINE
  5
16F
100
AcDbEntity
  8
LAY-1
  6
CONTINUOUS
 62
     3
100
AcDbLine
 10
628.948571
 20
355.8
 30
0.0
 11
628.948571
 21
306.8
 31
0.0
  0
LINE
  5
170
100
AcDbEntity
  8
LAY-1
  6
CONTINUOUS
 62
     3
100
AcDbLine
 10
523.948571
 20
355.8
 30
0.0
 11
525.948571
 21
355.8
 31
0.0
  0
LINE
  5
171
100
AcDbEntity
  8
LAY-1
  6
CONTINUOUS
 62
     3
100
AcDbLine
 10
523.948571
 20
306.8
 30
0.0
 11
525.948571
 21
306.8
 31
0.0
  0
LINE
  5
172
100
AcDbEntity
  8
LAY-1
  6
CONTINUOUS
 62
     3
100
AcDbLine
 10
522.448571
 20
352.1
 30
0.0
 11
523.948571
 21
352.1
 31
0.0
  0
LINE
  5
173
100
AcDbEntity
  8
LAY-1
  6
CONTINUOUS
 62
     3
100
AcDbLine
 10
522.448571
 20
310.5
 30
0.0
 11
523.948571
 21
310.5
 31
0.0
  0
LINE
  5
174
100
AcDbEntity
  8
LAY-1
  6
CONTINUOUS
 62
     3
100
AcDbLine
 10
522.448571
 20
352.1
 30
0.0
 11
522.448571
 21
310.5
 31
0.0
  0
LINE
  5
175
100
AcDbEntity
  8
LAY-1
  6
CONTINUOUS
 62
     3
100
AcDbLine
 10
523.948571
 20
355.8
 30
0.0
 11
523.948571
 21
306.8
 31
0.0
  0
LINE
  5
176
100
AcDbEntity
  8
LAY-1
  6
CONTINUOUS
 62
     3
100
AcDbLine
 10
525.948571
 20
355.8
 30
0.0
 11
525.948571
 21
306.8
 31
0.0
  0
LINE
  5
177
100
AcDbEntity
  8
LAY-1
  6
CONTINUOUS
 62
     2
100
AcDbLine
 10
31.378571
 20
366.3
 30
0.0
 11
811.478571
 21
366.3
 31
0.0
  0
ARC
  5
178
100
AcDbEntity
  8
LAY-1
  6
CONTINUOUS
 62
     3
100
AcDbCircle
 10
560.215671
 20
351.1
 30
0.0
 40
0.5
100
AcDbArc
 50
270.0
 51
329.553958
  0
ARC
  5
179
100
AcDbEntity
  8
LAY-1
  6
CONTINUOUS
 62
     3
100
AcDbCircle
 10
563.448571
 20
349.199775
 30
0.0
 40
3.25
100
AcDbArc
 50
30.446042
 51
149.553958
  0
ARC
  5
17A
100
AcDbEntity
  8
LAY-1
  6
CONTINUOUS
 62
     3
100
AcDbCircle
 10
566.681472
 20
351.1
 30
0.0
 40
0.5
100
AcDbArc
 50
210.446042
 51
270.0
  0
ARC
  5
17B
100
AcDbEntity
  8
LAY-1
  6
CONTINUOUS
 62
     3
100
AcDbCircle
 10
566.681472
 20
311.5
 30
0.0
 40
0.5
100
AcDbArc
 50
90.0
 51
149.553958
  0
ARC
  5
17C
100
AcDbEntity
  8
LAY-1
  6
CONTINUOUS
 62
     3
100
AcDbCircle
 10
563.448571
 20
313.400225
 30
0.0
 40
3.25
100
AcDbArc
 50
210.446042
 51
329.553958
  0
ARC
  5
17D
100
AcDbEntity
  8
LAY-1
  6
CONTINUOUS
 62
     3
100
AcDbCircle
 10
560.215671
 20
311.5
 30
0.0
 40
0.5
100
AcDbArc
 50
30.446042
 51
90.0
  0
LINE
  5
17E
100
AcDbEntity
  8
LAY-1
  6
CONTINUOUS
 62
     3
100
AcDbLine
 10
560.646725
 20
311.753363
 30
0.0
 11
560.646725
 21
350.846637
 31
0.0
  0
LINE
  5
17F
100
AcDbEntity
  8
LAY-1
  6
CONTINUOUS
 62
     3
100
AcDbLine
 10
566.319779
 20
350.754778
 30
0.0
 11
566.319779
 21
311.753363
 31
0.0
  0
LINE
  5
180
100
AcDbEntity
  8
LAY-1
  6
CONTINUOUS
 62
     3
100
AcDbLine
 10
566.681472
 20
350.6
 30
0.0
 11
574.215671
 21
350.6
 31
0.0
  0
LINE
  5
181
100
AcDbEntity
  8
LAY-1
  6
CONTINUOUS
 62
     3
100
AcDbLine
 10
574.215671
 20
312.0
 30
0.0
 11
566.681472
 21
312.0
 31
0.0
  0
ARC
  5
182
100
AcDbEntity
  8
LAY-1
  6
CONTINUOUS
 62
     3
100
AcDbCircle
 10
546.215671
 20
351.1
 30
0.0
 40
0.5
100
AcDbArc
 50
270.0
 51
329.553958
  0
ARC
  5
183
100
AcDbEntity
  8
LAY-1
  6
CONTINUOUS
 62
     3
100
AcDbCircle
 10
549.448571
 20
349.199775
 30
0.0
 40
3.25
100
AcDbArc
 50
30.446042
 51
149.553958
  0
ARC
  5
184
100
AcDbEntity
  8
LAY-1
  6
CONTINUOUS
 62
     3
100
AcDbCircle
 10
552.681472
 20
351.1
 30
0.0
 40
0.5
100
AcDbArc
 50
210.446042
 51
270.0
  0
ARC
  5
185
100
AcDbEntity
  8
LAY-1
  6
CONTINUOUS
 62
     3
100
AcDbCircle
 10
552.681472
 20
311.5
 30
0.0
 40
0.5
100
AcDbArc
 50
90.0
 51
149.553958
  0
ARC
  5
186
100
AcDbEntity
  8
LAY-1
  6
CONTINUOUS
 62
     3
100
AcDbCircle
 10
549.448571
 20
313.400225
 30
0.0
 40
3.25
100
AcDbArc
 50
210.446042
 51
329.553958
  0
ARC
  5
187
100
AcDbEntity
  8
LAY-1
  6
CONTINUOUS
 62
     3
100
AcDbCircle
 10
546.215671
 20
311.5
 30
0.0
 40
0.5
100
AcDbArc
 50
30.446042
 51
90.0
  0
LINE
  5
188
100
AcDbEntity
  8
LAY-1
  6
CONTINUOUS
 62
     3
100
AcDbLine
 10
546.646725
 20
311.753363
 30
0.0
 11
546.646725
 21
350.846637
 31
0.0
  0
LINE
  5
189
100
AcDbEntity
  8
LAY-1
  6
CONTINUOUS
 62
     3
100
AcDbLine
 10
552.319779
 20
350.754778
 30
0.0
 11
552.319779
 21
311.753363
 31
0.0
  0
LINE
  5
18A
100
AcDbEntity
  8
LAY-1
  6
CONTINUOUS
 62
     3
100
AcDbLine
 10
552.681472
 20
350.6
 30
0.0
 11
560.215671
 21
350.6
 31
0.0
  0
LINE
  5
18B
100
AcDbEntity
  8
LAY-1
  6
CONTINUOUS
 62
     3
100
AcDbLine
 10
560.215671
 20
312.0
 30
0.0
 11
552.681472
 21
312.0
 31
0.0
  0
ARC
  5
18C
100
AcDbEntity
  8
LAY-1
  6
CONTINUOUS
 62
     3
100
AcDbCircle
 10
532.215671
 20
351.1
 30
0.0
 40
0.5
100
AcDbArc
 50
270.0
 51
329.553958
  0
ARC
  5
18D
100
AcDbEntity
  8
LAY-1
  6
CONTINUOUS
 62
     3
100
AcDbCircle
 10
535.448571
 20
349.199775
 30
0.0
 40
3.25
100
AcDbArc
 50
30.446042
 51
149.553958
  0
ARC
  5
18E
100
AcDbEntity
  8
LAY-1
  6
CONTINUOUS
 62
     3
100
AcDbCircle
 10
538.681472
 20
351.1
 30
0.0
 40
0.5
100
AcDbArc
 50
210.446042
 51
270.0
  0
ARC
  5
18F
100
AcDbEntity
  8
LAY-1
  6
CONTINUOUS
 62
     3
100
AcDbCircle
 10
538.681472
 20
311.5
 30
0.0
 40
0.5
100
AcDbArc
 50
90.0
 51
149.553958
  0
ARC
  5
190
100
AcDbEntity
  8
LAY-1
  6
CONTINUOUS
 62
     3
100
AcDbCircle
 10
535.448571
 20
313.400225
 30
0.0
 40
3.25
100
AcDbArc
 50
210.446042
 51
329.553958
  0
ARC
  5
191
100
AcDbEntity
  8
LAY-1
  6
CONTINUOUS
 62
     3
100
AcDbCircle
 10
532.215671
 20
311.5
 30
0.0
 40
0.5
100
AcDbArc
 50
30.446042
 51
90.0
  0
LINE
  5
192
100
AcDbEntity
  8
LAY-1
  6
CONTINUOUS
 62
     3
100
AcDbLine
 10
532.646725
 20
311.753363
 30
0.0
 11
532.646725
 21
350.846637
 31
0.0
  0
LINE
  5
193
100
AcDbEntity
  8
LAY-1
  6
CONTINUOUS
 62
     3
100
AcDbLine
 10
538.319779
 20
350.754778
 30
0.0
 11
538.319779
 21
311.753363
 31
0.0
  0
ARC
  5
194
100
AcDbEntity
  8
LAY-1
  6
CONTINUOUS
 62
     3
100
AcDbCircle
 10
594.681472
 20
351.1
 30
0.0
 40
0.5
100
AcDbArc
 50
210.446042
 51
270.0
  0
ARC
  5
195
100
AcDbEntity
  8
LAY-1
  6
CONTINUOUS
 62
     3
100
AcDbCircle
 10
591.448571
 20
349.199775
 30
0.0
 40
3.25
100
AcDbArc
 50
30.446042
 51
149.553958
  0
ARC
  5
196
100
AcDbEntity
  8
LAY-1
  6
CONTINUOUS
 62
     3
100
AcDbCircle
 10
588.215671
 20
351.1
 30
0.0
 40
0.5
100
AcDbArc
 50
270.0
 51
329.553958
  0
ARC
  5
197
100
AcDbEntity
  8
LAY-1
  6
CONTINUOUS
 62
     3
100
AcDbCircle
 10
588.215671
 20
311.5
 30
0.0
 40
0.5
100
AcDbArc
 50
30.446042
 51
90.0
  0
ARC
  5
198
100
AcDbEntity
  8
LAY-1
  6
CONTINUOUS
 62
     3
100
AcDbCircle
 10
591.448571
 20
313.400225
 30
0.0
 40
3.25
100
AcDbArc
 50
210.446042
 51
329.553958
  0
ARC
  5
199
100
AcDbEntity
  8
LAY-1
  6
CONTINUOUS
 62
     3
100
AcDbCircle
 10
594.681472
 20
311.5
 30
0.0
 40
0.5
100
AcDbArc
 50
90.0
 51
149.553958
  0
LINE
  5
19A
100
AcDbEntity
  8
LAY-1
  6
CONTINUOUS
 62
     3
100
AcDbLine
 10
594.250418
 20
311.753363
 30
0.0
 11
594.250418
 21
350.846637
 31
0.0
  0
LINE
  5
19B
100
AcDbEntity
  8
LAY-1
  6
CONTINUOUS
 62
     3
100
AcDbLine
 10
588.577364
 20
350.754778
 30
0.0
 11
588.577364
 21
311.753363
 31
0.0
  0
LINE
  5
19C
100
AcDbEntity
  8
LAY-1
  6
CONTINUOUS
 62
     3
100
AcDbLine
 10
580.681472
 20
350.6
 30
0.0
 11
588.215671
 21
350.6
 31
0.0
  0
LINE
  5
19D
100
AcDbEntity
  8
LAY-1
  6
CONTINUOUS
 62
     3
100
AcDbLine
 10
588.215671
 20
312.0
 30
0.0
 11
580.681472
 21
312.0
 31
0.0
  0
ARC
  5
19E
100
AcDbEntity
  8
LAY-1
  6
CONTINUOUS
 62
     3
100
AcDbCircle
 10
608.681472
 20
351.1
 30
0.0
 40
0.5
100
AcDbArc
 50
210.446042
 51
270.0
  0
ARC
  5
19F
100
AcDbEntity
  8
LAY-1
  6
CONTINUOUS
 62
     3
100
AcDbCircle
 10
605.448571
 20
349.199775
 30
0.0
 40
3.25
100
AcDbArc
 50
30.446042
 51
149.553958
  0
ARC
  5
1A0
100
AcDbEntity
  8
LAY-1
  6
CONTINUOUS
 62
     3
100
AcDbCircle
 10
602.215671
 20
351.1
 30
0.0
 40
0.5
100
AcDbArc
 50
270.0
 51
329.553958
  0
ARC
  5
1A1
100
AcDbEntity
  8
LAY-1
  6
CONTINUOUS
 62
     3
100
AcDbCircle
 10
602.215671
 20
311.5
 30
0.0
 40
0.5
100
AcDbArc
 50
30.446042
 51
90.0
  0
ARC
  5
1A2
100
AcDbEntity
  8
LAY-1
  6
CONTINUOUS
 62
     3
100
AcDbCircle
 10
605.448571
 20
313.400225
 30
0.0
 40
3.25
100
AcDbArc
 50
210.446042
 51
329.553958
  0
ARC
  5
1A3
100
AcDbEntity
  8
LAY-1
  6
CONTINUOUS
 62
     3
100
AcDbCircle
 10
608.681472
 20
311.5
 30
0.0
 40
0.5
100
AcDbArc
 50
90.0
 51
149.553958
  0
LINE
  5
1A4
100
AcDbEntity
  8
LAY-1
  6
CONTINUOUS
 62
     3
100
AcDbLine
 10
608.250418
 20
311.753363
 30
0.0
 11
608.250418
 21
350.846637
 31
0.0
  0
LINE
  5
1A5
100
AcDbEntity
  8
LAY-1
  6
CONTINUOUS
 62
     3
100
AcDbLine
 10
602.577364
 20
350.754778
 30
0.0
 11
602.577364
 21
311.753363
 31
0.0
  0
LINE
  5
1A6
100
AcDbEntity
  8
LAY-1
  6
CONTINUOUS
 62
     3
100
AcDbLine
 10
594.681472
 20
350.6
 30
0.0
 11
602.215671
 21
350.6
 31
0.0
  0
LINE
  5
1A7
100
AcDbEntity
  8
LAY-1
  6
CONTINUOUS
 62
     3
100
AcDbLine
 10
602.215671
 20
312.0
 30
0.0
 11
594.681472
 21
312.0
 31
0.0
  0
ARC
  5
1A8
100
AcDbEntity
  8
LAY-1
  6
CONTINUOUS
 62
     3
100
AcDbCircle
 10
622.681472
 20
351.1
 30
0.0
 40
0.5
100
AcDbArc
 50
210.446042
 51
270.0
  0
ARC
  5
1A9
100
AcDbEntity
  8
LAY-1
  6
CONTINUOUS
 62
     3
100
AcDbCircle
 10
619.448571
 20
349.199775
 30
0.0
 40
3.25
100
AcDbArc
 50
30.446042
 51
149.553958
  0
ARC
  5
1AA
100
AcDbEntity
  8
LAY-1
  6
CONTINUOUS
 62
     3
100
AcDbCircle
 10
616.215671
 20
351.1
 30
0.0
 40
0.5
100
AcDbArc
 50
270.0
 51
329.553958
  0
ARC
  5
1AB
100
AcDbEntity
  8
LAY-1
  6
CONTINUOUS
 62
     3
100
AcDbCircle
 10
616.215671
 20
311.5
 30
0.0
 40
0.5
100
AcDbArc
 50
30.446042
 51
90.0
  0
ARC
  5
1AC
100
AcDbEntity
  8
LAY-1
  6
CONTINUOUS
 62
     3
100
AcDbCircle
 10
619.448571
 20
313.400225
 30
0.0
 40
3.25
100
AcDbArc
 50
210.446042
 51
329.553958
  0
ARC
  5
1AD
100
AcDbEntity
  8
LAY-1
  6
CONTINUOUS
 62
     3
100
AcDbCircle
 10
622.681472
 20
311.5
 30
0.0
 40
0.5
100
AcDbArc
 50
90.0
 51
149.553958
  0
LINE
  5
1AE
100
AcDbEntity
  8
LAY-1
  6
CONTINUOUS
 62
     3
100
AcDbLine
 10
622.250418
 20
311.753363
 30
0.0
 11
622.250418
 21
350.846637
 31
0.0
  0
LINE
  5
1AF
100
AcDbEntity
  8
LAY-1
  6
CONTINUOUS
 62
     3
100
AcDbLine
 10
616.577364
 20
350.754778
 30
0.0
 11
616.577364
 21
311.753363
 31
0.0
  0
LINE
  5
1B0
100
AcDbEntity
  8
LAY-1
  6
EXLTYPE3
 62
     1
100
AcDbLine
 10
515.543979
 20
331.3
 30
0.0
 11
641.243979
 21
331.3
 31
0.0
  0
LINE
  5
1B1
100
AcDbEntity
  8
LAY-1
  6
CONTINUOUS
 62
     3
100
AcDbLine
 10
525.948571
 20
350.6
 30
0.0
 11
532.215671
 21
350.6
 31
0.0
  0
LINE
  5
1B2
100
AcDbEntity
  8
LAY-1
  6
CONTINUOUS
 62
     3
100
AcDbLine
 10
538.681472
 20
350.6
 30
0.0
 11
546.215671
 21
350.6
 31
0.0
  0
LINE
  5
1B3
100
AcDbEntity
  8
LAY-1
  6
CONTINUOUS
 62
     3
100
AcDbLine
 10
546.215671
 20
312.0
 30
0.0
 11
538.681472
 21
312.0
 31
0.0
  0
LINE
  5
1B4
100
AcDbEntity
  8
LAY-1
  6
CONTINUOUS
 62
     3
100
AcDbLine
 10
532.215671
 20
312.0
 30
0.0
 11
525.948571
 21
312.0
 31
0.0
  0
LINE
  5
1B5
100
AcDbEntity
  8
LAY-1
  6
CONTINUOUS
 62
     3
100
AcDbLine
 10
628.948571
 20
350.6
 30
0.0
 11
622.681472
 21
350.6
 31
0.0
  0
LINE
  5
1B6
100
AcDbEntity
  8
LAY-1
  6
CONTINUOUS
 62
     3
100
AcDbLine
 10
616.215671
 20
350.6
 30
0.0
 11
608.681472
 21
350.6
 31
0.0
  0
LINE
  5
1B7
100
AcDbEntity
  8
LAY-1
  6
CONTINUOUS
 62
     3
100
AcDbLine
 10
608.681472
 20
312.0
 30
0.0
 11
616.215671
 21
312.0
 31
0.0
  0
LINE
  5
1B8
100
AcDbEntity
  8
LAY-1
  6
CONTINUOUS
 62
     3
100
AcDbLine
 10
622.681472
 20
312.0
 30
0.0
 11
628.948571
 21
312.0
 31
0.0
  0
LINE
  5
1B9
100
AcDbEntity
  8
LAY-1
  6
CONTINUOUS
 62
     3
100
AcDbLine
 10
786.968571
 20
359.3
 30
0.0
 11
784.968571
 21
359.3
 31
0.0
  0
LINE
  5
1BA
100
AcDbEntity
  8
LAY-1
  6
CONTINUOUS
 62
     3
100
AcDbLine
 10
786.968571
 20
303.3
 30
0.0
 11
784.968571
 21
303.3
 31
0.0
  0
LINE
  5
1BB
100
AcDbEntity
  8
LAY-1
  6
CONTINUOUS
 62
     3
100
AcDbLine
 10
788.468571
 20
355.55
 30
0.0
 11
786.968571
 21
355.55
 31
0.0
  0
LINE
  5
1BC
100
AcDbEntity
  8
LAY-1
  6
CONTINUOUS
 62
     3
100
AcDbLine
 10
788.468571
 20
307.05
 30
0.0
 11
786.968571
 21
307.05
 31
0.0
  0
LINE
  5
1BD
100
AcDbEntity
  8
LAY-1
  6
CONTINUOUS
 62
     3
100
AcDbLine
 10
788.468571
 20
355.55
 30
0.0
 11
788.468571
 21
307.05
 31
0.0
  0
LINE
  5
1BE
100
AcDbEntity
  8
LAY-1
  6
CONTINUOUS
 62
     3
100
AcDbLine
 10
786.968571
 20
359.3
 30
0.0
 11
786.968571
 21
303.3
 31
0.0
  0
LINE
  5
1BF
100
AcDbEntity
  8
LAY-1
  6
CONTINUOUS
 62
     3
100
AcDbLine
 10
784.968571
 20
359.3
 30
0.0
 11
784.968571
 21
303.3
 31
0.0
  0
LINE
  5
1C0
100
AcDbEntity
  8
LAY-1
  6
CONTINUOUS
 62
     3
100
AcDbLine
 10
679.968571
 20
359.3
 30
0.0
 11
681.968571
 21
359.3
 31
0.0
  0
LINE
  5
1C1
100
AcDbEntity
  8
LAY-1
  6
CONTINUOUS
 62
     3
100
AcDbLine
 10
679.968571
 20
303.3
 30
0.0
 11
681.968571
 21
303.3
 31
0.0
  0
LINE
  5
1C2
100
AcDbEntity
  8
LAY-1
  6
CONTINUOUS
 62
     3
100
AcDbLine
 10
678.468571
 20
355.55
 30
0.0
 11
679.968571
 21
355.55
 31
0.0
  0
LINE
  5
1C3
100
AcDbEntity
  8
LAY-1
  6
CONTINUOUS
 62
     3
100
AcDbLine
 10
678.468571
 20
307.05
 30
0.0
 11
679.968571
 21
307.05
 31
0.0
  0
LINE
  5
1C4
100
AcDbEntity
  8
LAY-1
  6
CONTINUOUS
 62
     3
100
AcDbLine
 10
678.468571
 20
355.55
 30
0.0
 11
678.468571
 21
307.05
 31
0.0
  0
LINE
  5
1C5
100
AcDbEntity
  8
LAY-1
  6
CONTINUOUS
 62
     3
100
AcDbLine
 10
679.968571
 20
359.3
 30
0.0
 11
679.968571
 21
303.3
 31
0.0
  0
LINE
  5
1C6
100
AcDbEntity
  8
LAY-1
  6
CONTINUOUS
 62
     3
100
AcDbLine
 10
681.968571
 20
359.3
 30
0.0
 11
681.968571
 21
303.3
 31
0.0
  0
ARC
  5
1C7
100
AcDbEntity
  8
LAY-1
  6
CONTINUOUS
 62
     3
100
AcDbCircle
 10
744.235671
 20
355.05
 30
0.0
 40
0.5
100
AcDbArc
 50
270.0
 51
329.553958
  0
ARC
  5
1C8
100
AcDbEntity
  8
LAY-1
  6
CONTINUOUS
 62
     3
100
AcDbCircle
 10
747.468571
 20
353.149775
 30
0.0
 40
3.25
100
AcDbArc
 50
30.446042
 51
149.553958
  0
ARC
  5
1C9
100
AcDbEntity
  8
LAY-1
  6
CONTINUOUS
 62
     3
100
AcDbCircle
 10
750.701472
 20
355.05
 30
0.0
 40
0.5
100
AcDbArc
 50
210.446042
 51
270.0
  0
ARC
  5
1CA
100
AcDbEntity
  8
LAY-1
  6
CONTINUOUS
 62
     3
100
AcDbCircle
 10
750.701472
 20
307.55
 30
0.0
 40
0.5
100
AcDbArc
 50
90.0
 51
149.553958
  0
ARC
  5
1CB
100
AcDbEntity
  8
LAY-1
  6
CONTINUOUS
 62
     3
100
AcDbCircle
 10
747.468571
 20
309.450225
 30
0.0
 40
3.25
100
AcDbArc
 50
210.446042
 51
329.553958
  0
ARC
  5
1CC
100
AcDbEntity
  8
LAY-1
  6
CONTINUOUS
 62
     3
100
AcDbCircle
 10
744.235671
 20
307.55
 30
0.0
 40
0.5
100
AcDbArc
 50
30.446042
 51
90.0
  0
LINE
  5
1CD
100
AcDbEntity
  8
LAY-1
  6
CONTINUOUS
 62
     3
100
AcDbLine
 10
744.666725
 20
307.803363
 30
0.0
 11
744.666725
 21
354.796637
 31
0.0
  0
LINE
  5
1CE
100
AcDbEntity
  8
LAY-1
  6
CONTINUOUS
 62
     3
100
AcDbLine
 10
750.339779
 20
354.704778
 30
0.0
 11
750.339779
 21
307.803363
 31
0.0
  0
LINE
  5
1CF
100
AcDbEntity
  8
LAY-1
  6
CONTINUOUS
 62
     3
100
AcDbLine
 10
736.701472
 20
354.55
 30
0.0
 11
744.235671
 21
354.55
 31
0.0
  0
LINE
  5
1D0
100
AcDbEntity
  8
LAY-1
  6
CONTINUOUS
 62
     3
100
AcDbLine
 10
744.235671
 20
308.05
 30
0.0
 11
736.701472
 21
308.05
 31
0.0
  0
LINE
  5
1D1
100
AcDbEntity
  8
LAY-1
  6
CONTINUOUS
 62
     3
100
AcDbLine
 10
758.235671
 20
308.05
 30
0.0
 11
750.701472
 21
308.05
 31
0.0
  0
LINE
  5
1D2
100
AcDbEntity
  8
LAY-1
  6
CONTINUOUS
 62
     3
100
AcDbLine
 10
750.701472
 20
354.55
 30
0.0
 11
758.235671
 21
354.55
 31
0.0
  0
LINE
  5
1D3
100
AcDbEntity
  8
LAY-1
  6
CONTINUOUS
 62
     3
100
AcDbLine
 10
758.597364
 20
354.704778
 30
0.0
 11
758.597364
 21
307.803363
 31
0.0
  0
LINE
  5
1D4
100
AcDbEntity
  8
LAY-1
  6
CONTINUOUS
 62
     3
100
AcDbLine
 10
764.270418
 20
307.803363
 30
0.0
 11
764.270418
 21
354.796637
 31
0.0
  0
ARC
  5
1D5
100
AcDbEntity
  8
LAY-1
  6
CONTINUOUS
 62
     3
100
AcDbCircle
 10
764.701472
 20
307.55
 30
0.0
 40
0.5
100
AcDbArc
 50
90.0
 51
149.553958
  0
ARC
  5
1D6
100
AcDbEntity
  8
LAY-1
  6
CONTINUOUS
 62
     3
100
AcDbCircle
 10
761.468571
 20
309.450225
 30
0.0
 40
3.25
100
AcDbArc
 50
210.446042
 51
329.553958
  0
ARC
  5
1D7
100
AcDbEntity
  8
LAY-1
  6
CONTINUOUS
 62
     3
100
AcDbCircle
 10
758.235671
 20
307.55
 30
0.0
 40
0.5
100
AcDbArc
 50
30.446042
 51
90.0
  0
ARC
  5
1D8
100
AcDbEntity
  8
LAY-1
  6
CONTINUOUS
 62
     3
100
AcDbCircle
 10
758.235671
 20
355.05
 30
0.0
 40
0.5
100
AcDbArc
 50
270.0
 51
329.553958
  0
ARC
  5
1D9
100
AcDbEntity
  8
LAY-1
  6
CONTINUOUS
 62
     3
100
AcDbCircle
 10
761.468571
 20
353.149775
 30
0.0
 40
3.25
100
AcDbArc
 50
30.446042
 51
149.553958
  0
ARC
  5
1DA
100
AcDbEntity
  8
LAY-1
  6
CONTINUOUS
 62
     3
100
AcDbCircle
 10
764.701472
 20
355.05
 30
0.0
 40
0.5
100
AcDbArc
 50
210.446042
 51
270.0
  0
LINE
  5
1DB
100
AcDbEntity
  8
LAY-1
  6
CONTINUOUS
 62
     3
100
AcDbLine
 10
772.597364
 20
354.704778
 30
0.0
 11
772.597364
 21
307.803363
 31
0.0
  0
LINE
  5
1DC
100
AcDbEntity
  8
LAY-1
  6
CONTINUOUS
 62
     3
100
AcDbLine
 10
778.270418
 20
307.803363
 30
0.0
 11
778.270418
 21
354.796637
 31
0.0
  0
ARC
  5
1DD
100
AcDbEntity
  8
LAY-1
  6
CONTINUOUS
 62
     3
100
AcDbCircle
 10
778.701472
 20
307.55
 30
0.0
 40
0.5
100
AcDbArc
 50
90.0
 51
149.553958
  0
ARC
  5
1DE
100
AcDbEntity
  8
LAY-1
  6
CONTINUOUS
 62
     3
100
AcDbCircle
 10
775.468571
 20
309.450225
 30
0.0
 40
3.25
100
AcDbArc
 50
210.446042
 51
329.553958
  0
ARC
  5
1DF
100
AcDbEntity
  8
LAY-1
  6
CONTINUOUS
 62
     3
100
AcDbCircle
 10
772.235671
 20
307.55
 30
0.0
 40
0.5
100
AcDbArc
 50
30.446042
 51
90.0
  0
ARC
  5
1E0
100
AcDbEntity
  8
LAY-1
  6
CONTINUOUS
 62
     3
100
AcDbCircle
 10
772.235671
 20
355.05
 30
0.0
 40
0.5
100
AcDbArc
 50
270.0
 51
329.553958
  0
ARC
  5
1E1
100
AcDbEntity
  8
LAY-1
  6
CONTINUOUS
 62
     3
100
AcDbCircle
 10
775.468571
 20
353.149775
 30
0.0
 40
3.25
100
AcDbArc
 50
30.446042
 51
149.553958
  0
ARC
  5
1E2
100
AcDbEntity
  8
LAY-1
  6
CONTINUOUS
 62
     3
100
AcDbCircle
 10
778.701472
 20
355.05
 30
0.0
 40
0.5
100
AcDbArc
 50
210.446042
 51
270.0
  0
ARC
  5
1E3
100
AcDbEntity
  8
LAY-1
  6
CONTINUOUS
 62
     3
100
AcDbCircle
 10
716.235671
 20
355.05
 30
0.0
 40
0.5
100
AcDbArc
 50
270.0
 51
329.553958
  0
ARC
  5
1E4
100
AcDbEntity
  8
LAY-1
  6
CONTINUOUS
 62
     3
100
AcDbCircle
 10
719.468571
 20
353.149775
 30
0.0
 40
3.25
100
AcDbArc
 50
30.446042
 51
149.553958
  0
ARC
  5
1E5
100
AcDbEntity
  8
LAY-1
  6
CONTINUOUS
 62
     3
100
AcDbCircle
 10
722.701472
 20
355.05
 30
0.0
 40
0.5
100
AcDbArc
 50
210.446042
 51
270.0
  0
ARC
  5
1E6
100
AcDbEntity
  8
LAY-1
  6
CONTINUOUS
 62
     3
100
AcDbCircle
 10
722.701472
 20
307.55
 30
0.0
 40
0.5
100
AcDbArc
 50
90.0
 51
149.553958
  0
ARC
  5
1E7
100
AcDbEntity
  8
LAY-1
  6
CONTINUOUS
 62
     3
100
AcDbCircle
 10
719.468571
 20
309.450225
 30
0.0
 40
3.25
100
AcDbArc
 50
210.446042
 51
329.553958
  0
ARC
  5
1E8
100
AcDbEntity
  8
LAY-1
  6
CONTINUOUS
 62
     3
100
AcDbCircle
 10
716.235671
 20
307.55
 30
0.0
 40
0.5
100
AcDbArc
 50
30.446042
 51
90.0
  0
LINE
  5
1E9
100
AcDbEntity
  8
LAY-1
  6
CONTINUOUS
 62
     3
100
AcDbLine
 10
716.666725
 20
307.803363
 30
0.0
 11
716.666725
 21
354.796637
 31
0.0
  0
LINE
  5
1EA
100
AcDbEntity
  8
LAY-1
  6
CONTINUOUS
 62
     3
100
AcDbLine
 10
722.339779
 20
354.704778
 30
0.0
 11
722.339779
 21
307.803363
 31
0.0
  0
LINE
  5
1EB
100
AcDbEntity
  8
LAY-1
  6
CONTINUOUS
 62
     3
100
AcDbLine
 10
722.701472
 20
354.55
 30
0.0
 11
730.235671
 21
354.55
 31
0.0
  0
LINE
  5
1EC
100
AcDbEntity
  8
LAY-1
  6
CONTINUOUS
 62
     3
100
AcDbLine
 10
730.235671
 20
308.05
 30
0.0
 11
722.701472
 21
308.05
 31
0.0
  0
ARC
  5
1ED
100
AcDbEntity
  8
LAY-1
  6
CONTINUOUS
 62
     3
100
AcDbCircle
 10
702.235671
 20
355.05
 30
0.0
 40
0.5
100
AcDbArc
 50
270.0
 51
329.553958
  0
ARC
  5
1EE
100
AcDbEntity
  8
LAY-1
  6
CONTINUOUS
 62
     3
100
AcDbCircle
 10
705.468571
 20
353.149775
 30
0.0
 40
3.25
100
AcDbArc
 50
30.446042
 51
149.553958
  0
ARC
  5
1EF
100
AcDbEntity
  8
LAY-1
  6
CONTINUOUS
 62
     3
100
AcDbCircle
 10
708.701472
 20
355.05
 30
0.0
 40
0.5
100
AcDbArc
 50
210.446042
 51
270.0
  0
ARC
  5
1F0
100
AcDbEntity
  8
LAY-1
  6
CONTINUOUS
 62
     3
100
AcDbCircle
 10
708.701472
 20
307.55
 30
0.0
 40
0.5
100
AcDbArc
 50
90.0
 51
149.553958
  0
ARC
  5
1F1
100
AcDbEntity
  8
LAY-1
  6
CONTINUOUS
 62
     3
100
AcDbCircle
 10
705.468571
 20
309.450225
 30
0.0
 40
3.25
100
AcDbArc
 50
210.446042
 51
329.553958
  0
ARC
  5
1F2
100
AcDbEntity
  8
LAY-1
  6
CONTINUOUS
 62
     3
100
AcDbCircle
 10
702.235671
 20
307.55
 30
0.0
 40
0.5
100
AcDbArc
 50
30.446042
 51
90.0
  0
LINE
  5
1F3
100
AcDbEntity
  8
LAY-1
  6
CONTINUOUS
 62
     3
100
AcDbLine
 10
702.666725
 20
307.803363
 30
0.0
 11
702.666725
 21
354.796637
 31
0.0
  0
LINE
  5
1F4
100
AcDbEntity
  8
LAY-1
  6
CONTINUOUS
 62
     3
100
AcDbLine
 10
708.339779
 20
354.704778
 30
0.0
 11
708.339779
 21
307.803363
 31
0.0
  0
LINE
  5
1F5
100
AcDbEntity
  8
LAY-1
  6
CONTINUOUS
 62
     3
100
AcDbLine
 10
708.701472
 20
354.55
 30
0.0
 11
716.235671
 21
354.55
 31
0.0
  0
LINE
  5
1F6
100
AcDbEntity
  8
LAY-1
  6
CONTINUOUS
 62
     3
100
AcDbLine
 10
716.235671
 20
308.05
 30
0.0
 11
708.701472
 21
308.05
 31
0.0
  0
ARC
  5
1F7
100
AcDbEntity
  8
LAY-1
  6
CONTINUOUS
 62
     3
100
AcDbCircle
 10
688.235671
 20
355.05
 30
0.0
 40
0.5
100
AcDbArc
 50
270.0
 51
329.553958
  0
ARC
  5
1F8
100
AcDbEntity
  8
LAY-1
  6
CONTINUOUS
 62
     3
100
AcDbCircle
 10
691.468571
 20
353.149775
 30
0.0
 40
3.25
100
AcDbArc
 50
30.446042
 51
149.553958
  0
ARC
  5
1F9
100
AcDbEntity
  8
LAY-1
  6
CONTINUOUS
 62
     3
100
AcDbCircle
 10
694.701472
 20
355.05
 30
0.0
 40
0.5
100
AcDbArc
 50
210.446042
 51
270.0
  0
ARC
  5
1FA
100
AcDbEntity
  8
LAY-1
  6
CONTINUOUS
 62
     3
100
AcDbCircle
 10
694.701472
 20
307.55
 30
0.0
 40
0.5
100
AcDbArc
 50
90.0
 51
149.553958
  0
ARC
  5
1FB
100
AcDbEntity
  8
LAY-1
  6
CONTINUOUS
 62
     3
100
AcDbCircle
 10
691.468571
 20
309.450225
 30
0.0
 40
3.25
100
AcDbArc
 50
210.446042
 51
329.553958
  0
ARC
  5
1FC
100
AcDbEntity
  8
LAY-1
  6
CONTINUOUS
 62
     3
100
AcDbCircle
 10
688.235671
 20
307.55
 30
0.0
 40
0.5
100
AcDbArc
 50
30.446042
 51
90.0
  0
LINE
  5
1FD
100
AcDbEntity
  8
LAY-1
  6
CONTINUOUS
 62
     3
100
AcDbLine
 10
688.666725
 20
307.803363
 30
0.0
 11
688.666725
 21
354.796637
 31
0.0
  0
LINE
  5
1FE
100
AcDbEntity
  8
LAY-1
  6
CONTINUOUS
 62
     3
100
AcDbLine
 10
694.339779
 20
354.704778
 30
0.0
 11
694.339779
 21
307.803363
 31
0.0
  0
LINE
  5
1FF
100
AcDbEntity
  8
LAY-1
  6
EXLTYPE3
 62
     1
100
AcDbLine
 10
672.568571
 20
331.3
 30
0.0
 11
794.268571
 21
331.3
 31
0.0
  0
LINE
  5
200
100
AcDbEntity
  8
LAY-1
  6
CONTINUOUS
 62
     3
100
AcDbLine
 10
681.968571
 20
354.55
 30
0.0
 11
688.235671
 21
354.55
 31
0.0
  0
LINE
  5
201
100
AcDbEntity
  8
LAY-1
  6
CONTINUOUS
 62
     3
100
AcDbLine
 10
694.701472
 20
354.55
 30
0.0
 11
702.235671
 21
354.55
 31
0.0
  0
LINE
  5
202
100
AcDbEntity
  8
LAY-1
  6
CONTINUOUS
 62
     3
100
AcDbLine
 10
702.235671
 20
308.05
 30
0.0
 11
694.701472
 21
308.05
 31
0.0
  0
LINE
  5
203
100
AcDbEntity
  8
LAY-1
  6
CONTINUOUS
 62
     3
100
AcDbLine
 10
688.235671
 20
308.05
 30
0.0
 11
681.968571
 21
308.05
 31
0.0
  0
LINE
  5
204
100
AcDbEntity
  8
LAY-1
  6
CONTINUOUS
 62
     3
100
AcDbLine
 10
764.701472
 20
308.05
 30
0.0
 11
772.235671
 21
308.05
 31
0.0
  0
LINE
  5
205
100
AcDbEntity
  8
LAY-1
  6
CONTINUOUS
 62
     3
100
AcDbLine
 10
778.701472
 20
308.05
 30
0.0
 11
784.968571
 21
308.05
 31
0.0
  0
LINE
  5
206
100
AcDbEntity
  8
LAY-1
  6
CONTINUOUS
 62
     3
100
AcDbLine
 10
784.968571
 20
354.55
 30
0.0
 11
778.701472
 21
354.55
 31
0.0
  0
LINE
  5
207
100
AcDbEntity
  8
LAY-1
  6
CONTINUOUS
 62
     3
100
AcDbLine
 10
772.235671
 20
354.55
 30
0.0
 11
764.701472
 21
354.55
 31
0.0
  0
LINE
  5
208
100
AcDbEntity
  8
LAY-1
  6
CONTINUOUS
 62
     3
100
AcDbLine
 10
162.888571
 20
272.3
 30
0.0
 11
160.688571
 21
272.3
 31
0.0
  0
LINE
  5
209
100
AcDbEntity
  8
LAY-1
  6
CONTINUOUS
 62
     3
100
AcDbLine
 10
162.888571
 20
210.3
 30
0.0
 11
160.688571
 21
210.3
 31
0.0
  0
LINE
  5
20A
100
AcDbEntity
  8
LAY-1
  6
CONTINUOUS
 62
     3
100
AcDbLine
 10
164.388571
 20
268.05
 30
0.0
 11
162.888571
 21
268.05
 31
0.0
  0
LINE
  5
20B
100
AcDbEntity
  8
LAY-1
  6
CONTINUOUS
 62
     3
100
AcDbLine
 10
164.388571
 20
214.55
 30
0.0
 11
162.888571
 21
214.55
 31
0.0
  0
LINE
  5
20C
100
AcDbEntity
  8
LAY-1
  6
CONTINUOUS
 62
     3
100
AcDbLine
 10
164.388571
 20
268.05
 30
0.0
 11
164.388571
 21
214.55
 31
0.0
  0
LINE
  5
20D
100
AcDbEntity
  8
LAY-1
  6
CONTINUOUS
 62
     3
100
AcDbLine
 10
162.888571
 20
272.3
 30
0.0
 11
162.888571
 21
210.3
 31
0.0
  0
LINE
  5
20E
100
AcDbEntity
  8
LAY-1
  6
CONTINUOUS
 62
     3
100
AcDbLine
 10
160.688571
 20
272.3
 30
0.0
 11
160.688571
 21
210.3
 31
0.0
  0
LINE
  5
20F
100
AcDbEntity
  8
LAY-1
  6
CONTINUOUS
 62
     3
100
AcDbLine
 10
55.888571
 20
272.3
 30
0.0
 11
58.088571
 21
272.3
 31
0.0
  0
LINE
  5
210
100
AcDbEntity
  8
LAY-1
  6
CONTINUOUS
 62
     3
100
AcDbLine
 10
55.888571
 20
210.3
 30
0.0
 11
58.088571
 21
210.3
 31
0.0
  0
LINE
  5
211
100
AcDbEntity
  8
LAY-1
  6
CONTINUOUS
 62
     3
100
AcDbLine
 10
54.388571
 20
268.05
 30
0.0
 11
55.888571
 21
268.05
 31
0.0
  0
LINE
  5
212
100
AcDbEntity
  8
LAY-1
  6
CONTINUOUS
 62
     3
100
AcDbLine
 10
54.388571
 20
214.55
 30
0.0
 11
55.888571
 21
214.55
 31
0.0
  0
LINE
  5
213
100
AcDbEntity
  8
LAY-1
  6
CONTINUOUS
 62
     3
100
AcDbLine
 10
54.388571
 20
268.05
 30
0.0
 11
54.388571
 21
214.55
 31
0.0
  0
LINE
  5
214
100
AcDbEntity
  8
LAY-1
  6
CONTINUOUS
 62
     3
100
AcDbLine
 10
55.888571
 20
272.3
 30
0.0
 11
55.888571
 21
210.3
 31
0.0
  0
LINE
  5
215
100
AcDbEntity
  8
LAY-1
  6
CONTINUOUS
 62
     3
100
AcDbLine
 10
58.088571
 20
272.3
 30
0.0
 11
58.088571
 21
210.3
 31
0.0
  0
LINE
  5
216
100
AcDbEntity
  8
LAY-1
  6
CONTINUOUS
 62
     3
100
AcDbLine
 10
211.908571
 20
275.05
 30
0.0
 11
214.108571
 21
275.05
 31
0.0
  0
LINE
  5
217
100
AcDbEntity
  8
LAY-1
  6
CONTINUOUS
 62
     3
100
AcDbLine
 10
211.908571
 20
207.55
 30
0.0
 11
214.108571
 21
207.55
 31
0.0
  0
LINE
  5
218
100
AcDbEntity
  8
LAY-1
  6
CONTINUOUS
 62
     3
100
AcDbLine
 10
210.408571
 20
270.55
 30
0.0
 11
211.908571
 21
270.55
 31
0.0
  0
LINE
  5
219
100
AcDbEntity
  8
LAY-1
  6
CONTINUOUS
 62
     3
100
AcDbLine
 10
210.408571
 20
212.05
 30
0.0
 11
211.908571
 21
212.05
 31
0.0
  0
LINE
  5
21A
100
AcDbEntity
  8
LAY-1
  6
CONTINUOUS
 62
     3
100
AcDbLine
 10
210.408571
 20
270.55
 30
0.0
 11
210.408571
 21
212.05
 31
0.0
  0
LINE
  5
21B
100
AcDbEntity
  8
LAY-1
  6
CONTINUOUS
 62
     3
100
AcDbLine
 10
211.908571
 20
275.05
 30
0.0
 11
211.908571
 21
207.55
 31
0.0
  0
LINE
  5
21C
100
AcDbEntity
  8
LAY-1
  6
CONTINUOUS
 62
     3
100
AcDbLine
 10
214.108571
 20
275.05
 30
0.0
 11
214.108571
 21
207.55
 31
0.0
  0
LINE
  5
21D
100
AcDbEntity
  8
LAY-1
  6
CONTINUOUS
 62
     3
100
AcDbLine
 10
318.908571
 20
275.05
 30
0.0
 11
316.708571
 21
275.05
 31
0.0
  0
LINE
  5
21E
100
AcDbEntity
  8
LAY-1
  6
CONTINUOUS
 62
     3
100
AcDbLine
 10
318.908571
 20
207.55
 30
0.0
 11
316.708571
 21
207.55
 31
0.0
  0
LINE
  5
21F
100
AcDbEntity
  8
LAY-1
  6
CONTINUOUS
 62
     3
100
AcDbLine
 10
320.408571
 20
270.55
 30
0.0
 11
318.908571
 21
270.55
 31
0.0
  0
LINE
  5
220
100
AcDbEntity
  8
LAY-1
  6
CONTINUOUS
 62
     3
100
AcDbLine
 10
320.408571
 20
212.05
 30
0.0
 11
318.908571
 21
212.05
 31
0.0
  0
LINE
  5
221
100
AcDbEntity
  8
LAY-1
  6
CONTINUOUS
 62
     3
100
AcDbLine
 10
320.408571
 20
270.55
 30
0.0
 11
320.408571
 21
212.05
 31
0.0
  0
LINE
  5
222
100
AcDbEntity
  8
LAY-1
  6
CONTINUOUS
 62
     3
100
AcDbLine
 10
318.908571
 20
275.05
 30
0.0
 11
318.908571
 21
207.55
 31
0.0
  0
LINE
  5
223
100
AcDbEntity
  8
LAY-1
  6
CONTINUOUS
 62
     3
100
AcDbLine
 10
316.708571
 20
275.05
 30
0.0
 11
316.708571
 21
207.55
 31
0.0
  0
LINE
  5
224
100
AcDbEntity
  8
LAY-1
  6
CONTINUOUS
 62
     3
100
AcDbLine
 10
481.928571
 20
201.55
 30
0.0
 11
479.528571
 21
201.55
 31
0.0
  0
LINE
  5
225
100
AcDbEntity
  8
LAY-1
  6
CONTINUOUS
 62
     3
100
AcDbLine
 10
481.928571
 20
281.05
 30
0.0
 11
479.528571
 21
281.05
 31
0.0
  0
LINE
  5
226
100
AcDbEntity
  8
LAY-1
  6
CONTINUOUS
 62
     3
100
AcDbLine
 10
483.928571
 20
275.55
 30
0.0
 11
481.928571
 21
275.55
 31
0.0
  0
LINE
  5
227
100
AcDbEntity
  8
LAY-1
  6
CONTINUOUS
 62
     3
100
AcDbLine
 10
483.928571
 20
207.05
 30
0.0
 11
481.928571
 21
207.05
 31
0.0
  0
LINE
  5
228
100
AcDbEntity
  8
LAY-1
  6
CONTINUOUS
 62
     3
100
AcDbLine
 10
483.928571
 20
275.55
 30
0.0
 11
483.928571
 21
207.05
 31
0.0
  0
LINE
  5
229
100
AcDbEntity
  8
LAY-1
  6
CONTINUOUS
 62
     3
100
AcDbLine
 10
481.928571
 20
281.05
 30
0.0
 11
481.928571
 21
201.55
 31
0.0
  0
LINE
  5
22A
100
AcDbEntity
  8
LAY-1
  6
CONTINUOUS
 62
     3
100
AcDbLine
 10
479.528571
 20
281.05
 30
0.0
 11
479.528571
 21
201.55
 31
0.0
  0
LINE
  5
22B
100
AcDbEntity
  8
LAY-1
  6
CONTINUOUS
 62
     3
100
AcDbLine
 10
360.928571
 20
201.55
 30
0.0
 11
363.328571
 21
201.55
 31
0.0
  0
LINE
  5
22C
100
AcDbEntity
  8
LAY-1
  6
CONTINUOUS
 62
     3
100
AcDbLine
 10
360.928571
 20
281.05
 30
0.0
 11
363.328571
 21
281.05
 31
0.0
  0
LINE
  5
22D
100
AcDbEntity
  8
LAY-1
  6
CONTINUOUS
 62
     3
100
AcDbLine
 10
358.928571
 20
275.55
 30
0.0
 11
360.928571
 21
275.55
 31
0.0
  0
LINE
  5
22E
100
AcDbEntity
  8
LAY-1
  6
CONTINUOUS
 62
     3
100
AcDbLine
 10
358.928571
 20
207.05
 30
0.0
 11
360.928571
 21
207.05
 31
0.0
  0
LINE
  5
22F
100
AcDbEntity
  8
LAY-1
  6
CONTINUOUS
 62
     3
100
AcDbLine
 10
358.928571
 20
275.55
 30
0.0
 11
358.928571
 21
207.05
 31
0.0
  0
LINE
  5
230
100
AcDbEntity
  8
LAY-1
  6
CONTINUOUS
 62
     3
100
AcDbLine
 10
360.928571
 20
281.05
 30
0.0
 11
360.928571
 21
201.55
 31
0.0
  0
LINE
  5
231
100
AcDbEntity
  8
LAY-1
  6
CONTINUOUS
 62
     3
100
AcDbLine
 10
363.328571
 20
281.05
 30
0.0
 11
363.328571
 21
201.55
 31
0.0
  0
ARC
  5
232
100
AcDbEntity
  8
LAY-1
  6
CONTINUOUS
 62
     3
100
AcDbCircle
 10
418.195671
 20
274.3
 30
0.0
 40
0.5
100
AcDbArc
 50
270.0
 51
329.553958
  0
ARC
  5
233
100
AcDbEntity
  8
LAY-1
  6
CONTINUOUS
 62
     3
100
AcDbCircle
 10
421.428571
 20
272.399775
 30
0.0
 40
3.25
100
AcDbArc
 50
30.446042
 51
149.553958
  0
ARC
  5
234
100
AcDbEntity
  8
LAY-1
  6
CONTINUOUS
 62
     3
100
AcDbCircle
 10
424.661472
 20
274.3
 30
0.0
 40
0.5
100
AcDbArc
 50
210.446042
 51
270.0
  0
ARC
  5
235
100
AcDbEntity
  8
LAY-1
  6
CONTINUOUS
 62
     3
100
AcDbCircle
 10
424.661472
 20
208.3
 30
0.0
 40
0.5
100
AcDbArc
 50
90.0
 51
149.553958
  0
ARC
  5
236
100
AcDbEntity
  8
LAY-1
  6
CONTINUOUS
 62
     3
100
AcDbCircle
 10
421.428571
 20
210.200225
 30
0.0
 40
3.25
100
AcDbArc
 50
210.446042
 51
329.553958
  0
ARC
  5
237
100
AcDbEntity
  8
LAY-1
  6
CONTINUOUS
 62
     3
100
AcDbCircle
 10
418.195671
 20
208.3
 30
0.0
 40
0.5
100
AcDbArc
 50
30.446042
 51
90.0
  0
LINE
  5
238
100
AcDbEntity
  8
LAY-1
  6
CONTINUOUS
 62
     3
100
AcDbLine
 10
418.495889
 20
208.699836
 30
0.0
 11
418.495889
 21
273.900164
 31
0.0
  0
LINE
  5
239
100
AcDbEntity
  8
LAY-1
  6
CONTINUOUS
 62
     3
100
AcDbLine
 10
424.230418
 20
274.046637
 30
0.0
 11
424.230418
 21
208.553363
 31
0.0
  0
ARC
  5
23A
100
AcDbEntity
  8
LAY-1
  6
CONTINUOUS
 62
     3
100
AcDbCircle
 10
402.695671
 20
274.3
 30
0.0
 40
0.5
100
AcDbArc
 50
270.0
 51
329.553958
  0
ARC
  5
23B
100
AcDbEntity
  8
LAY-1
  6
CONTINUOUS
 62
     3
100
AcDbCircle
 10
405.928571
 20
272.399775
 30
0.0
 40
3.25
100
AcDbArc
 50
30.446042
 51
149.553958
  0
ARC
  5
23C
100
AcDbEntity
  8
LAY-1
  6
CONTINUOUS
 62
     3
100
AcDbCircle
 10
409.161472
 20
274.3
 30
0.0
 40
0.5
100
AcDbArc
 50
210.446042
 51
270.0
  0
LINE
  5
23D
100
AcDbEntity
  8
LAY-1
  6
CONTINUOUS
 62
     3
100
AcDbLine
 10
409.161472
 20
273.8
 30
0.0
 11
418.195671
 21
273.8
 31
0.0
  0
LINE
  5
23E
100
AcDbEntity
  8
LAY-1
  6
CONTINUOUS
 62
     3
100
AcDbLine
 10
418.195671
 20
208.8
 30
0.0
 11
409.161472
 21
208.8
 31
0.0
  0
ARC
  5
23F
100
AcDbEntity
  8
LAY-1
  6
CONTINUOUS
 62
     3
100
AcDbCircle
 10
409.161472
 20
208.3
 30
0.0
 40
0.5
100
AcDbArc
 50
90.0
 51
149.553958
  0
ARC
  5
240
100
AcDbEntity
  8
LAY-1
  6
CONTINUOUS
 62
     3
100
AcDbCircle
 10
405.928571
 20
210.200225
 30
0.0
 40
3.25
100
AcDbArc
 50
210.446042
 51
329.553958
  0
ARC
  5
241
100
AcDbEntity
  8
LAY-1
  6
CONTINUOUS
 62
     3
100
AcDbCircle
 10
402.695671
 20
208.3
 30
0.0
 40
0.5
100
AcDbArc
 50
30.446042
 51
90.0
  0
LINE
  5
242
100
AcDbEntity
  8
LAY-1
  6
CONTINUOUS
 62
     3
100
AcDbLine
 10
403.126725
 20
208.553363
 30
0.0
 11
403.126725
 21
274.046637
 31
0.0
  0
LINE
  5
243
100
AcDbEntity
  8
LAY-1
  6
CONTINUOUS
 62
     3
100
AcDbLine
 10
408.730418
 20
274.046637
 30
0.0
 11
408.730418
 21
208.553363
 31
0.0
  0
ARC
  5
244
100
AcDbEntity
  8
LAY-1
  6
CONTINUOUS
 62
     3
100
AcDbCircle
 10
387.195671
 20
274.3
 30
0.0
 40
0.5
100
AcDbArc
 50
270.0
 51
329.553958
  0
ARC
  5
245
100
AcDbEntity
  8
LAY-1
  6
CONTINUOUS
 62
     3
100
AcDbCircle
 10
390.428571
 20
272.399775
 30
0.0
 40
3.25
100
AcDbArc
 50
30.446042
 51
149.553958
  0
ARC
  5
246
100
AcDbEntity
  8
LAY-1
  6
CONTINUOUS
 62
     3
100
AcDbCircle
 10
393.661472
 20
274.3
 30
0.0
 40
0.5
100
AcDbArc
 50
210.446042
 51
270.0
  0
LINE
  5
247
100
AcDbEntity
  8
LAY-1
  6
CONTINUOUS
 62
     3
100
AcDbLine
 10
393.661472
 20
273.8
 30
0.0
 11
402.695671
 21
273.8
 31
0.0
  0
LINE
  5
248
100
AcDbEntity
  8
LAY-1
  6
CONTINUOUS
 62
     3
100
AcDbLine
 10
402.695671
 20
208.8
 30
0.0
 11
393.661472
 21
208.8
 31
0.0
  0
ARC
  5
249
100
AcDbEntity
  8
LAY-1
  6
CONTINUOUS
 62
     3
100
AcDbCircle
 10
393.661472
 20
208.3
 30
0.0
 40
0.5
100
AcDbArc
 50
90.0
 51
149.553958
  0
ARC
  5
24A
100
AcDbEntity
  8
LAY-1
  6
CONTINUOUS
 62
     3
100
AcDbCircle
 10
390.428571
 20
210.200225
 30
0.0
 40
3.25
100
AcDbArc
 50
210.446042
 51
329.553958
  0
ARC
  5
24B
100
AcDbEntity
  8
LAY-1
  6
CONTINUOUS
 62
     3
100
AcDbCircle
 10
387.195671
 20
208.3
 30
0.0
 40
0.5
100
AcDbArc
 50
30.446042
 51
90.0
  0
LINE
  5
24C
100
AcDbEntity
  8
LAY-1
  6
CONTINUOUS
 62
     3
100
AcDbLine
 10
387.626725
 20
208.553363
 30
0.0
 11
387.626725
 21
274.046637
 31
0.0
  0
LINE
  5
24D
100
AcDbEntity
  8
LAY-1
  6
CONTINUOUS
 62
     3
100
AcDbLine
 10
393.230418
 20
274.046637
 30
0.0
 11
393.230418
 21
208.553363
 31
0.0
  0
ARC
  5
24E
100
AcDbEntity
  8
LAY-1
  6
CONTINUOUS
 62
     3
100
AcDbCircle
 10
371.695671
 20
274.3
 30
0.0
 40
0.5
100
AcDbArc
 50
270.0
 51
329.553958
  0
ARC
  5
24F
100
AcDbEntity
  8
LAY-1
  6
CONTINUOUS
 62
     3
100
AcDbCircle
 10
374.928571
 20
272.399775
 30
0.0
 40
3.25
100
AcDbArc
 50
30.446042
 51
149.553958
  0
ARC
  5
250
100
AcDbEntity
  8
LAY-1
  6
CONTINUOUS
 62
     3
100
AcDbCircle
 10
378.161472
 20
274.3
 30
0.0
 40
0.5
100
AcDbArc
 50
210.446042
 51
270.0
  0
LINE
  5
251
100
AcDbEntity
  8
LAY-1
  6
CONTINUOUS
 62
     3
100
AcDbLine
 10
378.161472
 20
273.8
 30
0.0
 11
387.195671
 21
273.8
 31
0.0
  0
LINE
  5
252
100
AcDbEntity
  8
LAY-1
  6
CONTINUOUS
 62
     3
100
AcDbLine
 10
387.195671
 20
208.8
 30
0.0
 11
378.161472
 21
208.8
 31
0.0
  0
ARC
  5
253
100
AcDbEntity
  8
LAY-1
  6
CONTINUOUS
 62
     3
100
AcDbCircle
 10
378.161472
 20
208.3
 30
0.0
 40
0.5
100
AcDbArc
 50
90.0
 51
149.553958
  0
ARC
  5
254
100
AcDbEntity
  8
LAY-1
  6
CONTINUOUS
 62
     3
100
AcDbCircle
 10
374.928571
 20
210.200225
 30
0.0
 40
3.25
100
AcDbArc
 50
210.446042
 51
329.553958
  0
ARC
  5
255
100
AcDbEntity
  8
LAY-1
  6
CONTINUOUS
 62
     3
100
AcDbCircle
 10
371.695671
 20
208.3
 30
0.0
 40
0.5
100
AcDbArc
 50
30.446042
 51
90.0
  0
LINE
  5
256
100
AcDbEntity
  8
LAY-1
  6
CONTINUOUS
 62
     3
100
AcDbLine
 10
372.126725
 20
208.553363
 30
0.0
 11
372.126725
 21
274.046637
 31
0.0
  0
LINE
  5
257
100
AcDbEntity
  8
LAY-1
  6
CONTINUOUS
 62
     3
100
AcDbLine
 10
377.799779
 20
273.954778
 30
0.0
 11
377.799779
 21
208.645222
 31
0.0
  0
LINE
  5
258
100
AcDbEntity
  8
LAY-1
  6
CONTINUOUS
 62
     3
100
AcDbLine
 10
363.328571
 20
273.8
 30
0.0
 11
371.695671
 21
273.8
 31
0.0
  0
LINE
  5
259
100
AcDbEntity
  8
LAY-1
  6
CONTINUOUS
 62
     3
100
AcDbLine
 10
371.695671
 20
208.8
 30
0.0
 11
363.328571
 21
208.8
 31
0.0
  0
LINE
  5
25A
100
AcDbEntity
  8
LAY-1
  6
CONTINUOUS
 62
     3
100
AcDbLine
 10
424.661472
 20
273.8
 30
0.0
 11
433.695671
 21
273.8
 31
0.0
  0
ARC
  5
25B
100
AcDbEntity
  8
LAY-1
  6
CONTINUOUS
 62
     3
100
AcDbCircle
 10
440.161472
 20
274.3
 30
0.0
 40
0.5
100
AcDbArc
 50
210.446042
 51
270.0
  0
ARC
  5
25C
100
AcDbEntity
  8
LAY-1
  6
CONTINUOUS
 62
     3
100
AcDbCircle
 10
436.928571
 20
272.399775
 30
0.0
 40
3.25
100
AcDbArc
 50
30.446042
 51
149.553958
  0
ARC
  5
25D
100
AcDbEntity
  8
LAY-1
  6
CONTINUOUS
 62
     3
100
AcDbCircle
 10
433.695671
 20
274.3
 30
0.0
 40
0.5
100
AcDbArc
 50
270.0
 51
329.553958
  0
LINE
  5
25E
100
AcDbEntity
  8
LAY-1
  6
CONTINUOUS
 62
     3
100
AcDbLine
 10
433.695671
 20
208.8
 30
0.0
 11
424.661472
 21
208.8
 31
0.0
  0
ARC
  5
25F
100
AcDbEntity
  8
LAY-1
  6
CONTINUOUS
 62
     3
100
AcDbCircle
 10
433.695671
 20
208.3
 30
0.0
 40
0.5
100
AcDbArc
 50
30.446042
 51
90.0
  0
ARC
  5
260
100
AcDbEntity
  8
LAY-1
  6
CONTINUOUS
 62
     3
100
AcDbCircle
 10
436.928571
 20
210.200225
 30
0.0
 40
3.25
100
AcDbArc
 50
210.446042
 51
329.553958
  0
ARC
  5
261
100
AcDbEntity
  8
LAY-1
  6
CONTINUOUS
 62
     3
100
AcDbCircle
 10
440.161472
 20
208.3
 30
0.0
 40
0.5
100
AcDbArc
 50
90.0
 51
149.553958
  0
LINE
  5
262
100
AcDbEntity
  8
LAY-1
  6
CONTINUOUS
 62
     3
100
AcDbLine
 10
439.730418
 20
208.553363
 30
0.0
 11
439.730418
 21
274.046637
 31
0.0
  0
LINE
  5
263
100
AcDbEntity
  8
LAY-1
  6
CONTINUOUS
 62
     3
100
AcDbLine
 10
434.057364
 20
273.954778
 30
0.0
 11
434.057364
 21
208.645222
 31
0.0
  0
ARC
  5
264
100
AcDbEntity
  8
LAY-1
  6
CONTINUOUS
 62
     3
100
AcDbCircle
 10
455.661472
 20
274.3
 30
0.0
 40
0.5
100
AcDbArc
 50
210.446042
 51
270.0
  0
ARC
  5
265
100
AcDbEntity
  8
LAY-1
  6
CONTINUOUS
 62
     3
100
AcDbCircle
 10
452.428571
 20
272.399775
 30
0.0
 40
3.25
100
AcDbArc
 50
30.446042
 51
149.553958
  0
ARC
  5
266
100
AcDbEntity
  8
LAY-1
  6
CONTINUOUS
 62
     3
100
AcDbCircle
 10
449.195671
 20
274.3
 30
0.0
 40
0.5
100
AcDbArc
 50
270.0
 51
329.553958
  0
LINE
  5
267
100
AcDbEntity
  8
LAY-1
  6
CONTINUOUS
 62
     3
100
AcDbLine
 10
449.195671
 20
273.8
 30
0.0
 11
440.161472
 21
273.8
 31
0.0
  0
ARC
  5
268
100
AcDbEntity
  8
LAY-1
  6
CONTINUOUS
 62
     3
100
AcDbCircle
 10
449.195671
 20
208.3
 30
0.0
 40
0.5
100
AcDbArc
 50
30.446042
 51
90.0
  0
ARC
  5
269
100
AcDbEntity
  8
LAY-1
  6
CONTINUOUS
 62
     3
100
AcDbCircle
 10
452.428571
 20
210.200225
 30
0.0
 40
3.25
100
AcDbArc
 50
210.446042
 51
329.553958
  0
ARC
  5
26A
100
AcDbEntity
  8
LAY-1
  6
CONTINUOUS
 62
     3
100
AcDbCircle
 10
455.661472
 20
208.3
 30
0.0
 40
0.5
100
AcDbArc
 50
90.0
 51
149.553958
  0
LINE
  5
26B
100
AcDbEntity
  8
LAY-1
  6
CONTINUOUS
 62
     3
100
AcDbLine
 10
440.161472
 20
208.8
 30
0.0
 11
449.195671
 21
208.8
 31
0.0
  0
LINE
  5
26C
100
AcDbEntity
  8
LAY-1
  6
CONTINUOUS
 62
     3
100
AcDbLine
 10
455.230418
 20
208.553363
 30
0.0
 11
455.230418
 21
274.046637
 31
0.0
  0
LINE
  5
26D
100
AcDbEntity
  8
LAY-1
  6
CONTINUOUS
 62
     3
100
AcDbLine
 10
449.557364
 20
273.954778
 30
0.0
 11
449.557364
 21
208.645222
 31
0.0
  0
ARC
  5
26E
100
AcDbEntity
  8
LAY-1
  6
CONTINUOUS
 62
     3
100
AcDbCircle
 10
471.161472
 20
274.3
 30
0.0
 40
0.5
100
AcDbArc
 50
210.446042
 51
270.0
  0
ARC
  5
26F
100
AcDbEntity
  8
LAY-1
  6
CONTINUOUS
 62
     3
100
AcDbCircle
 10
467.928571
 20
272.399775
 30
0.0
 40
3.25
100
AcDbArc
 50
30.446042
 51
149.553958
  0
ARC
  5
270
100
AcDbEntity
  8
LAY-1
  6
CONTINUOUS
 62
     3
100
AcDbCircle
 10
464.695671
 20
274.3
 30
0.0
 40
0.5
100
AcDbArc
 50
270.0
 51
329.553958
  0
ARC
  5
271
100
AcDbEntity
  8
LAY-1
  6
CONTINUOUS
 62
     3
100
AcDbCircle
 10
464.695671
 20
208.3
 30
0.0
 40
0.5
100
AcDbArc
 50
30.446042
 51
90.0
  0
ARC
  5
272
100
AcDbEntity
  8
LAY-1
  6
CONTINUOUS
 62
     3
100
AcDbCircle
 10
467.928571
 20
210.200225
 30
0.0
 40
3.25
100
AcDbArc
 50
210.446042
 51
329.553958
  0
ARC
  5
273
100
AcDbEntity
  8
LAY-1
  6
CONTINUOUS
 62
     3
100
AcDbCircle
 10
471.161472
 20
208.3
 30
0.0
 40
0.5
100
AcDbArc
 50
90.0
 51
149.553958
  0
LINE
  5
274
100
AcDbEntity
  8
LAY-1
  6
CONTINUOUS
 62
     3
100
AcDbLine
 10
470.730418
 20
208.553363
 30
0.0
 11
470.730418
 21
274.046637
 31
0.0
  0
LINE
  5
275
100
AcDbEntity
  8
LAY-1
  6
CONTINUOUS
 62
     3
100
AcDbLine
 10
465.057364
 20
273.954778
 30
0.0
 11
465.057364
 21
208.645222
 31
0.0
  0
LINE
  5
276
100
AcDbEntity
  8
LAY-1
  6
CONTINUOUS
 62
     3
100
AcDbLine
 10
479.528571
 20
273.8
 30
0.0
 11
471.161472
 21
273.8
 31
0.0
  0
LINE
  5
277
100
AcDbEntity
  8
LAY-1
  6
CONTINUOUS
 62
     3
100
AcDbLine
 10
464.695671
 20
273.8
 30
0.0
 11
455.661472
 21
273.8
 31
0.0
  0
LINE
  5
278
100
AcDbEntity
  8
LAY-1
  6
CONTINUOUS
 62
     3
100
AcDbLine
 10
455.661472
 20
208.8
 30
0.0
 11
464.695671
 21
208.8
 31
0.0
  0
LINE
  5
279
100
AcDbEntity
  8
LAY-1
  6
CONTINUOUS
 62
     3
100
AcDbLine
 10
471.161472
 20
208.8
 30
0.0
 11
479.528571
 21
208.8
 31
0.0
  0
LINE
  5
27A
100
AcDbEntity
  8
LAY-1
  6
EXLTYPE3
 62
     1
100
AcDbLine
 10
353.0
 20
241.3
 30
0.0
 11
490.89101
 21
241.3
 31
0.0
  0
ARC
  5
27B
100
AcDbEntity
  8
LAY-1
  6
CONTINUOUS
 62
     3
100
AcDbCircle
 10
248.175671
 20
270.05
 30
0.0
 40
0.5
100
AcDbArc
 50
270.0
 51
329.553958
  0
ARC
  5
27C
100
AcDbEntity
  8
LAY-1
  6
CONTINUOUS
 62
     3
100
AcDbCircle
 10
251.408571
 20
268.149775
 30
0.0
 40
3.25
100
AcDbArc
 50
30.446042
 51
149.553958
  0
ARC
  5
27D
100
AcDbEntity
  8
LAY-1
  6
CONTINUOUS
 62
     3
100
AcDbCircle
 10
254.641472
 20
270.05
 30
0.0
 40
0.5
100
AcDbArc
 50
210.446042
 51
270.0
  0
LINE
  5
27E
100
AcDbEntity
  8
LAY-1
  6
CONTINUOUS
 62
     3
100
AcDbLine
 10
254.641472
 20
269.55
 30
0.0
 11
262.175671
 21
269.55
 31
0.0
  0
ARC
  5
27F
100
AcDbEntity
  8
LAY-1
  6
CONTINUOUS
 62
     3
100
AcDbCircle
 10
254.641472
 20
212.55
 30
0.0
 40
0.5
100
AcDbArc
 50
90.0
 51
149.553958
  0
ARC
  5
280
100
AcDbEntity
  8
LAY-1
  6
CONTINUOUS
 62
     3
100
AcDbCircle
 10
251.408571
 20
214.450225
 30
0.0
 40
3.25
100
AcDbArc
 50
210.446042
 51
329.553958
  0
ARC
  5
281
100
AcDbEntity
  8
LAY-1
  6
CONTINUOUS
 62
     3
100
AcDbCircle
 10
248.175671
 20
212.55
 30
0.0
 40
0.5
100
AcDbArc
 50
30.446042
 51
90.0
  0
LINE
  5
282
100
AcDbEntity
  8
LAY-1
  6
CONTINUOUS
 62
     3
100
AcDbLine
 10
262.175671
 20
213.05
 30
0.0
 11
254.641472
 21
213.05
 31
0.0
  0
LINE
  5
283
100
AcDbEntity
  8
LAY-1
  6
CONTINUOUS
 62
     3
100
AcDbLine
 10
248.606725
 20
212.803363
 30
0.0
 11
248.606725
 21
269.796637
 31
0.0
  0
LINE
  5
284
100
AcDbEntity
  8
LAY-1
  6
CONTINUOUS
 62
     3
100
AcDbLine
 10
254.279779
 20
269.704778
 30
0.0
 11
254.279779
 21
212.803363
 31
0.0
  0
ARC
  5
285
100
AcDbEntity
  8
LAY-1
  6
CONTINUOUS
 62
     3
100
AcDbCircle
 10
234.175671
 20
270.05
 30
0.0
 40
0.5
100
AcDbArc
 50
270.0
 51
329.553958
  0
ARC
  5
286
100
AcDbEntity
  8
LAY-1
  6
CONTINUOUS
 62
     3
100
AcDbCircle
 10
237.408571
 20
268.149775
 30
0.0
 40
3.25
100
AcDbArc
 50
30.446042
 51
149.553958
  0
ARC
  5
287
100
AcDbEntity
  8
LAY-1
  6
CONTINUOUS
 62
     3
100
AcDbCircle
 10
240.641472
 20
270.05
 30
0.0
 40
0.5
100
AcDbArc
 50
210.446042
 51
270.0
  0
LINE
  5
288
100
AcDbEntity
  8
LAY-1
  6
CONTINUOUS
 62
     3
100
AcDbLine
 10
240.641472
 20
269.55
 30
0.0
 11
248.175671
 21
269.55
 31
0.0
  0
ARC
  5
289
100
AcDbEntity
  8
LAY-1
  6
CONTINUOUS
 62
     3
100
AcDbCircle
 10
240.641472
 20
212.55
 30
0.0
 40
0.5
100
AcDbArc
 50
90.0
 51
149.553958
  0
ARC
  5
28A
100
AcDbEntity
  8
LAY-1
  6
CONTINUOUS
 62
     3
100
AcDbCircle
 10
237.408571
 20
214.450225
 30
0.0
 40
3.25
100
AcDbArc
 50
210.446042
 51
329.553958
  0
ARC
  5
28B
100
AcDbEntity
  8
LAY-1
  6
CONTINUOUS
 62
     3
100
AcDbCircle
 10
234.175671
 20
212.55
 30
0.0
 40
0.5
100
AcDbArc
 50
30.446042
 51
90.0
  0
LINE
  5
28C
100
AcDbEntity
  8
LAY-1
  6
CONTINUOUS
 62
     3
100
AcDbLine
 10
248.175671
 20
213.05
 30
0.0
 11
240.641472
 21
213.05
 31
0.0
  0
LINE
  5
28D
100
AcDbEntity
  8
LAY-1
  6
CONTINUOUS
 62
     3
100
AcDbLine
 10
234.606725
 20
212.803363
 30
0.0
 11
234.606725
 21
269.796637
 31
0.0
  0
LINE
  5
28E
100
AcDbEntity
  8
LAY-1
  6
CONTINUOUS
 62
     3
100
AcDbLine
 10
240.279779
 20
269.704778
 30
0.0
 11
240.279779
 21
212.803363
 31
0.0
  0
ARC
  5
28F
100
AcDbEntity
  8
LAY-1
  6
CONTINUOUS
 62
     3
100
AcDbCircle
 10
220.175671
 20
270.05
 30
0.0
 40
0.5
100
AcDbArc
 50
270.0
 51
329.553958
  0
ARC
  5
290
100
AcDbEntity
  8
LAY-1
  6
CONTINUOUS
 62
     3
100
AcDbCircle
 10
223.408571
 20
268.149775
 30
0.0
 40
3.25
100
AcDbArc
 50
30.446042
 51
149.553958
  0
ARC
  5
291
100
AcDbEntity
  8
LAY-1
  6
CONTINUOUS
 62
     3
100
AcDbCircle
 10
226.641472
 20
270.05
 30
0.0
 40
0.5
100
AcDbArc
 50
210.446042
 51
270.0
  0
ARC
  5
292
100
AcDbEntity
  8
LAY-1
  6
CONTINUOUS
 62
     3
100
AcDbCircle
 10
226.641472
 20
212.55
 30
0.0
 40
0.5
100
AcDbArc
 50
90.0
 51
149.553958
  0
ARC
  5
293
100
AcDbEntity
  8
LAY-1
  6
CONTINUOUS
 62
     3
100
AcDbCircle
 10
223.408571
 20
214.450225
 30
0.0
 40
3.25
100
AcDbArc
 50
210.446042
 51
329.553958
  0
ARC
  5
294
100
AcDbEntity
  8
LAY-1
  6
CONTINUOUS
 62
     3
100
AcDbCircle
 10
220.175671
 20
212.55
 30
0.0
 40
0.5
100
AcDbArc
 50
30.446042
 51
90.0
  0
LINE
  5
295
100
AcDbEntity
  8
LAY-1
  6
CONTINUOUS
 62
     3
100
AcDbLine
 10
220.606725
 20
212.803363
 30
0.0
 11
220.606725
 21
269.796637
 31
0.0
  0
LINE
  5
296
100
AcDbEntity
  8
LAY-1
  6
CONTINUOUS
 62
     3
100
AcDbLine
 10
226.279779
 20
269.704778
 30
0.0
 11
226.279779
 21
212.803363
 31
0.0
  0
LINE
  5
297
100
AcDbEntity
  8
LAY-1
  6
CONTINUOUS
 62
     3
100
AcDbLine
 10
234.175671
 20
213.05
 30
0.0
 11
226.641472
 21
213.05
 31
0.0
  0
LINE
  5
298
100
AcDbEntity
  8
LAY-1
  6
CONTINUOUS
 62
     3
100
AcDbLine
 10
220.175671
 20
213.05
 30
0.0
 11
214.108571
 21
213.05
 31
0.0
  0
LINE
  5
299
100
AcDbEntity
  8
LAY-1
  6
CONTINUOUS
 62
     3
100
AcDbLine
 10
214.108571
 20
269.55
 30
0.0
 11
220.175671
 21
269.55
 31
0.0
  0
LINE
  5
29A
100
AcDbEntity
  8
LAY-1
  6
CONTINUOUS
 62
     3
100
AcDbLine
 10
226.641472
 20
269.55
 30
0.0
 11
234.175671
 21
269.55
 31
0.0
  0
ARC
  5
29B
100
AcDbEntity
  8
LAY-1
  6
CONTINUOUS
 62
     3
100
AcDbCircle
 10
276.175671
 20
270.05
 30
0.0
 40
0.5
100
AcDbArc
 50
270.0
 51
329.553958
  0
ARC
  5
29C
100
AcDbEntity
  8
LAY-1
  6
CONTINUOUS
 62
     3
100
AcDbCircle
 10
279.408571
 20
268.149775
 30
0.0
 40
3.25
100
AcDbArc
 50
30.446042
 51
149.553958
  0
ARC
  5
29D
100
AcDbEntity
  8
LAY-1
  6
CONTINUOUS
 62
     3
100
AcDbCircle
 10
282.641472
 20
270.05
 30
0.0
 40
0.5
100
AcDbArc
 50
210.446042
 51
270.0
  0
LINE
  5
29E
100
AcDbEntity
  8
LAY-1
  6
CONTINUOUS
 62
     3
100
AcDbLine
 10
268.641472
 20
269.55
 30
0.0
 11
276.175671
 21
269.55
 31
0.0
  0
ARC
  5
29F
100
AcDbEntity
  8
LAY-1
  6
CONTINUOUS
 62
     3
100
AcDbCircle
 10
282.641472
 20
212.55
 30
0.0
 40
0.5
100
AcDbArc
 50
90.0
 51
149.553958
  0
ARC
  5
2A0
100
AcDbEntity
  8
LAY-1
  6
CONTINUOUS
 62
     3
100
AcDbCircle
 10
279.408571
 20
214.450225
 30
0.0
 40
3.25
100
AcDbArc
 50
210.446042
 51
329.553958
  0
ARC
  5
2A1
100
AcDbEntity
  8
LAY-1
  6
CONTINUOUS
 62
     3
100
AcDbCircle
 10
276.175671
 20
212.55
 30
0.0
 40
0.5
100
AcDbArc
 50
30.446042
 51
90.0
  0
LINE
  5
2A2
100
AcDbEntity
  8
LAY-1
  6
CONTINUOUS
 62
     3
100
AcDbLine
 10
276.175671
 20
213.05
 30
0.0
 11
268.641472
 21
213.05
 31
0.0
  0
LINE
  5
2A3
100
AcDbEntity
  8
LAY-1
  6
CONTINUOUS
 62
     3
100
AcDbLine
 10
276.606725
 20
212.803363
 30
0.0
 11
276.606725
 21
269.796637
 31
0.0
  0
LINE
  5
2A4
100
AcDbEntity
  8
LAY-1
  6
CONTINUOUS
 62
     3
100
AcDbLine
 10
282.279779
 20
269.704778
 30
0.0
 11
282.279779
 21
212.803363
 31
0.0
  0
ARC
  5
2A5
100
AcDbEntity
  8
LAY-1
  6
CONTINUOUS
 62
     3
100
AcDbCircle
 10
296.641472
 20
270.05
 30
0.0
 40
0.5
100
AcDbArc
 50
210.446042
 51
270.0
  0
ARC
  5
2A6
100
AcDbEntity
  8
LAY-1
  6
CONTINUOUS
 62
     3
100
AcDbCircle
 10
293.408571
 20
268.149775
 30
0.0
 40
3.25
100
AcDbArc
 50
30.446042
 51
149.553958
  0
ARC
  5
2A7
100
AcDbEntity
  8
LAY-1
  6
CONTINUOUS
 62
     3
100
AcDbCircle
 10
290.175671
 20
270.05
 30
0.0
 40
0.5
100
AcDbArc
 50
270.0
 51
329.553958
  0
LINE
  5
2A8
100
AcDbEntity
  8
LAY-1
  6
CONTINUOUS
 62
     3
100
AcDbLine
 10
282.641472
 20
269.55
 30
0.0
 11
290.175671
 21
269.55
 31
0.0
  0
ARC
  5
2A9
100
AcDbEntity
  8
LAY-1
  6
CONTINUOUS
 62
     3
100
AcDbCircle
 10
290.175671
 20
212.55
 30
0.0
 40
0.5
100
AcDbArc
 50
30.446042
 51
90.0
  0
ARC
  5
2AA
100
AcDbEntity
  8
LAY-1
  6
CONTINUOUS
 62
     3
100
AcDbCircle
 10
293.408571
 20
214.450225
 30
0.0
 40
3.25
100
AcDbArc
 50
210.446042
 51
329.553958
  0
ARC
  5
2AB
100
AcDbEntity
  8
LAY-1
  6
CONTINUOUS
 62
     3
100
AcDbCircle
 10
296.641472
 20
212.55
 30
0.0
 40
0.5
100
AcDbArc
 50
90.0
 51
149.553958
  0
LINE
  5
2AC
100
AcDbEntity
  8
LAY-1
  6
CONTINUOUS
 62
     3
100
AcDbLine
 10
290.175671
 20
213.05
 30
0.0
 11
282.641472
 21
213.05
 31
0.0
  0
LINE
  5
2AD
100
AcDbEntity
  8
LAY-1
  6
CONTINUOUS
 62
     3
100
AcDbLine
 10
296.210418
 20
212.803363
 30
0.0
 11
296.210418
 21
269.796637
 31
0.0
  0
LINE
  5
2AE
100
AcDbEntity
  8
LAY-1
  6
CONTINUOUS
 62
     3
100
AcDbLine
 10
290.537364
 20
269.704778
 30
0.0
 11
290.537364
 21
212.803363
 31
0.0
  0
ARC
  5
2AF
100
AcDbEntity
  8
LAY-1
  6
CONTINUOUS
 62
     3
100
AcDbCircle
 10
310.641472
 20
270.05
 30
0.0
 40
0.5
100
AcDbArc
 50
210.446042
 51
270.0
  0
ARC
  5
2B0
100
AcDbEntity
  8
LAY-1
  6
CONTINUOUS
 62
     3
100
AcDbCircle
 10
307.408571
 20
268.149775
 30
0.0
 40
3.25
100
AcDbArc
 50
30.446042
 51
149.553958
  0
ARC
  5
2B1
100
AcDbEntity
  8
LAY-1
  6
CONTINUOUS
 62
     3
100
AcDbCircle
 10
304.175671
 20
270.05
 30
0.0
 40
0.5
100
AcDbArc
 50
270.0
 51
329.553958
  0
ARC
  5
2B2
100
AcDbEntity
  8
LAY-1
  6
CONTINUOUS
 62
     3
100
AcDbCircle
 10
304.175671
 20
212.55
 30
0.0
 40
0.5
100
AcDbArc
 50
30.446042
 51
90.0
  0
ARC
  5
2B3
100
AcDbEntity
  8
LAY-1
  6
CONTINUOUS
 62
     3
100
AcDbCircle
 10
307.408571
 20
214.450225
 30
0.0
 40
3.25
100
AcDbArc
 50
210.446042
 51
329.553958
  0
ARC
  5
2B4
100
AcDbEntity
  8
LAY-1
  6
CONTINUOUS
 62
     3
100
AcDbCircle
 10
310.641472
 20
212.55
 30
0.0
 40
0.5
100
AcDbArc
 50
90.0
 51
149.553958
  0
LINE
  5
2B5
100
AcDbEntity
  8
LAY-1
  6
CONTINUOUS
 62
     3
100
AcDbLine
 10
310.210418
 20
212.803363
 30
0.0
 11
310.210418
 21
269.796637
 31
0.0
  0
LINE
  5
2B6
100
AcDbEntity
  8
LAY-1
  6
CONTINUOUS
 62
     3
100
AcDbLine
 10
304.537364
 20
269.704778
 30
0.0
 11
304.537364
 21
212.803363
 31
0.0
  0
LINE
  5
2B7
100
AcDbEntity
  8
LAY-1
  6
CONTINUOUS
 62
     3
100
AcDbLine
 10
316.708571
 20
269.55
 30
0.0
 11
310.641472
 21
269.55
 31
0.0
  0
LINE
  5
2B8
100
AcDbEntity
  8
LAY-1
  6
CONTINUOUS
 62
     3
100
AcDbLine
 10
304.175671
 20
269.55
 30
0.0
 11
296.641472
 21
269.55
 31
0.0
  0
LINE
  5
2B9
100
AcDbEntity
  8
LAY-1
  6
CONTINUOUS
 62
     3
100
AcDbLine
 10
296.641472
 20
213.05
 30
0.0
 11
304.175671
 21
213.05
 31
0.0
  0
LINE
  5
2BA
100
AcDbEntity
  8
LAY-1
  6
CONTINUOUS
 62
     3
100
AcDbLine
 10
310.641472
 20
213.05
 30
0.0
 11
316.708571
 21
213.05
 31
0.0
  0
LINE
  5
2BB
100
AcDbEntity
  8
LAY-1
  6
EXLTYPE3
 62
     1
100
AcDbLine
 10
204.908571
 20
241.3
 30
0.0
 11
324.813867
 21
241.3
 31
0.0
  0
ARC
  5
2BC
100
AcDbEntity
  8
LAY-1
  6
CONTINUOUS
 62
     3
100
AcDbCircle
 10
92.155671
 20
267.55
 30
0.0
 40
0.5
100
AcDbArc
 50
270.0
 51
329.553958
  0
ARC
  5
2BD
100
AcDbEntity
  8
LAY-1
  6
CONTINUOUS
 62
     3
100
AcDbCircle
 10
95.388571
 20
265.649775
 30
0.0
 40
3.25
100
AcDbArc
 50
30.446042
 51
149.553958
  0
ARC
  5
2BE
100
AcDbEntity
  8
LAY-1
  6
CONTINUOUS
 62
     3
100
AcDbCircle
 10
98.621472
 20
267.55
 30
0.0
 40
0.5
100
AcDbArc
 50
210.446042
 51
270.0
  0
ARC
  5
2BF
100
AcDbEntity
  8
LAY-1
  6
CONTINUOUS
 62
     3
100
AcDbCircle
 10
98.621472
 20
215.05
 30
0.0
 40
0.5
100
AcDbArc
 50
90.0
 51
149.553958
  0
ARC
  5
2C0
100
AcDbEntity
  8
LAY-1
  6
CONTINUOUS
 62
     3
100
AcDbCircle
 10
95.388571
 20
216.950225
 30
0.0
 40
3.25
100
AcDbArc
 50
210.446042
 51
329.553958
  0
ARC
  5
2C1
100
AcDbEntity
  8
LAY-1
  6
CONTINUOUS
 62
     3
100
AcDbCircle
 10
92.155671
 20
215.05
 30
0.0
 40
0.5
100
AcDbArc
 50
30.446042
 51
90.0
  0
LINE
  5
2C2
100
AcDbEntity
  8
LAY-1
  6
CONTINUOUS
 62
     3
100
AcDbLine
 10
92.586725
 20
215.303363
 30
0.0
 11
92.586725
 21
267.296637
 31
0.0
  0
LINE
  5
2C3
100
AcDbEntity
  8
LAY-1
  6
CONTINUOUS
 62
     3
100
AcDbLine
 10
98.259779
 20
267.204778
 30
0.0
 11
98.259779
 21
215.303363
 31
0.0
  0
LINE
  5
2C4
100
AcDbEntity
  8
LAY-1
  6
CONTINUOUS
 62
     3
100
AcDbLine
 10
98.621472
 20
267.05
 30
0.0
 11
106.155671
 21
267.05
 31
0.0
  0
LINE
  5
2C5
100
AcDbEntity
  8
LAY-1
  6
CONTINUOUS
 62
     3
100
AcDbLine
 10
106.155671
 20
215.55
 30
0.0
 11
98.621472
 21
215.55
 31
0.0
  0
ARC
  5
2C6
100
AcDbEntity
  8
LAY-1
  6
CONTINUOUS
 62
     3
100
AcDbCircle
 10
78.155671
 20
267.55
 30
0.0
 40
0.5
100
AcDbArc
 50
270.0
 51
329.553958
  0
ARC
  5
2C7
100
AcDbEntity
  8
LAY-1
  6
CONTINUOUS
 62
     3
100
AcDbCircle
 10
81.388571
 20
265.649775
 30
0.0
 40
3.25
100
AcDbArc
 50
30.446042
 51
149.553958
  0
ARC
  5
2C8
100
AcDbEntity
  8
LAY-1
  6
CONTINUOUS
 62
     3
100
AcDbCircle
 10
84.621472
 20
267.55
 30
0.0
 40
0.5
100
AcDbArc
 50
210.446042
 51
270.0
  0
ARC
  5
2C9
100
AcDbEntity
  8
LAY-1
  6
CONTINUOUS
 62
     3
100
AcDbCircle
 10
84.621472
 20
215.05
 30
0.0
 40
0.5
100
AcDbArc
 50
90.0
 51
149.553958
  0
ARC
  5
2CA
100
AcDbEntity
  8
LAY-1
  6
CONTINUOUS
 62
     3
100
AcDbCircle
 10
81.388571
 20
216.950225
 30
0.0
 40
3.25
100
AcDbArc
 50
210.446042
 51
329.553958
  0
ARC
  5
2CB
100
AcDbEntity
  8
LAY-1
  6
CONTINUOUS
 62
     3
100
AcDbCircle
 10
78.155671
 20
215.05
 30
0.0
 40
0.5
100
AcDbArc
 50
30.446042
 51
90.0
  0
LINE
  5
2CC
100
AcDbEntity
  8
LAY-1
  6
CONTINUOUS
 62
     3
100
AcDbLine
 10
78.586725
 20
215.303363
 30
0.0
 11
78.586725
 21
267.296637
 31
0.0
  0
LINE
  5
2CD
100
AcDbEntity
  8
LAY-1
  6
CONTINUOUS
 62
     3
100
AcDbLine
 10
84.259779
 20
267.204778
 30
0.0
 11
84.259779
 21
215.303363
 31
0.0
  0
LINE
  5
2CE
100
AcDbEntity
  8
LAY-1
  6
CONTINUOUS
 62
     3
100
AcDbLine
 10
84.621472
 20
267.05
 30
0.0
 11
92.155671
 21
267.05
 31
0.0
  0
LINE
  5
2CF
100
AcDbEntity
  8
LAY-1
  6
CONTINUOUS
 62
     3
100
AcDbLine
 10
92.155671
 20
215.55
 30
0.0
 11
84.621472
 21
215.55
 31
0.0
  0
ARC
  5
2D0
100
AcDbEntity
  8
LAY-1
  6
CONTINUOUS
 62
     3
100
AcDbCircle
 10
64.155671
 20
267.55
 30
0.0
 40
0.5
100
AcDbArc
 50
270.0
 51
329.553958
  0
ARC
  5
2D1
100
AcDbEntity
  8
LAY-1
  6
CONTINUOUS
 62
     3
100
AcDbCircle
 10
67.388571
 20
265.649775
 30
0.0
 40
3.25
100
AcDbArc
 50
30.446042
 51
149.553958
  0
ARC
  5
2D2
100
AcDbEntity
  8
LAY-1
  6
CONTINUOUS
 62
     3
100
AcDbCircle
 10
70.621472
 20
267.55
 30
0.0
 40
0.5
100
AcDbArc
 50
210.446042
 51
270.0
  0
ARC
  5
2D3
100
AcDbEntity
  8
LAY-1
  6
CONTINUOUS
 62
     3
100
AcDbCircle
 10
70.621472
 20
215.05
 30
0.0
 40
0.5
100
AcDbArc
 50
90.0
 51
149.553958
  0
ARC
  5
2D4
100
AcDbEntity
  8
LAY-1
  6
CONTINUOUS
 62
     3
100
AcDbCircle
 10
67.388571
 20
216.950225
 30
0.0
 40
3.25
100
AcDbArc
 50
210.446042
 51
329.553958
  0
ARC
  5
2D5
100
AcDbEntity
  8
LAY-1
  6
CONTINUOUS
 62
     3
100
AcDbCircle
 10
64.155671
 20
215.05
 30
0.0
 40
0.5
100
AcDbArc
 50
30.446042
 51
90.0
  0
LINE
  5
2D6
100
AcDbEntity
  8
LAY-1
  6
CONTINUOUS
 62
     3
100
AcDbLine
 10
64.586725
 20
215.303363
 30
0.0
 11
64.586725
 21
267.296637
 31
0.0
  0
LINE
  5
2D7
100
AcDbEntity
  8
LAY-1
  6
CONTINUOUS
 62
     3
100
AcDbLine
 10
70.259779
 20
267.204778
 30
0.0
 11
70.259779
 21
215.303363
 31
0.0
  0
LINE
  5
2D8
100
AcDbEntity
  8
LAY-1
  6
CONTINUOUS
 62
     3
100
AcDbLine
 10
78.586725
 20
215.55
 30
0.0
 11
70.621472
 21
215.55
 31
0.0
  0
LINE
  5
2D9
100
AcDbEntity
  8
LAY-1
  6
CONTINUOUS
 62
     3
100
AcDbLine
 10
64.155671
 20
215.55
 30
0.0
 11
58.088571
 21
215.55
 31
0.0
  0
LINE
  5
2DA
100
AcDbEntity
  8
LAY-1
  6
CONTINUOUS
 62
     3
100
AcDbLine
 10
58.088571
 20
267.05
 30
0.0
 11
64.155671
 21
267.05
 31
0.0
  0
LINE
  5
2DB
100
AcDbEntity
  8
LAY-1
  6
CONTINUOUS
 62
     3
100
AcDbLine
 10
70.621472
 20
267.05
 30
0.0
 11
78.586725
 21
267.05
 31
0.0
  0
ARC
  5
2DC
100
AcDbEntity
  8
LAY-1
  6
CONTINUOUS
 62
     3
100
AcDbCircle
 10
120.155671
 20
267.55
 30
0.0
 40
0.5
100
AcDbArc
 50
270.0
 51
329.553958
  0
ARC
  5
2DD
100
AcDbEntity
  8
LAY-1
  6
CONTINUOUS
 62
     3
100
AcDbCircle
 10
123.388571
 20
265.649775
 30
0.0
 40
3.25
100
AcDbArc
 50
30.446042
 51
149.553958
  0
ARC
  5
2DE
100
AcDbEntity
  8
LAY-1
  6
CONTINUOUS
 62
     3
100
AcDbCircle
 10
126.621472
 20
267.55
 30
0.0
 40
0.5
100
AcDbArc
 50
210.446042
 51
270.0
  0
ARC
  5
2DF
100
AcDbEntity
  8
LAY-1
  6
CONTINUOUS
 62
     3
100
AcDbCircle
 10
126.621472
 20
215.05
 30
0.0
 40
0.5
100
AcDbArc
 50
90.0
 51
149.553958
  0
ARC
  5
2E0
100
AcDbEntity
  8
LAY-1
  6
CONTINUOUS
 62
     3
100
AcDbCircle
 10
123.388571
 20
216.950225
 30
0.0
 40
3.25
100
AcDbArc
 50
210.446042
 51
329.553958
  0
ARC
  5
2E1
100
AcDbEntity
  8
LAY-1
  6
CONTINUOUS
 62
     3
100
AcDbCircle
 10
120.155671
 20
215.05
 30
0.0
 40
0.5
100
AcDbArc
 50
30.446042
 51
90.0
  0
LINE
  5
2E2
100
AcDbEntity
  8
LAY-1
  6
CONTINUOUS
 62
     3
100
AcDbLine
 10
120.586725
 20
215.303363
 30
0.0
 11
120.586725
 21
267.296637
 31
0.0
  0
LINE
  5
2E3
100
AcDbEntity
  8
LAY-1
  6
CONTINUOUS
 62
     3
100
AcDbLine
 10
126.259779
 20
267.204778
 30
0.0
 11
126.259779
 21
215.303363
 31
0.0
  0
LINE
  5
2E4
100
AcDbEntity
  8
LAY-1
  6
CONTINUOUS
 62
     3
100
AcDbLine
 10
112.621472
 20
267.05
 30
0.0
 11
120.155671
 21
267.05
 31
0.0
  0
LINE
  5
2E5
100
AcDbEntity
  8
LAY-1
  6
CONTINUOUS
 62
     3
100
AcDbLine
 10
120.155671
 20
215.55
 30
0.0
 11
112.621472
 21
215.55
 31
0.0
  0
ARC
  5
2E6
100
AcDbEntity
  8
LAY-1
  6
CONTINUOUS
 62
     3
100
AcDbCircle
 10
140.621472
 20
267.55
 30
0.0
 40
0.5
100
AcDbArc
 50
210.446042
 51
270.0
  0
ARC
  5
2E7
100
AcDbEntity
  8
LAY-1
  6
CONTINUOUS
 62
     3
100
AcDbCircle
 10
137.388571
 20
265.649775
 30
0.0
 40
3.25
100
AcDbArc
 50
30.446042
 51
149.553958
  0
ARC
  5
2E8
100
AcDbEntity
  8
LAY-1
  6
CONTINUOUS
 62
     3
100
AcDbCircle
 10
134.155671
 20
267.55
 30
0.0
 40
0.5
100
AcDbArc
 50
270.0
 51
329.553958
  0
ARC
  5
2E9
100
AcDbEntity
  8
LAY-1
  6
CONTINUOUS
 62
     3
100
AcDbCircle
 10
134.155671
 20
215.05
 30
0.0
 40
0.5
100
AcDbArc
 50
30.446042
 51
90.0
  0
ARC
  5
2EA
100
AcDbEntity
  8
LAY-1
  6
CONTINUOUS
 62
     3
100
AcDbCircle
 10
137.388571
 20
216.950225
 30
0.0
 40
3.25
100
AcDbArc
 50
210.446042
 51
329.553958
  0
ARC
  5
2EB
100
AcDbEntity
  8
LAY-1
  6
CONTINUOUS
 62
     3
100
AcDbCircle
 10
140.621472
 20
215.05
 30
0.0
 40
0.5
100
AcDbArc
 50
90.0
 51
149.553958
  0
LINE
  5
2EC
100
AcDbEntity
  8
LAY-1
  6
CONTINUOUS
 62
     3
100
AcDbLine
 10
140.190418
 20
215.303363
 30
0.0
 11
140.190418
 21
267.296637
 31
0.0
  0
LINE
  5
2ED
100
AcDbEntity
  8
LAY-1
  6
CONTINUOUS
 62
     3
100
AcDbLine
 10
134.517364
 20
267.204778
 30
0.0
 11
134.517364
 21
215.303363
 31
0.0
  0
LINE
  5
2EE
100
AcDbEntity
  8
LAY-1
  6
CONTINUOUS
 62
     3
100
AcDbLine
 10
126.621472
 20
267.05
 30
0.0
 11
134.155671
 21
267.05
 31
0.0
  0
LINE
  5
2EF
100
AcDbEntity
  8
LAY-1
  6
CONTINUOUS
 62
     3
100
AcDbLine
 10
134.155671
 20
215.55
 30
0.0
 11
126.621472
 21
215.55
 31
0.0
  0
ARC
  5
2F0
100
AcDbEntity
  8
LAY-1
  6
CONTINUOUS
 62
     3
100
AcDbCircle
 10
154.621472
 20
267.55
 30
0.0
 40
0.5
100
AcDbArc
 50
210.446042
 51
270.0
  0
ARC
  5
2F1
100
AcDbEntity
  8
LAY-1
  6
CONTINUOUS
 62
     3
100
AcDbCircle
 10
151.388571
 20
265.649775
 30
0.0
 40
3.25
100
AcDbArc
 50
30.446042
 51
149.553958
  0
ARC
  5
2F2
100
AcDbEntity
  8
LAY-1
  6
CONTINUOUS
 62
     3
100
AcDbCircle
 10
148.155671
 20
267.55
 30
0.0
 40
0.5
100
AcDbArc
 50
270.0
 51
329.553958
  0
ARC
  5
2F3
100
AcDbEntity
  8
LAY-1
  6
CONTINUOUS
 62
     3
100
AcDbCircle
 10
148.155671
 20
215.05
 30
0.0
 40
0.5
100
AcDbArc
 50
30.446042
 51
90.0
  0
ARC
  5
2F4
100
AcDbEntity
  8
LAY-1
  6
CONTINUOUS
 62
     3
100
AcDbCircle
 10
151.388571
 20
216.950225
 30
0.0
 40
3.25
100
AcDbArc
 50
210.446042
 51
329.553958
  0
ARC
  5
2F5
100
AcDbEntity
  8
LAY-1
  6
CONTINUOUS
 62
     3
100
AcDbCircle
 10
154.621472
 20
215.05
 30
0.0
 40
0.5
100
AcDbArc
 50
90.0
 51
149.553958
  0
LINE
  5
2F6
100
AcDbEntity
  8
LAY-1
  6
CONTINUOUS
 62
     3
100
AcDbLine
 10
154.190418
 20
215.303363
 30
0.0
 11
154.190418
 21
267.296637
 31
0.0
  0
LINE
  5
2F7
100
AcDbEntity
  8
LAY-1
  6
CONTINUOUS
 62
     3
100
AcDbLine
 10
148.517364
 20
267.204778
 30
0.0
 11
148.517364
 21
215.303363
 31
0.0
  0
LINE
  5
2F8
100
AcDbEntity
  8
LAY-1
  6
CONTINUOUS
 62
     3
100
AcDbLine
 10
160.688571
 20
267.05
 30
0.0
 11
154.621472
 21
267.05
 31
0.0
  0
LINE
  5
2F9
100
AcDbEntity
  8
LAY-1
  6
CONTINUOUS
 62
     3
100
AcDbLine
 10
148.155671
 20
267.05
 30
0.0
 11
140.190418
 21
267.05
 31
0.0
  0
LINE
  5
2FA
100
AcDbEntity
  8
LAY-1
  6
CONTINUOUS
 62
     3
100
AcDbLine
 10
140.190418
 20
215.55
 30
0.0
 11
148.155671
 21
215.55
 31
0.0
  0
LINE
  5
2FB
100
AcDbEntity
  8
LAY-1
  6
CONTINUOUS
 62
     3
100
AcDbLine
 10
154.621472
 20
215.55
 30
0.0
 11
160.688571
 21
215.55
 31
0.0
  0
LINE
  5
2FC
100
AcDbEntity
  8
LAY-1
  6
EXLTYPE3
 62
     1
100
AcDbLine
 10
48.445714
 20
241.3
 30
0.0
 11
173.245714
 21
241.3
 31
0.0
  0
LINE
  5
2FD
100
AcDbEntity
  8
LAY-1
  6
CONTINUOUS
 62
     2
100
AcDbLine
 10
655.458571
 20
536.3
 30
0.0
 11
655.458571
 21
296.3
 31
0.0
  0
LINE
  5
2FE
100
AcDbEntity
  8
LAY-1
  6
CONTINUOUS
 62
     3
100
AcDbLine
 10
61.788571
 20
493.55
 30
0.0
 11
67.173983
 21
493.55
 31
0.0
  0
ARC
  5
2FF
100
AcDbEntity
  8
LAY-1
  6
CONTINUOUS
 62
     3
100
AcDbCircle
 10
69.388571
 20
492.69
 30
0.0
 40
2.2
100
AcDbArc
 50
27.645523
 51
152.354477
  0
ARC
  5
300
100
AcDbEntity
  8
LAY-1
  6
CONTINUOUS
 62
     3
100
AcDbCircle
 10
71.603159
 20
493.85
 30
0.0
 40
0.3
100
AcDbArc
 50
207.645523
 51
270.0
  0
ARC
  5
301
100
AcDbEntity
  8
LAY-1
  6
CONTINUOUS
 62
     3
100
AcDbCircle
 10
67.173983
 20
493.85
 30
0.0
 40
0.3
100
AcDbArc
 50
270.0
 51
332.354477
  0
ARC
  5
302
100
AcDbEntity
  8
LAY-1
  6
CONTINUOUS
 62
     3
100
AcDbCircle
 10
67.173983
 20
488.75
 30
0.0
 40
0.3
100
AcDbArc
 50
27.645523
 51
90.0
  0
ARC
  5
303
100
AcDbEntity
  8
LAY-1
  6
CONTINUOUS
 62
     3
100
AcDbCircle
 10
69.388571
 20
489.91
 30
0.0
 40
2.2
100
AcDbArc
 50
207.645523
 51
332.354477
  0
ARC
  5
304
100
AcDbEntity
  8
LAY-1
  6
CONTINUOUS
 62
     3
100
AcDbCircle
 10
71.603159
 20
488.75
 30
0.0
 40
0.3
100
AcDbArc
 50
90.0
 51
152.354477
  0
LINE
  5
305
100
AcDbEntity
  8
LAY-1
  6
CONTINUOUS
 62
     3
100
AcDbLine
 10
67.439734
 20
493.7108
 30
0.0
 11
67.439734
 21
488.8892
 31
0.0
  0
LINE
  5
306
100
AcDbEntity
  8
LAY-1
  6
CONTINUOUS
 62
     3
100
AcDbLine
 10
71.337409
 20
488.8892
 30
0.0
 11
71.337409
 21
493.7108
 31
0.0
  0
LINE
  5
307
100
AcDbEntity
  8
LAY-1
  6
CONTINUOUS
 62
     3
100
AcDbLine
 10
67.173983
 20
489.05
 30
0.0
 11
61.788571
 21
489.05
 31
0.0
  0
ARC
  5
308
100
AcDbEntity
  8
LAY-1
  6
CONTINUOUS
 62
     3
100
AcDbCircle
 10
149.388571
 20
492.69
 30
0.0
 40
2.2
100
AcDbArc
 50
27.645523
 51
152.354477
  0
ARC
  5
309
100
AcDbEntity
  8
LAY-1
  6
CONTINUOUS
 62
     3
100
AcDbCircle
 10
147.173983
 20
493.85
 30
0.0
 40
0.3
100
AcDbArc
 50
270.0
 51
332.354477
  0
ARC
  5
30A
100
AcDbEntity
  8
LAY-1
  6
CONTINUOUS
 62
     3
100
AcDbCircle
 10
151.603159
 20
493.85
 30
0.0
 40
0.3
100
AcDbArc
 50
207.645523
 51
270.0
  0
LINE
  5
30B
100
AcDbEntity
  8
LAY-1
  6
CONTINUOUS
 62
     3
100
AcDbLine
 10
156.988571
 20
493.55
 30
0.0
 11
151.603159
 21
493.55
 31
0.0
  0
ARC
  5
30C
100
AcDbEntity
  8
LAY-1
  6
CONTINUOUS
 62
     3
100
AcDbCircle
 10
151.603159
 20
488.75
 30
0.0
 40
0.3
100
AcDbArc
 50
90.0
 51
152.354477
  0
ARC
  5
30D
100
AcDbEntity
  8
LAY-1
  6
CONTINUOUS
 62
     3
100
AcDbCircle
 10
149.388571
 20
489.91
 30
0.0
 40
2.2
100
AcDbArc
 50
207.645523
 51
332.354477
  0
ARC
  5
30E
100
AcDbEntity
  8
LAY-1
  6
CONTINUOUS
 62
     3
100
AcDbCircle
 10
147.173983
 20
488.75
 30
0.0
 40
0.3
100
AcDbArc
 50
27.645523
 51
90.0
  0
LINE
  5
30F
100
AcDbEntity
  8
LAY-1
  6
CONTINUOUS
 62
     3
100
AcDbLine
 10
156.988571
 20
489.05
 30
0.0
 11
151.603159
 21
489.05
 31
0.0
  0
LINE
  5
310
100
AcDbEntity
  8
LAY-1
  6
CONTINUOUS
 62
     3
100
AcDbLine
 10
151.337409
 20
493.7108
 30
0.0
 11
151.337409
 21
488.8892
 31
0.0
  0
LINE
  5
311
100
AcDbEntity
  8
LAY-1
  6
CONTINUOUS
 62
     3
100
AcDbLine
 10
147.439734
 20
488.8892
 30
0.0
 11
147.439734
 21
493.7108
 31
0.0
  0
LINE
  5
312
100
AcDbEntity
  8
LAY-1
  6
EXLTYPE3
 62
     1
100
AcDbLine
 10
53.488571
 20
491.3
 30
0.0
 11
163.91598
 21
491.3
 31
0.0
  0
LINE
  5
313
100
AcDbEntity
  8
LAY-1
  6
CONTINUOUS
 62
     3
100
AcDbLine
 10
71.603159
 20
493.55
 30
0.0
 11
147.173983
 21
493.55
 31
0.0
  0
LINE
  5
314
100
AcDbEntity
  8
LAY-1
  6
CONTINUOUS
 62
     3
100
AcDbLine
 10
147.173983
 20
489.05
 30
0.0
 11
71.603159
 21
489.05
 31
0.0
  0
ARC
  5
315
100
AcDbEntity
  8
LAY-1
  6
CONTINUOUS
 62
     3
100
AcDbCircle
 10
227.623159
 20
494.1
 30
0.0
 40
0.3
100
AcDbArc
 50
207.645523
 51
270.0
  0
LINE
  5
316
100
AcDbEntity
  8
LAY-1
  6
CONTINUOUS
 62
     3
100
AcDbLine
 10
217.808571
 20
493.8
 30
0.0
 11
223.193983
 21
493.8
 31
0.0
  0
ARC
  5
317
100
AcDbEntity
  8
LAY-1
  6
CONTINUOUS
 62
     3
100
AcDbCircle
 10
225.408571
 20
492.94
 30
0.0
 40
2.2
100
AcDbArc
 50
27.645523
 51
152.354477
  0
ARC
  5
318
100
AcDbEntity
  8
LAY-1
  6
CONTINUOUS
 62
     3
100
AcDbCircle
 10
223.193983
 20
494.1
 30
0.0
 40
0.3
100
AcDbArc
 50
270.0
 51
332.354477
  0
LINE
  5
319
100
AcDbEntity
  8
LAY-1
  6
CONTINUOUS
 62
     3
100
AcDbLine
 10
217.808571
 20
488.8
 30
0.0
 11
223.193983
 21
488.8
 31
0.0
  0
ARC
  5
31A
100
AcDbEntity
  8
LAY-1
  6
CONTINUOUS
 62
     3
100
AcDbCircle
 10
227.623159
 20
488.5
 30
0.0
 40
0.3
100
AcDbArc
 50
90.0
 51
152.354477
  0
ARC
  5
31B
100
AcDbEntity
  8
LAY-1
  6
CONTINUOUS
 62
     3
100
AcDbCircle
 10
225.408571
 20
489.66
 30
0.0
 40
2.2
100
AcDbArc
 50
207.645523
 51
332.354477
  0
ARC
  5
31C
100
AcDbEntity
  8
LAY-1
  6
CONTINUOUS
 62
     3
100
AcDbCircle
 10
223.193983
 20
488.5
 30
0.0
 40
0.3
100
AcDbArc
 50
27.645523
 51
90.0
  0
LINE
  5
31D
100
AcDbEntity
  8
LAY-1
  6
CONTINUOUS
 62
     3
100
AcDbLine
 10
223.459734
 20
493.9608
 30
0.0
 11
223.459734
 21
488.6392
 31
0.0
  0
LINE
  5
31E
100
AcDbEntity
  8
LAY-1
  6
CONTINUOUS
 62
     3
100
AcDbLine
 10
227.357409
 20
488.6392
 30
0.0
 11
227.357409
 21
493.9608
 31
0.0
  0
ARC
  5
31F
100
AcDbEntity
  8
LAY-1
  6
CONTINUOUS
 62
     3
100
AcDbCircle
 10
303.193983
 20
494.1
 30
0.0
 40
0.3
100
AcDbArc
 50
270.0
 51
332.354477
  0
ARC
  5
320
100
AcDbEntity
  8
LAY-1
  6
CONTINUOUS
 62
     3
100
AcDbCircle
 10
305.408571
 20
492.94
 30
0.0
 40
2.2
100
AcDbArc
 50
27.645523
 51
152.354477
  0
ARC
  5
321
100
AcDbEntity
  8
LAY-1
  6
CONTINUOUS
 62
     3
100
AcDbCircle
 10
307.623159
 20
494.1
 30
0.0
 40
0.3
100
AcDbArc
 50
207.645523
 51
270.0
  0
LINE
  5
322
100
AcDbEntity
  8
LAY-1
  6
CONTINUOUS
 62
     3
100
AcDbLine
 10
313.008571
 20
493.8
 30
0.0
 11
307.623159
 21
493.8
 31
0.0
  0
LINE
  5
323
100
AcDbEntity
  8
LAY-1
  6
CONTINUOUS
 62
     3
100
AcDbLine
 10
313.008571
 20
488.8
 30
0.0
 11
307.623159
 21
488.8
 31
0.0
  0
ARC
  5
324
100
AcDbEntity
  8
LAY-1
  6
CONTINUOUS
 62
     3
100
AcDbCircle
 10
303.193983
 20
488.5
 30
0.0
 40
0.3
100
AcDbArc
 50
27.645523
 51
90.0
  0
ARC
  5
325
100
AcDbEntity
  8
LAY-1
  6
CONTINUOUS
 62
     3
100
AcDbCircle
 10
305.408571
 20
489.66
 30
0.0
 40
2.2
100
AcDbArc
 50
207.645523
 51
332.354477
  0
ARC
  5
326
100
AcDbEntity
  8
LAY-1
  6
CONTINUOUS
 62
     3
100
AcDbCircle
 10
307.623159
 20
488.5
 30
0.0
 40
0.3
100
AcDbArc
 50
90.0
 51
152.354477
  0
LINE
  5
327
100
AcDbEntity
  8
LAY-1
  6
CONTINUOUS
 62
     3
100
AcDbLine
 10
307.357409
 20
493.9608
 30
0.0
 11
307.357409
 21
488.6392
 31
0.0
  0
LINE
  5
328
100
AcDbEntity
  8
LAY-1
  6
CONTINUOUS
 62
     3
100
AcDbLine
 10
303.459734
 20
488.6392
 30
0.0
 11
303.459734
 21
493.9608
 31
0.0
  0
LINE
  5
329
100
AcDbEntity
  8
LAY-1
  6
EXLTYPE3
 62
     1
100
AcDbLine
 10
208.793123
 20
491.3
 30
0.0
 11
322.593123
 21
491.3
 31
0.0
  0
LINE
  5
32A
100
AcDbEntity
  8
LAY-1
  6
CONTINUOUS
 62
     3
100
AcDbLine
 10
227.623159
 20
493.8
 30
0.0
 11
303.193983
 21
493.8
 31
0.0
  0
LINE
  5
32B
100
AcDbEntity
  8
LAY-1
  6
CONTINUOUS
 62
     3
100
AcDbLine
 10
227.623159
 20
488.8
 30
0.0
 11
303.193983
 21
488.8
 31
0.0
  0
ARC
  5
32C
100
AcDbEntity
  8
LAY-1
  6
CONTINUOUS
 62
     3
100
AcDbCircle
 10
383.643159
 20
494.7
 30
0.0
 40
0.3
100
AcDbArc
 50
207.645523
 51
270.0
  0
LINE
  5
32D
100
AcDbEntity
  8
LAY-1
  6
CONTINUOUS
 62
     3
100
AcDbLine
 10
374.028571
 20
494.4
 30
0.0
 11
379.213983
 21
494.4
 31
0.0
  0
ARC
  5
32E
100
AcDbEntity
  8
LAY-1
  6
CONTINUOUS
 62
     3
100
AcDbCircle
 10
381.428571
 20
493.54
 30
0.0
 40
2.2
100
AcDbArc
 50
27.645523
 51
152.354477
  0
ARC
  5
32F
100
AcDbEntity
  8
LAY-1
  6
CONTINUOUS
 62
     3
100
AcDbCircle
 10
379.213983
 20
494.7
 30
0.0
 40
0.3
100
AcDbArc
 50
270.0
 51
332.354477
  0
ARC
  5
330
100
AcDbEntity
  8
LAY-1
  6
CONTINUOUS
 62
     3
100
AcDbCircle
 10
379.213983
 20
487.9
 30
0.0
 40
0.3
100
AcDbArc
 50
27.645523
 51
90.0
  0
ARC
  5
331
100
AcDbEntity
  8
LAY-1
  6
CONTINUOUS
 62
     3
100
AcDbCircle
 10
381.428571
 20
489.06
 30
0.0
 40
2.2
100
AcDbArc
 50
207.645523
 51
332.354477
  0
ARC
  5
332
100
AcDbEntity
  8
LAY-1
  6
CONTINUOUS
 62
     3
100
AcDbCircle
 10
383.643159
 20
487.9
 30
0.0
 40
0.3
100
AcDbArc
 50
90.0
 51
152.354477
  0
LINE
  5
333
100
AcDbEntity
  8
LAY-1
  6
CONTINUOUS
 62
     3
100
AcDbLine
 10
374.028571
 20
488.2
 30
0.0
 11
379.213983
 21
488.2
 31
0.0
  0
LINE
  5
334
100
AcDbEntity
  8
LAY-1
  6
CONTINUOUS
 62
     3
100
AcDbLine
 10
379.479734
 20
494.5608
 30
0.0
 11
379.479734
 21
488.0392
 31
0.0
  0
LINE
  5
335
100
AcDbEntity
  8
LAY-1
  6
CONTINUOUS
 62
     3
100
AcDbLine
 10
383.377409
 20
488.0392
 30
0.0
 11
383.377409
 21
494.5608
 31
0.0
  0
LINE
  5
336
100
AcDbEntity
  8
LAY-1
  6
CONTINUOUS
 62
     3
100
AcDbLine
 10
468.828571
 20
494.4
 30
0.0
 11
463.643159
 21
494.4
 31
0.0
  0
ARC
  5
337
100
AcDbEntity
  8
LAY-1
  6
CONTINUOUS
 62
     3
100
AcDbCircle
 10
459.213983
 20
494.7
 30
0.0
 40
0.3
100
AcDbArc
 50
270.0
 51
332.354477
  0
ARC
  5
338
100
AcDbEntity
  8
LAY-1
  6
CONTINUOUS
 62
     3
100
AcDbCircle
 10
461.428571
 20
493.54
 30
0.0
 40
2.2
100
AcDbArc
 50
27.645523
 51
152.354477
  0
ARC
  5
339
100
AcDbEntity
  8
LAY-1
  6
CONTINUOUS
 62
     3
100
AcDbCircle
 10
463.643159
 20
494.7
 30
0.0
 40
0.3
100
AcDbArc
 50
207.645523
 51
270.0
  0
ARC
  5
33A
100
AcDbEntity
  8
LAY-1
  6
CONTINUOUS
 62
     3
100
AcDbCircle
 10
463.643159
 20
487.9
 30
0.0
 40
0.3
100
AcDbArc
 50
90.0
 51
152.354477
  0
ARC
  5
33B
100
AcDbEntity
  8
LAY-1
  6
CONTINUOUS
 62
     3
100
AcDbCircle
 10
461.428571
 20
489.06
 30
0.0
 40
2.2
100
AcDbArc
 50
207.645523
 51
332.354477
  0
ARC
  5
33C
100
AcDbEntity
  8
LAY-1
  6
CONTINUOUS
 62
     3
100
AcDbCircle
 10
459.213983
 20
487.9
 30
0.0
 40
0.3
100
AcDbArc
 50
27.645523
 51
90.0
  0
LINE
  5
33D
100
AcDbEntity
  8
LAY-1
  6
CONTINUOUS
 62
     3
100
AcDbLine
 10
468.828571
 20
488.2
 30
0.0
 11
463.643159
 21
488.2
 31
0.0
  0
LINE
  5
33E
100
AcDbEntity
  8
LAY-1
  6
CONTINUOUS
 62
     3
100
AcDbLine
 10
463.377409
 20
494.5608
 30
0.0
 11
463.377409
 21
488.0392
 31
0.0
  0
LINE
  5
33F
100
AcDbEntity
  8
LAY-1
  6
CONTINUOUS
 62
     3
100
AcDbLine
 10
459.479734
 20
488.0392
 30
0.0
 11
459.479734
 21
494.5608
 31
0.0
  0
LINE
  5
340
100
AcDbEntity
  8
LAY-1
  6
EXLTYPE3
 62
     1
100
AcDbLine
 10
366.570266
 20
491.3
 30
0.0
 11
478.770266
 21
491.3
 31
0.0
  0
LINE
  5
341
100
AcDbEntity
  8
LAY-1
  6
CONTINUOUS
 62
     3
100
AcDbLine
 10
383.643159
 20
494.4
 30
0.0
 11
459.213983
 21
494.4
 31
0.0
  0
LINE
  5
342
100
AcDbEntity
  8
LAY-1
  6
CONTINUOUS
 62
     3
100
AcDbLine
 10
459.213983
 20
488.2
 30
0.0
 11
383.643159
 21
488.2
 31
0.0
  0
ARC
  5
343
100
AcDbEntity
  8
LAY-1
  6
CONTINUOUS
 62
     3
100
AcDbCircle
 10
539.663159
 20
494.6
 30
0.0
 40
0.3
100
AcDbArc
 50
207.645523
 51
270.0
  0
LINE
  5
344
100
AcDbEntity
  8
LAY-1
  6
CONTINUOUS
 62
     3
100
AcDbLine
 10
530.048571
 20
494.3
 30
0.0
 11
535.499734
 21
494.3
 31
0.0
  0
ARC
  5
345
100
AcDbEntity
  8
LAY-1
  6
CONTINUOUS
 62
     3
100
AcDbCircle
 10
537.448571
 20
493.44
 30
0.0
 40
2.2
100
AcDbArc
 50
27.645523
 51
152.354477
  0
ARC
  5
346
100
AcDbEntity
  8
LAY-1
  6
CONTINUOUS
 62
     3
100
AcDbCircle
 10
535.233983
 20
494.6
 30
0.0
 40
0.3
100
AcDbArc
 50
270.0
 51
332.354477
  0
ARC
  5
347
100
AcDbEntity
  8
LAY-1
  6
CONTINUOUS
 62
     3
100
AcDbCircle
 10
535.233983
 20
488.0
 30
0.0
 40
0.3
100
AcDbArc
 50
27.645523
 51
90.0
  0
ARC
  5
348
100
AcDbEntity
  8
LAY-1
  6
CONTINUOUS
 62
     3
100
AcDbCircle
 10
537.448571
 20
489.16
 30
0.0
 40
2.2
100
AcDbArc
 50
207.645523
 51
332.354477
  0
ARC
  5
349
100
AcDbEntity
  8
LAY-1
  6
CONTINUOUS
 62
     3
100
AcDbCircle
 10
539.663159
 20
488.0
 30
0.0
 40
0.3
100
AcDbArc
 50
90.0
 51
152.354477
  0
LINE
  5
34A
100
AcDbEntity
  8
LAY-1
  6
CONTINUOUS
 62
     3
100
AcDbLine
 10
530.048571
 20
488.3
 30
0.0
 11
535.499734
 21
488.3
 31
0.0
  0
LINE
  5
34B
100
AcDbEntity
  8
LAY-1
  6
CONTINUOUS
 62
     3
100
AcDbLine
 10
535.499734
 20
494.4608
 30
0.0
 11
535.499734
 21
488.1392
 31
0.0
  0
LINE
  5
34C
100
AcDbEntity
  8
LAY-1
  6
CONTINUOUS
 62
     3
100
AcDbLine
 10
539.397409
 20
488.1392
 30
0.0
 11
539.397409
 21
494.4608
 31
0.0
  0
LINE
  5
34D
100
AcDbEntity
  8
LAY-1
  6
CONTINUOUS
 62
     3
100
AcDbLine
 10
624.848571
 20
494.3
 30
0.0
 11
619.397409
 21
494.3
 31
0.0
  0
ARC
  5
34E
100
AcDbEntity
  8
LAY-1
  6
CONTINUOUS
 62
     3
100
AcDbCircle
 10
615.233983
 20
494.6
 30
0.0
 40
0.3
100
AcDbArc
 50
270.0
 51
332.354477
  0
ARC
  5
34F
100
AcDbEntity
  8
LAY-1
  6
CONTINUOUS
 62
     3
100
AcDbCircle
 10
617.448571
 20
493.44
 30
0.0
 40
2.2
100
AcDbArc
 50
27.645523
 51
152.354477
  0
ARC
  5
350
100
AcDbEntity
  8
LAY-1
  6
CONTINUOUS
 62
     3
100
AcDbCircle
 10
619.663159
 20
494.6
 30
0.0
 40
0.3
100
AcDbArc
 50
207.645523
 51
270.0
  0
ARC
  5
351
100
AcDbEntity
  8
LAY-1
  6
CONTINUOUS
 62
     3
100
AcDbCircle
 10
619.663159
 20
488.0
 30
0.0
 40
0.3
100
AcDbArc
 50
90.0
 51
152.354477
  0
ARC
  5
352
100
AcDbEntity
  8
LAY-1
  6
CONTINUOUS
 62
     3
100
AcDbCircle
 10
617.448571
 20
489.16
 30
0.0
 40
2.2
100
AcDbArc
 50
207.645523
 51
332.354477
  0
ARC
  5
353
100
AcDbEntity
  8
LAY-1
  6
CONTINUOUS
 62
     3
100
AcDbCircle
 10
615.233983
 20
488.0
 30
0.0
 40
0.3
100
AcDbArc
 50
27.645523
 51
90.0
  0
LINE
  5
354
100
AcDbEntity
  8
LAY-1
  6
CONTINUOUS
 62
     3
100
AcDbLine
 10
624.848571
 20
488.3
 30
0.0
 11
619.397409
 21
488.3
 31
0.0
  0
LINE
  5
355
100
AcDbEntity
  8
LAY-1
  6
CONTINUOUS
 62
     3
100
AcDbLine
 10
619.397409
 20
494.4608
 30
0.0
 11
619.397409
 21
488.1392
 31
0.0
  0
LINE
  5
356
100
AcDbEntity
  8
LAY-1
  6
CONTINUOUS
 62
     3
100
AcDbLine
 10
615.499734
 20
488.1392
 30
0.0
 11
615.499734
 21
494.4608
 31
0.0
  0
LINE
  5
357
100
AcDbEntity
  8
LAY-1
  6
EXLTYPE3
 62
     1
100
AcDbLine
 10
524.137409
 20
491.3
 30
0.0
 11
630.237409
 21
491.3
 31
0.0
  0
LINE
  5
358
100
AcDbEntity
  8
LAY-1
  6
CONTINUOUS
 62
     3
100
AcDbLine
 10
539.663159
 20
494.3
 30
0.0
 11
615.233983
 21
494.3
 31
0.0
  0
LINE
  5
359
100
AcDbEntity
  8
LAY-1
  6
CONTINUOUS
 62
     3
100
AcDbLine
 10
615.233983
 20
488.3
 30
0.0
 11
539.663159
 21
488.3
 31
0.0
  0
ARC
  5
35A
100
AcDbEntity
  8
LAY-1
  6
CONTINUOUS
 62
     3
100
AcDbCircle
 10
690.683159
 20
495.35
 30
0.0
 40
0.3
100
AcDbArc
 50
207.645523
 51
270.0
  0
LINE
  5
35B
100
AcDbEntity
  8
LAY-1
  6
CONTINUOUS
 62
     3
100
AcDbLine
 10
681.068571
 20
495.05
 30
0.0
 11
686.253983
 21
495.05
 31
0.0
  0
ARC
  5
35C
100
AcDbEntity
  8
LAY-1
  6
CONTINUOUS
 62
     3
100
AcDbCircle
 10
688.468571
 20
494.19
 30
0.0
 40
2.2
100
AcDbArc
 50
27.645523
 51
152.354477
  0
ARC
  5
35D
100
AcDbEntity
  8
LAY-1
  6
CONTINUOUS
 62
     3
100
AcDbCircle
 10
686.253983
 20
495.35
 30
0.0
 40
0.3
100
AcDbArc
 50
270.0
 51
332.354477
  0
ARC
  5
35E
100
AcDbEntity
  8
LAY-1
  6
CONTINUOUS
 62
     3
100
AcDbCircle
 10
686.253983
 20
487.25
 30
0.0
 40
0.3
100
AcDbArc
 50
27.645523
 51
90.0
  0
ARC
  5
35F
100
AcDbEntity
  8
LAY-1
  6
CONTINUOUS
 62
     3
100
AcDbCircle
 10
688.468571
 20
488.41
 30
0.0
 40
2.2
100
AcDbArc
 50
207.645523
 51
332.354477
  0
ARC
  5
360
100
AcDbEntity
  8
LAY-1
  6
CONTINUOUS
 62
     3
100
AcDbCircle
 10
690.683159
 20
487.25
 30
0.0
 40
0.3
100
AcDbArc
 50
90.0
 51
152.354477
  0
LINE
  5
361
100
AcDbEntity
  8
LAY-1
  6
CONTINUOUS
 62
     3
100
AcDbLine
 10
681.068571
 20
487.55
 30
0.0
 11
686.253983
 21
487.55
 31
0.0
  0
LINE
  5
362
100
AcDbEntity
  8
LAY-1
  6
CONTINUOUS
 62
     3
100
AcDbLine
 10
686.519734
 20
495.2108
 30
0.0
 11
686.519734
 21
487.3892
 31
0.0
  0
LINE
  5
363
100
AcDbEntity
  8
LAY-1
  6
CONTINUOUS
 62
     3
100
AcDbLine
 10
690.417409
 20
487.3892
 30
0.0
 11
690.417409
 21
495.2108
 31
0.0
  0
ARC
  5
364
100
AcDbEntity
  8
LAY-1
  6
CONTINUOUS
 62
     3
100
AcDbCircle
 10
776.253983
 20
495.35
 30
0.0
 40
0.3
100
AcDbArc
 50
270.0
 51
332.354477
  0
ARC
  5
365
100
AcDbEntity
  8
LAY-1
  6
CONTINUOUS
 62
     3
100
AcDbCircle
 10
778.468571
 20
494.19
 30
0.0
 40
2.2
100
AcDbArc
 50
27.645523
 51
152.354477
  0
ARC
  5
366
100
AcDbEntity
  8
LAY-1
  6
CONTINUOUS
 62
     3
100
AcDbCircle
 10
780.683159
 20
495.35
 30
0.0
 40
0.3
100
AcDbArc
 50
207.645523
 51
270.0
  0
LINE
  5
367
100
AcDbEntity
  8
LAY-1
  6
CONTINUOUS
 62
     3
100
AcDbLine
 10
785.868571
 20
495.05
 30
0.0
 11
780.683159
 21
495.05
 31
0.0
  0
ARC
  5
368
100
AcDbEntity
  8
LAY-1
  6
CONTINUOUS
 62
     3
100
AcDbCircle
 10
780.683159
 20
487.25
 30
0.0
 40
0.3
100
AcDbArc
 50
90.0
 51
152.354477
  0
ARC
  5
369
100
AcDbEntity
  8
LAY-1
  6
CONTINUOUS
 62
     3
100
AcDbCircle
 10
778.468571
 20
488.41
 30
0.0
 40
2.2
100
AcDbArc
 50
207.645523
 51
332.354477
  0
ARC
  5
36A
100
AcDbEntity
  8
LAY-1
  6
CONTINUOUS
 62
     3
100
AcDbCircle
 10
776.253983
 20
487.25
 30
0.0
 40
0.3
100
AcDbArc
 50
27.645523
 51
90.0
  0
LINE
  5
36B
100
AcDbEntity
  8
LAY-1
  6
CONTINUOUS
 62
     3
100
AcDbLine
 10
785.868571
 20
487.55
 30
0.0
 11
780.683159
 21
487.55
 31
0.0
  0
LINE
  5
36C
100
AcDbEntity
  8
LAY-1
  6
CONTINUOUS
 62
     3
100
AcDbLine
 10
780.417409
 20
495.2108
 30
0.0
 11
780.417409
 21
487.3892
 31
0.0
  0
LINE
  5
36D
100
AcDbEntity
  8
LAY-1
  6
CONTINUOUS
 62
     3
100
AcDbLine
 10
776.519734
 20
487.3892
 30
0.0
 11
776.519734
 21
495.2108
 31
0.0
  0
LINE
  5
36E
100
AcDbEntity
  8
LAY-1
  6
EXLTYPE3
 62
     1
100
AcDbLine
 10
675.724552
 20
491.3
 30
0.0
 11
791.324552
 21
491.3
 31
0.0
  0
LINE
  5
36F
100
AcDbEntity
  8
LAY-1
  6
CONTINUOUS
 62
     3
100
AcDbLine
 10
690.683159
 20
495.05
 30
0.0
 11
776.253983
 21
495.05
 31
0.0
  0
LINE
  5
370
100
AcDbEntity
  8
LAY-1
  6
CONTINUOUS
 62
     3
100
AcDbLine
 10
776.253983
 20
487.55
 30
0.0
 11
690.683159
 21
487.55
 31
0.0
  0
ARC
  5
371
100
AcDbEntity
  8
LAY-1
  6
CONTINUOUS
 62
     3
100
AcDbCircle
 10
66.603159
 20
416.35
 30
0.0
 40
0.3
100
AcDbArc
 50
207.645523
 51
270.0
  0
LINE
  5
372
100
AcDbEntity
  8
LAY-1
  6
CONTINUOUS
 62
     3
100
AcDbLine
 10
57.188571
 20
416.05
 30
0.0
 11
62.439734
 21
416.05
 31
0.0
  0
ARC
  5
373
100
AcDbEntity
  8
LAY-1
  6
CONTINUOUS
 62
     3
100
AcDbCircle
 10
64.388571
 20
415.19
 30
0.0
 40
2.2
100
AcDbArc
 50
27.645523
 51
152.354477
  0
ARC
  5
374
100
AcDbEntity
  8
LAY-1
  6
CONTINUOUS
 62
     3
100
AcDbCircle
 10
62.173983
 20
416.35
 30
0.0
 40
0.3
100
AcDbArc
 50
270.0
 51
332.354477
  0
ARC
  5
375
100
AcDbEntity
  8
LAY-1
  6
CONTINUOUS
 62
     3
100
AcDbCircle
 10
62.173983
 20
406.25
 30
0.0
 40
0.3
100
AcDbArc
 50
27.645523
 51
90.0
  0
ARC
  5
376
100
AcDbEntity
  8
LAY-1
  6
CONTINUOUS
 62
     3
100
AcDbCircle
 10
64.388571
 20
407.41
 30
0.0
 40
2.2
100
AcDbArc
 50
207.645523
 51
332.354477
  0
ARC
  5
377
100
AcDbEntity
  8
LAY-1
  6
CONTINUOUS
 62
     3
100
AcDbCircle
 10
66.603159
 20
406.25
 30
0.0
 40
0.3
100
AcDbArc
 50
90.0
 51
152.354477
  0
LINE
  5
378
100
AcDbEntity
  8
LAY-1
  6
CONTINUOUS
 62
     3
100
AcDbLine
 10
57.188571
 20
406.55
 30
0.0
 11
62.439734
 21
406.55
 31
0.0
  0
LINE
  5
379
100
AcDbEntity
  8
LAY-1
  6
CONTINUOUS
 62
     3
100
AcDbLine
 10
62.439734
 20
416.2108
 30
0.0
 11
62.439734
 21
406.3892
 31
0.0
  0
LINE
  5
37A
100
AcDbEntity
  8
LAY-1
  6
CONTINUOUS
 62
     3
100
AcDbLine
 10
66.337409
 20
406.3892
 30
0.0
 11
66.337409
 21
416.2108
 31
0.0
  0
ARC
  5
37B
100
AcDbEntity
  8
LAY-1
  6
CONTINUOUS
 62
     3
100
AcDbCircle
 10
152.173983
 20
416.35
 30
0.0
 40
0.3
100
AcDbArc
 50
270.0
 51
332.354477
  0
ARC
  5
37C
100
AcDbEntity
  8
LAY-1
  6
CONTINUOUS
 62
     3
100
AcDbCircle
 10
154.388571
 20
415.19
 30
0.0
 40
2.2
100
AcDbArc
 50
27.645523
 51
152.354477
  0
ARC
  5
37D
100
AcDbEntity
  8
LAY-1
  6
CONTINUOUS
 62
     3
100
AcDbCircle
 10
156.603159
 20
416.35
 30
0.0
 40
0.3
100
AcDbArc
 50
207.645523
 51
270.0
  0
LINE
  5
37E
100
AcDbEntity
  8
LAY-1
  6
CONTINUOUS
 62
     3
100
AcDbLine
 10
161.588571
 20
416.05
 30
0.0
 11
156.337409
 21
416.05
 31
0.0
  0
ARC
  5
37F
100
AcDbEntity
  8
LAY-1
  6
CONTINUOUS
 62
     3
100
AcDbCircle
 10
156.603159
 20
406.25
 30
0.0
 40
0.3
100
AcDbArc
 50
90.0
 51
152.354477
  0
ARC
  5
380
100
AcDbEntity
  8
LAY-1
  6
CONTINUOUS
 62
     3
100
AcDbCircle
 10
154.388571
 20
407.41
 30
0.0
 40
2.2
100
AcDbArc
 50
207.645523
 51
332.354477
  0
ARC
  5
381
100
AcDbEntity
  8
LAY-1
  6
CONTINUOUS
 62
     3
100
AcDbCircle
 10
152.173983
 20
406.25
 30
0.0
 40
0.3
100
AcDbArc
 50
27.645523
 51
90.0
  0
LINE
  5
382
100
AcDbEntity
  8
LAY-1
  6
CONTINUOUS
 62
     3
100
AcDbLine
 10
161.588571
 20
406.55
 30
0.0
 11
156.337409
 21
406.55
 31
0.0
  0
LINE
  5
383
100
AcDbEntity
  8
LAY-1
  6
CONTINUOUS
 62
     3
100
AcDbLine
 10
156.337409
 20
416.2108
 30
0.0
 11
156.337409
 21
406.3892
 31
0.0
  0
LINE
  5
384
100
AcDbEntity
  8
LAY-1
  6
CONTINUOUS
 62
     3
100
AcDbLine
 10
152.439734
 20
406.3892
 30
0.0
 11
152.439734
 21
416.2108
 31
0.0
  0
LINE
  5
385
100
AcDbEntity
  8
LAY-1
  6
EXLTYPE3
 62
     1
100
AcDbLine
 10
49.078571
 20
411.3
 30
0.0
 11
168.638269
 21
411.3
 31
0.0
  0
LINE
  5
386
100
AcDbEntity
  8
LAY-1
  6
CONTINUOUS
 62
     3
100
AcDbLine
 10
66.603159
 20
416.05
 30
0.0
 11
152.173983
 21
416.05
 31
0.0
  0
LINE
  5
387
100
AcDbEntity
  8
LAY-1
  6
CONTINUOUS
 62
     3
100
AcDbLine
 10
152.173983
 20
406.55
 30
0.0
 11
66.603159
 21
406.55
 31
0.0
  0
ARC
  5
388
100
AcDbEntity
  8
LAY-1
  6
CONTINUOUS
 62
     3
100
AcDbCircle
 10
222.623159
 20
416.85
 30
0.0
 40
0.3
100
AcDbArc
 50
207.645523
 51
270.0
  0
LINE
  5
389
100
AcDbEntity
  8
LAY-1
  6
CONTINUOUS
 62
     3
100
AcDbLine
 10
213.208571
 20
416.55
 30
0.0
 11
218.459734
 21
416.55
 31
0.0
  0
ARC
  5
38A
100
AcDbEntity
  8
LAY-1
  6
CONTINUOUS
 62
     3
100
AcDbCircle
 10
220.408571
 20
415.69
 30
0.0
 40
2.2
100
AcDbArc
 50
27.645523
 51
152.354477
  0
ARC
  5
38B
100
AcDbEntity
  8
LAY-1
  6
CONTINUOUS
 62
     3
100
AcDbCircle
 10
218.193983
 20
416.85
 30
0.0
 40
0.3
100
AcDbArc
 50
270.0
 51
332.354477
  0
ARC
  5
38C
100
AcDbEntity
  8
LAY-1
  6
CONTINUOUS
 62
     3
100
AcDbCircle
 10
218.193983
 20
405.75
 30
0.0
 40
0.3
100
AcDbArc
 50
27.645523
 51
90.0
  0
ARC
  5
38D
100
AcDbEntity
  8
LAY-1
  6
CONTINUOUS
 62
     3
100
AcDbCircle
 10
220.408571
 20
406.91
 30
0.0
 40
2.2
100
AcDbArc
 50
207.645523
 51
332.354477
  0
ARC
  5
38E
100
AcDbEntity
  8
LAY-1
  6
CONTINUOUS
 62
     3
100
AcDbCircle
 10
222.623159
 20
405.75
 30
0.0
 40
0.3
100
AcDbArc
 50
90.0
 51
152.354477
  0
LINE
  5
38F
100
AcDbEntity
  8
LAY-1
  6
CONTINUOUS
 62
     3
100
AcDbLine
 10
213.208571
 20
406.05
 30
0.0
 11
218.459734
 21
406.05
 31
0.0
  0
LINE
  5
390
100
AcDbEntity
  8
LAY-1
  6
CONTINUOUS
 62
     3
100
AcDbLine
 10
218.459734
 20
416.7108
 30
0.0
 11
218.459734
 21
405.8892
 31
0.0
  0
LINE
  5
391
100
AcDbEntity
  8
LAY-1
  6
CONTINUOUS
 62
     3
100
AcDbLine
 10
222.357409
 20
405.8892
 30
0.0
 11
222.357409
 21
416.7108
 31
0.0
  0
ARC
  5
392
100
AcDbEntity
  8
LAY-1
  6
CONTINUOUS
 62
     3
100
AcDbCircle
 10
308.193983
 20
416.85
 30
0.0
 40
0.3
100
AcDbArc
 50
270.0
 51
332.354477
  0
ARC
  5
393
100
AcDbEntity
  8
LAY-1
  6
CONTINUOUS
 62
     3
100
AcDbCircle
 10
310.408571
 20
415.69
 30
0.0
 40
2.2
100
AcDbArc
 50
27.645523
 51
152.354477
  0
ARC
  5
394
100
AcDbEntity
  8
LAY-1
  6
CONTINUOUS
 62
     3
100
AcDbCircle
 10
312.623159
 20
416.85
 30
0.0
 40
0.3
100
AcDbArc
 50
207.645523
 51
270.0
  0
LINE
  5
395
100
AcDbEntity
  8
LAY-1
  6
CONTINUOUS
 62
     3
100
AcDbLine
 10
317.608571
 20
416.55
 30
0.0
 11
312.357409
 21
416.55
 31
0.0
  0
ARC
  5
396
100
AcDbEntity
  8
LAY-1
  6
CONTINUOUS
 62
     3
100
AcDbCircle
 10
312.623159
 20
405.75
 30
0.0
 40
0.3
100
AcDbArc
 50
90.0
 51
152.354477
  0
ARC
  5
397
100
AcDbEntity
  8
LAY-1
  6
CONTINUOUS
 62
     3
100
AcDbCircle
 10
310.408571
 20
406.91
 30
0.0
 40
2.2
100
AcDbArc
 50
207.645523
 51
332.354477
  0
ARC
  5
398
100
AcDbEntity
  8
LAY-1
  6
CONTINUOUS
 62
     3
100
AcDbCircle
 10
308.193983
 20
405.75
 30
0.0
 40
0.3
100
AcDbArc
 50
27.645523
 51
90.0
  0
LINE
  5
399
100
AcDbEntity
  8
LAY-1
  6
CONTINUOUS
 62
     3
100
AcDbLine
 10
317.608571
 20
406.05
 30
0.0
 11
312.357409
 21
406.05
 31
0.0
  0
LINE
  5
39A
100
AcDbEntity
  8
LAY-1
  6
CONTINUOUS
 62
     3
100
AcDbLine
 10
312.357409
 20
416.7108
 30
0.0
 11
312.357409
 21
405.8892
 31
0.0
  0
LINE
  5
39B
100
AcDbEntity
  8
LAY-1
  6
CONTINUOUS
 62
     3
100
AcDbLine
 10
308.459734
 20
405.8892
 30
0.0
 11
308.459734
 21
416.7108
 31
0.0
  0
LINE
  5
39C
100
AcDbEntity
  8
LAY-1
  6
EXLTYPE3
 62
     1
100
AcDbLine
 10
203.848571
 20
411.3
 30
0.0
 11
324.635412
 21
411.3
 31
0.0
  0
LINE
  5
39D
100
AcDbEntity
  8
LAY-1
  6
CONTINUOUS
 62
     3
100
AcDbLine
 10
222.623159
 20
416.55
 30
0.0
 11
308.193983
 21
416.55
 31
0.0
  0
LINE
  5
39E
100
AcDbEntity
  8
LAY-1
  6
CONTINUOUS
 62
     3
100
AcDbLine
 10
308.193983
 20
406.05
 30
0.0
 11
222.623159
 21
406.05
 31
0.0
  0
ARC
  5
39F
100
AcDbEntity
  8
LAY-1
  6
CONTINUOUS
 62
     3
100
AcDbCircle
 10
373.643159
 20
418.1
 30
0.0
 40
0.3
100
AcDbArc
 50
207.645523
 51
270.0
  0
LINE
  5
3A0
100
AcDbEntity
  8
LAY-1
  6
CONTINUOUS
 62
     3
100
AcDbLine
 10
364.228571
 20
417.8
 30
0.0
 11
369.213983
 21
417.8
 31
0.0
  0
ARC
  5
3A1
100
AcDbEntity
  8
LAY-1
  6
CONTINUOUS
 62
     3
100
AcDbCircle
 10
371.428571
 20
416.94
 30
0.0
 40
2.2
100
AcDbArc
 50
27.645523
 51
152.354477
  0
ARC
  5
3A2
100
AcDbEntity
  8
LAY-1
  6
CONTINUOUS
 62
     3
100
AcDbCircle
 10
369.213983
 20
418.1
 30
0.0
 40
0.3
100
AcDbArc
 50
270.0
 51
332.354477
  0
ARC
  5
3A3
100
AcDbEntity
  8
LAY-1
  6
CONTINUOUS
 62
     3
100
AcDbCircle
 10
369.213983
 20
404.5
 30
0.0
 40
0.3
100
AcDbArc
 50
27.645523
 51
90.0
  0
ARC
  5
3A4
100
AcDbEntity
  8
LAY-1
  6
CONTINUOUS
 62
     3
100
AcDbCircle
 10
371.428571
 20
405.66
 30
0.0
 40
2.2
100
AcDbArc
 50
207.645523
 51
332.354477
  0
ARC
  5
3A5
100
AcDbEntity
  8
LAY-1
  6
CONTINUOUS
 62
     3
100
AcDbCircle
 10
373.643159
 20
404.5
 30
0.0
 40
0.3
100
AcDbArc
 50
90.0
 51
152.354477
  0
LINE
  5
3A6
100
AcDbEntity
  8
LAY-1
  6
CONTINUOUS
 62
     3
100
AcDbLine
 10
364.228571
 20
404.8
 30
0.0
 11
369.213983
 21
404.8
 31
0.0
  0
LINE
  5
3A7
100
AcDbEntity
  8
LAY-1
  6
CONTINUOUS
 62
     3
100
AcDbLine
 10
369.479734
 20
417.9608
 30
0.0
 11
369.479734
 21
404.6392
 31
0.0
  0
LINE
  5
3A8
100
AcDbEntity
  8
LAY-1
  6
CONTINUOUS
 62
     3
100
AcDbLine
 10
373.377409
 20
404.6392
 30
0.0
 11
373.377409
 21
417.9608
 31
0.0
  0
ARC
  5
3A9
100
AcDbEntity
  8
LAY-1
  6
CONTINUOUS
 62
     3
100
AcDbCircle
 10
469.213983
 20
418.1
 30
0.0
 40
0.3
100
AcDbArc
 50
270.0
 51
332.354477
  0
ARC
  5
3AA
100
AcDbEntity
  8
LAY-1
  6
CONTINUOUS
 62
     3
100
AcDbCircle
 10
471.428571
 20
416.94
 30
0.0
 40
2.2
100
AcDbArc
 50
27.645523
 51
152.354477
  0
ARC
  5
3AB
100
AcDbEntity
  8
LAY-1
  6
CONTINUOUS
 62
     3
100
AcDbCircle
 10
473.643159
 20
418.1
 30
0.0
 40
0.3
100
AcDbArc
 50
207.645523
 51
270.0
  0
LINE
  5
3AC
100
AcDbEntity
  8
LAY-1
  6
CONTINUOUS
 62
     3
100
AcDbLine
 10
478.628571
 20
417.8
 30
0.0
 11
473.643159
 21
417.8
 31
0.0
  0
ARC
  5
3AD
100
AcDbEntity
  8
LAY-1
  6
CONTINUOUS
 62
     3
100
AcDbCircle
 10
473.643159
 20
404.5
 30
0.0
 40
0.3
100
AcDbArc
 50
90.0
 51
152.354477
  0
ARC
  5
3AE
100
AcDbEntity
  8
LAY-1
  6
CONTINUOUS
 62
     3
100
AcDbCircle
 10
471.428571
 20
405.66
 30
0.0
 40
2.2
100
AcDbArc
 50
207.645523
 51
332.354477
  0
ARC
  5
3AF
100
AcDbEntity
  8
LAY-1
  6
CONTINUOUS
 62
     3
100
AcDbCircle
 10
469.213983
 20
404.5
 30
0.0
 40
0.3
100
AcDbArc
 50
27.645523
 51
90.0
  0
LINE
  5
3B0
100
AcDbEntity
  8
LAY-1
  6
CONTINUOUS
 62
     3
100
AcDbLine
 10
478.628571
 20
404.8
 30
0.0
 11
473.643159
 21
404.8
 31
0.0
  0
LINE
  5
3B1
100
AcDbEntity
  8
LAY-1
  6
CONTINUOUS
 62
     3
100
AcDbLine
 10
473.377409
 20
417.9608
 30
0.0
 11
473.377409
 21
404.6392
 31
0.0
  0
LINE
  5
3B2
100
AcDbEntity
  8
LAY-1
  6
CONTINUOUS
 62
     3
100
AcDbLine
 10
469.479734
 20
404.6392
 30
0.0
 11
469.479734
 21
417.9608
 31
0.0
  0
LINE
  5
3B3
100
AcDbEntity
  8
LAY-1
  6
EXLTYPE3
 62
     1
100
AcDbLine
 10
354.028571
 20
411.3
 30
0.0
 11
488.412555
 21
411.3
 31
0.0
  0
LINE
  5
3B4
100
AcDbEntity
  8
LAY-1
  6
CONTINUOUS
 62
     3
100
AcDbLine
 10
373.643159
 20
417.8
 30
0.0
 11
469.213983
 21
417.8
 31
0.0
  0
LINE
  5
3B5
100
AcDbEntity
  8
LAY-1
  6
CONTINUOUS
 62
     3
100
AcDbLine
 10
469.213983
 20
404.8
 30
0.0
 11
373.643159
 21
404.8
 31
0.0
  0
LINE
  5
3B6
100
AcDbEntity
  8
LAY-1
  6
CONTINUOUS
 62
     3
100
AcDbLine
 10
529.397409
 20
403.1392
 30
0.0
 11
529.397409
 21
419.4608
 31
0.0
  0
LINE
  5
3B7
100
AcDbEntity
  8
LAY-1
  6
CONTINUOUS
 62
     3
100
AcDbLine
 10
525.499734
 20
419.4608
 30
0.0
 11
525.499734
 21
403.1392
 31
0.0
  0
LINE
  5
3B8
100
AcDbEntity
  8
LAY-1
  6
CONTINUOUS
 62
     3
100
AcDbLine
 10
520.248571
 20
403.3
 30
0.0
 11
525.233983
 21
403.3
 31
0.0
  0
ARC
  5
3B9
100
AcDbEntity
  8
LAY-1
  6
CONTINUOUS
 62
     3
100
AcDbCircle
 10
529.663159
 20
403.0
 30
0.0
 40
0.3
100
AcDbArc
 50
90.0
 51
152.354477
  0
ARC
  5
3BA
100
AcDbEntity
  8
LAY-1
  6
CONTINUOUS
 62
     3
100
AcDbCircle
 10
527.448571
 20
404.16
 30
0.0
 40
2.2
100
AcDbArc
 50
207.645523
 51
332.354477
  0
ARC
  5
3BB
100
AcDbEntity
  8
LAY-1
  6
CONTINUOUS
 62
     3
100
AcDbCircle
 10
525.233983
 20
403.0
 30
0.0
 40
0.3
100
AcDbArc
 50
27.645523
 51
90.0
  0
ARC
  5
3BC
100
AcDbEntity
  8
LAY-1
  6
CONTINUOUS
 62
     3
100
AcDbCircle
 10
525.233983
 20
419.6
 30
0.0
 40
0.3
100
AcDbArc
 50
270.0
 51
332.354477
  0
ARC
  5
3BD
100
AcDbEntity
  8
LAY-1
  6
CONTINUOUS
 62
     3
100
AcDbCircle
 10
527.448571
 20
418.44
 30
0.0
 40
2.2
100
AcDbArc
 50
27.645523
 51
152.354477
  0
LINE
  5
3BE
100
AcDbEntity
  8
LAY-1
  6
CONTINUOUS
 62
     3
100
AcDbLine
 10
520.248571
 20
419.3
 30
0.0
 11
525.233983
 21
419.3
 31
0.0
  0
ARC
  5
3BF
100
AcDbEntity
  8
LAY-1
  6
CONTINUOUS
 62
     3
100
AcDbCircle
 10
529.663159
 20
419.6
 30
0.0
 40
0.3
100
AcDbArc
 50
207.645523
 51
270.0
  0
ARC
  5
3C0
100
AcDbEntity
  8
LAY-1
  6
CONTINUOUS
 62
     3
100
AcDbCircle
 10
625.233983
 20
419.6
 30
0.0
 40
0.3
100
AcDbArc
 50
270.0
 51
332.354477
  0
ARC
  5
3C1
100
AcDbEntity
  8
LAY-1
  6
CONTINUOUS
 62
     3
100
AcDbCircle
 10
627.448571
 20
418.44
 30
0.0
 40
2.2
100
AcDbArc
 50
27.645523
 51
152.354477
  0
ARC
  5
3C2
100
AcDbEntity
  8
LAY-1
  6
CONTINUOUS
 62
     3
100
AcDbCircle
 10
629.663159
 20
419.6
 30
0.0
 40
0.3
100
AcDbArc
 50
207.645523
 51
270.0
  0
LINE
  5
3C3
100
AcDbEntity
  8
LAY-1
  6
CONTINUOUS
 62
     3
100
AcDbLine
 10
634.648571
 20
419.3
 30
0.0
 11
629.663159
 21
419.3
 31
0.0
  0
ARC
  5
3C4
100
AcDbEntity
  8
LAY-1
  6
CONTINUOUS
 62
     3
100
AcDbCircle
 10
629.663159
 20
403.0
 30
0.0
 40
0.3
100
AcDbArc
 50
90.0
 51
152.354477
  0
ARC
  5
3C5
100
AcDbEntity
  8
LAY-1
  6
CONTINUOUS
 62
     3
100
AcDbCircle
 10
627.448571
 20
404.16
 30
0.0
 40
2.2
100
AcDbArc
 50
207.645523
 51
332.354477
  0
ARC
  5
3C6
100
AcDbEntity
  8
LAY-1
  6
CONTINUOUS
 62
     3
100
AcDbCircle
 10
625.233983
 20
403.0
 30
0.0
 40
0.3
100
AcDbArc
 50
27.645523
 51
90.0
  0
LINE
  5
3C7
100
AcDbEntity
  8
LAY-1
  6
CONTINUOUS
 62
     3
100
AcDbLine
 10
634.648571
 20
403.3
 30
0.0
 11
629.663159
 21
403.3
 31
0.0
  0
LINE
  5
3C8
100
AcDbEntity
  8
LAY-1
  6
CONTINUOUS
 62
     3
100
AcDbLine
 10
629.397409
 20
419.4608
 30
0.0
 11
629.397409
 21
403.1392
 31
0.0
  0
LINE
  5
3C9
100
AcDbEntity
  8
LAY-1
  6
CONTINUOUS
 62
     3
100
AcDbLine
 10
625.499734
 20
403.1392
 30
0.0
 11
625.499734
 21
419.4608
 31
0.0
  0
LINE
  5
3CA
100
AcDbEntity
  8
LAY-1
  6
CONTINUOUS
 62
     3
100
AcDbLine
 10
625.233983
 20
403.3
 30
0.0
 11
529.663159
 21
403.3
 31
0.0
  0
LINE
  5
3CB
100
AcDbEntity
  8
LAY-1
  6
CONTINUOUS
 62
     3
100
AcDbLine
 10
529.663159
 20
419.3
 30
0.0
 11
625.233983
 21
419.3
 31
0.0
  0
LINE
  5
3CC
100
AcDbEntity
  8
LAY-1
  6
EXLTYPE3
 62
     1
100
AcDbLine
 10
510.868269
 20
411.3
 30
0.0
 11
643.568269
 21
411.3
 31
0.0
  0
ARC
  5
3CD
100
AcDbEntity
  8
LAY-1
  6
CONTINUOUS
 62
     3
100
AcDbCircle
 10
684.468571
 20
419.649775
 30
0.0
 40
3.0
100
AcDbArc
 50
27.125984
 51
152.874016
  0
ARC
  5
3CE
100
AcDbEntity
  8
LAY-1
  6
CONTINUOUS
 62
     3
100
AcDbCircle
 10
681.442551
 20
421.2
 30
0.0
 40
0.4
100
AcDbArc
 50
270.0
 51
332.874016
  0
ARC
  5
3CF
100
AcDbEntity
  8
LAY-1
  6
CONTINUOUS
 62
     3
100
AcDbCircle
 10
687.494592
 20
421.2
 30
0.0
 40
0.4
100
AcDbArc
 50
207.125984
 51
270.0
  0
LINE
  5
3D0
100
AcDbEntity
  8
LAY-1
  6
CONTINUOUS
 62
     3
100
AcDbLine
 10
681.442551
 20
420.8
 30
0.0
 11
676.268571
 21
420.8
 31
0.0
  0
ARC
  5
3D1
100
AcDbEntity
  8
LAY-1
  6
CONTINUOUS
 62
     3
100
AcDbCircle
 10
687.494592
 20
401.4
 30
0.0
 40
0.4
100
AcDbArc
 50
90.0
 51
152.874016
  0
LINE
  5
3D2
100
AcDbEntity
  8
LAY-1
  6
CONTINUOUS
 62
     3
100
AcDbLine
 10
681.442551
 20
401.8
 30
0.0
 11
676.268571
 21
401.8
 31
0.0
  0
ARC
  5
3D3
100
AcDbEntity
  8
LAY-1
  6
CONTINUOUS
 62
     3
100
AcDbCircle
 10
684.468571
 20
402.950225
 30
0.0
 40
3.0
100
AcDbArc
 50
207.125984
 51
332.874016
  0
ARC
  5
3D4
100
AcDbEntity
  8
LAY-1
  6
CONTINUOUS
 62
     3
100
AcDbCircle
 10
681.442551
 20
401.4
 30
0.0
 40
0.4
100
AcDbArc
 50
27.125984
 51
90.0
  0
LINE
  5
3D5
100
AcDbEntity
  8
LAY-1
  6
CONTINUOUS
 62
     3
100
AcDbLine
 10
681.798553
 20
421.017621
 30
0.0
 11
681.798553
 21
401.582379
 31
0.0
  0
LINE
  5
3D6
100
AcDbEntity
  8
LAY-1
  6
CONTINUOUS
 62
     3
100
AcDbLine
 10
687.13859
 20
401.582379
 30
0.0
 11
687.13859
 21
421.017621
 31
0.0
  0
ARC
  5
3D7
100
AcDbEntity
  8
LAY-1
  6
CONTINUOUS
 62
     3
100
AcDbCircle
 10
782.468571
 20
419.649775
 30
0.0
 40
3.0
100
AcDbArc
 50
27.125984
 51
152.874016
  0
ARC
  5
3D8
100
AcDbEntity
  8
LAY-1
  6
CONTINUOUS
 62
     3
100
AcDbCircle
 10
785.494592
 20
421.2
 30
0.0
 40
0.4
100
AcDbArc
 50
207.125984
 51
270.0
  0
ARC
  5
3D9
100
AcDbEntity
  8
LAY-1
  6
CONTINUOUS
 62
     3
100
AcDbCircle
 10
779.442551
 20
421.2
 30
0.0
 40
0.4
100
AcDbArc
 50
270.0
 51
332.874016
  0
LINE
  5
3DA
100
AcDbEntity
  8
LAY-1
  6
CONTINUOUS
 62
     3
100
AcDbLine
 10
785.494592
 20
420.8
 30
0.0
 11
790.668571
 21
420.8
 31
0.0
  0
ARC
  5
3DB
100
AcDbEntity
  8
LAY-1
  6
CONTINUOUS
 62
     3
100
AcDbCircle
 10
779.442551
 20
401.4
 30
0.0
 40
0.4
100
AcDbArc
 50
27.125984
 51
90.0
  0
ARC
  5
3DC
100
AcDbEntity
  8
LAY-1
  6
CONTINUOUS
 62
     3
100
AcDbCircle
 10
782.468571
 20
402.950225
 30
0.0
 40
3.0
100
AcDbArc
 50
207.125984
 51
332.874016
  0
ARC
  5
3DD
100
AcDbEntity
  8
LAY-1
  6
CONTINUOUS
 62
     3
100
AcDbCircle
 10
785.494592
 20
401.4
 30
0.0
 40
0.4
100
AcDbArc
 50
90.0
 51
152.874016
  0
LINE
  5
3DE
100
AcDbEntity
  8
LAY-1
  6
CONTINUOUS
 62
     3
100
AcDbLine
 10
785.494592
 20
401.8
 30
0.0
 11
790.668571
 21
401.8
 31
0.0
  0
LINE
  5
3DF
100
AcDbEntity
  8
LAY-1
  6
CONTINUOUS
 62
     3
100
AcDbLine
 10
785.13859
 20
421.017621
 30
0.0
 11
785.13859
 21
401.582379
 31
0.0
  0
LINE
  5
3E0
100
AcDbEntity
  8
LAY-1
  6
CONTINUOUS
 62
     3
100
AcDbLine
 10
779.798553
 20
401.582379
 30
0.0
 11
779.798553
 21
421.017621
 31
0.0
  0
LINE
  5
3E1
100
AcDbEntity
  8
LAY-1
  6
EXLTYPE3
 62
     1
100
AcDbLine
 10
668.035408
 20
411.3
 30
0.0
 11
798.168571
 21
411.3
 31
0.0
  0
LINE
  5
3E2
100
AcDbEntity
  8
LAY-1
  6
CONTINUOUS
 62
     3
100
AcDbLine
 10
687.494592
 20
420.8
 30
0.0
 11
779.442551
 21
420.8
 31
0.0
  0
LINE
  5
3E3
100
AcDbEntity
  8
LAY-1
  6
CONTINUOUS
 62
     3
100
AcDbLine
 10
779.442551
 20
401.8
 30
0.0
 11
687.494592
 21
401.8
 31
0.0
  0
ARC
  5
3E4
100
AcDbEntity
  8
LAY-1
  6
CONTINUOUS
 62
     3
100
AcDbCircle
 10
53.362551
 20
343.55
 30
0.0
 40
0.4
100
AcDbArc
 50
270.0
 51
332.874016
  0
ARC
  5
3E5
100
AcDbEntity
  8
LAY-1
  6
CONTINUOUS
 62
     3
100
AcDbCircle
 10
56.388571
 20
341.999775
 30
0.0
 40
3.0
100
AcDbArc
 50
27.125984
 51
152.874016
  0
ARC
  5
3E6
100
AcDbEntity
  8
LAY-1
  6
CONTINUOUS
 62
     3
100
AcDbCircle
 10
59.414592
 20
343.55
 30
0.0
 40
0.4
100
AcDbArc
 50
207.125984
 51
270.0
  0
LINE
  5
3E7
100
AcDbEntity
  8
LAY-1
  6
CONTINUOUS
 62
     3
100
AcDbLine
 10
47.688571
 20
343.15
 30
0.0
 11
53.362551
 21
343.15
 31
0.0
  0
ARC
  5
3E8
100
AcDbEntity
  8
LAY-1
  6
CONTINUOUS
 62
     3
100
AcDbCircle
 10
59.414592
 20
319.05
 30
0.0
 40
0.4
100
AcDbArc
 50
90.0
 51
152.874016
  0
LINE
  5
3E9
100
AcDbEntity
  8
LAY-1
  6
CONTINUOUS
 62
     3
100
AcDbLine
 10
53.362551
 20
319.45
 30
0.0
 11
47.688571
 21
319.45
 31
0.0
  0
ARC
  5
3EA
100
AcDbEntity
  8
LAY-1
  6
CONTINUOUS
 62
     3
100
AcDbCircle
 10
56.388571
 20
320.600225
 30
0.0
 40
3.0
100
AcDbArc
 50
207.125984
 51
332.874016
  0
ARC
  5
3EB
100
AcDbEntity
  8
LAY-1
  6
CONTINUOUS
 62
     3
100
AcDbCircle
 10
53.362551
 20
319.05
 30
0.0
 40
0.4
100
AcDbArc
 50
27.125984
 51
90.0
  0
LINE
  5
3EC
100
AcDbEntity
  8
LAY-1
  6
CONTINUOUS
 62
     3
100
AcDbLine
 10
53.718553
 20
343.367621
 30
0.0
 11
53.718553
 21
319.232379
 31
0.0
  0
LINE
  5
3ED
100
AcDbEntity
  8
LAY-1
  6
CONTINUOUS
 62
     3
100
AcDbLine
 10
59.05859
 20
319.232379
 30
0.0
 11
59.05859
 21
343.367621
 31
0.0
  0
ARC
  5
3EE
100
AcDbEntity
  8
LAY-1
  6
CONTINUOUS
 62
     3
100
AcDbCircle
 10
165.414592
 20
343.55
 30
0.0
 40
0.4
100
AcDbArc
 50
207.125984
 51
270.0
  0
ARC
  5
3EF
100
AcDbEntity
  8
LAY-1
  6
CONTINUOUS
 62
     3
100
AcDbCircle
 10
162.388571
 20
341.999775
 30
0.0
 40
3.0
100
AcDbArc
 50
27.125984
 51
152.874016
  0
ARC
  5
3F0
100
AcDbEntity
  8
LAY-1
  6
CONTINUOUS
 62
     3
100
AcDbCircle
 10
159.362551
 20
343.55
 30
0.0
 40
0.4
100
AcDbArc
 50
270.0
 51
332.874016
  0
LINE
  5
3F1
100
AcDbEntity
  8
LAY-1
  6
CONTINUOUS
 62
     3
100
AcDbLine
 10
171.088571
 20
343.15
 30
0.0
 11
165.414592
 21
343.15
 31
0.0
  0
ARC
  5
3F2
100
AcDbEntity
  8
LAY-1
  6
CONTINUOUS
 62
     3
100
AcDbCircle
 10
159.362551
 20
319.05
 30
0.0
 40
0.4
100
AcDbArc
 50
27.125984
 51
90.0
  0
ARC
  5
3F3
100
AcDbEntity
  8
LAY-1
  6
CONTINUOUS
 62
     3
100
AcDbCircle
 10
162.388571
 20
320.600225
 30
0.0
 40
3.0
100
AcDbArc
 50
207.125984
 51
332.874016
  0
ARC
  5
3F4
100
AcDbEntity
  8
LAY-1
  6
CONTINUOUS
 62
     3
100
AcDbCircle
 10
165.414592
 20
319.05
 30
0.0
 40
0.4
100
AcDbArc
 50
90.0
 51
152.874016
  0
LINE
  5
3F5
100
AcDbEntity
  8
LAY-1
  6
CONTINUOUS
 62
     3
100
AcDbLine
 10
165.414592
 20
319.45
 30
0.0
 11
171.088571
 21
319.45
 31
0.0
  0
LINE
  5
3F6
100
AcDbEntity
  8
LAY-1
  6
CONTINUOUS
 62
     3
100
AcDbLine
 10
165.05859
 20
343.367621
 30
0.0
 11
165.05859
 21
319.232379
 31
0.0
  0
LINE
  5
3F7
100
AcDbEntity
  8
LAY-1
  6
CONTINUOUS
 62
     3
100
AcDbLine
 10
159.718553
 20
319.232379
 30
0.0
 11
159.718553
 21
343.367621
 31
0.0
  0
LINE
  5
3F8
100
AcDbEntity
  8
LAY-1
  6
EXLTYPE3
 62
     1
100
AcDbLine
 10
39.312551
 20
331.3
 30
0.0
 11
178.112551
 21
331.3
 31
0.0
  0
LINE
  5
3F9
100
AcDbEntity
  8
LAY-1
  6
CONTINUOUS
 62
     3
100
AcDbLine
 10
59.414592
 20
343.15
 30
0.0
 11
159.362551
 21
343.15
 31
0.0
  0
LINE
  5
3FA
100
AcDbEntity
  8
LAY-1
  6
CONTINUOUS
 62
     3
100
AcDbLine
 10
159.362551
 20
319.45
 30
0.0
 11
63.490351
 21
319.45
 31
0.0
  0
LINE
  5
3FB
100
AcDbEntity
  8
LAY-1
  6
CONTINUOUS
 62
     3
100
AcDbLine
 10
159.362551
 20
319.45
 30
0.0
 11
59.414592
 21
319.45
 31
0.0
  0
TEXT
  5
3FC
100
AcDbEntity
  8
LAY-1
  6
CONTINUOUS
 62
     7
100
AcDbText
 10
82.888571
 20
528.8
 30
0.0
 40
5.0
  1
２０Ａ×１０００Ｌ
 41
0.989333
  7
EXCADSTD
 72
     5
 11
135.888571
 21
528.8
 31
0.0
100
AcDbText
  0
TEXT
  5
3FD
100
AcDbEntity
  8
LAY-1
  6
CONTINUOUS
 62
     7
100
AcDbText
 10
238.908571
 20
528.8
 30
0.0
 40
5.0
  1
２５Ａ×１０００Ｌ
 41
0.989333
  7
EXCADSTD
 72
     5
 11
291.908571
 21
528.8
 31
0.0
100
AcDbText
  0
TEXT
  5
3FE
100
AcDbEntity
  8
LAY-1
  6
CONTINUOUS
 62
     7
100
AcDbText
 10
82.888571
 20
448.8
 30
0.0
 40
5.0
  1
６５Ａ×１１００Ｌ
 41
0.989333
  7
EXCADSTD
 72
     5
 11
135.888571
 21
448.8
 31
0.0
100
AcDbText
  0
TEXT
  5
3FF
100
AcDbEntity
  8
LAY-1
  6
CONTINUOUS
 62
     7
100
AcDbText
 10
238.908571
 20
448.8
 30
0.0
 40
5.0
  1
８０Ａ×１１００Ｌ
 41
0.989333
  7
EXCADSTD
 72
     5
 11
291.908571
 21
448.8
 31
0.0
100
AcDbText
  0
TEXT
  5
400
100
AcDbEntity
  8
LAY-1
  6
CONTINUOUS
 62
     7
100
AcDbText
 10
394.928571
 20
528.8
 30
0.0
 40
5.0
  1
３２Ａ×１０００Ｌ
 41
0.989333
  7
EXCADSTD
 72
     5
 11
447.928571
 21
528.8
 31
0.0
100
AcDbText
  0
TEXT
  5
401
100
AcDbEntity
  8
LAY-1
  6
CONTINUOUS
 62
     7
100
AcDbText
 10
391.928571
 20
448.8
 30
0.0
 40
5.0
  1
１００Ａ×１２００Ｌ
 41
0.9912
  7
EXCADSTD
 72
     5
 11
450.928571
 21
448.8
 31
0.0
100
AcDbText
  0
TEXT
  5
402
100
AcDbEntity
  8
LAY-1
  6
CONTINUOUS
 62
     7
100
AcDbText
 10
547.948571
 20
448.8
 30
0.0
 40
5.0
  1
１２５Ａ×１２００Ｌ
 41
0.9912
  7
EXCADSTD
 72
     5
 11
606.948571
 21
448.8
 31
0.0
100
AcDbText
  0
TEXT
  5
403
100
AcDbEntity
  8
LAY-1
  6
CONTINUOUS
 62
     7
100
AcDbText
 10
550.948571
 20
528.8
 30
0.0
 40
5.0
  1
４０Ａ×１０００Ｌ
 41
0.989333
  7
EXCADSTD
 72
     5
 11
603.948571
 21
528.8
 31
0.0
100
AcDbText
  0
TEXT
  5
404
100
AcDbEntity
  8
LAY-1
  6
CONTINUOUS
 62
     7
100
AcDbText
 10
706.968571
 20
528.8
 30
0.0
 40
5.0
  1
５０Ａ×１１００Ｌ
 41
0.989333
  7
EXCADSTD
 72
     5
 11
759.968571
 21
528.8
 31
0.0
100
AcDbText
  0
TEXT
  5
405
100
AcDbEntity
  8
LAY-1
  6
CONTINUOUS
 62
     7
100
AcDbText
 10
703.968571
 20
448.8
 30
0.0
 40
5.0
  1
１５０Ａ×１２００Ｌ
 41
0.9912
  7
EXCADSTD
 72
     5
 11
762.968571
 21
448.8
 31
0.0
100
AcDbText
  0
TEXT
  5
406
100
AcDbEntity
  8
LAY-1
  6
CONTINUOUS
 62
     7
100
AcDbText
 10
705.218571
 20
368.8
 30
0.0
 40
5.0
  1
４００A×１１００Ｌ
 41
0.96728
  7
EXCADSTD
 72
     5
 11
761.718571
 21
368.8
 31
0.0
100
AcDbText
  0
TEXT
  5
407
100
AcDbEntity
  8
LAY-1
  6
CONTINUOUS
 62
     7
100
AcDbText
 10
547.948571
 20
368.8
 30
0.0
 40
5.0
  1
３５０Ａ×１１００Ｌ
 41
0.9912
  7
EXCADSTD
 72
     5
 11
606.948571
 21
368.8
 31
0.0
100
AcDbText
  0
TEXT
  5
408
100
AcDbEntity
  8
LAY-1
  6
CONTINUOUS
 62
     7
100
AcDbText
 10
391.928571
 20
368.8
 30
0.0
 40
5.0
  1
３００Ａ×１４００Ｌ
 41
0.9912
  7
EXCADSTD
 72
     5
 11
450.928571
 21
368.8
 31
0.0
100
AcDbText
  0
TEXT
  5
409
100
AcDbEntity
  8
LAY-1
  6
CONTINUOUS
 62
     7
100
AcDbText
 10
235.908571
 20
368.8
 30
0.0
 40
5.0
  1
２５０Ａ×１４００Ｌ
 41
0.9912
  7
EXCADSTD
 72
     5
 11
294.908571
 21
368.8
 31
0.0
100
AcDbText
  0
TEXT
  5
40A
100
AcDbEntity
  8
LAY-1
  6
CONTINUOUS
 62
     7
100
AcDbText
 10
79.888571
 20
368.8
 30
0.0
 40
5.0
  1
２００Ａ×１３００Ｌ
 41
0.9912
  7
EXCADSTD
 72
     5
 11
138.888571
 21
368.8
 31
0.0
100
AcDbText
  0
TEXT
  5
40B
100
AcDbEntity
  8
LAY-1
  6
CONTINUOUS
 62
     7
100
AcDbText
 10
79.888571
 20
288.8
 30
0.0
 40
5.0
  1
４５０Ａ×１１００Ｌ
 41
0.9912
  7
EXCADSTD
 72
     5
 11
138.888571
 21
288.8
 31
0.0
100
AcDbText
  0
TEXT
  5
40C
100
AcDbEntity
  8
LAY-1
  6
CONTINUOUS
 62
     7
100
AcDbText
 10
235.908571
 20
288.8
 30
0.0
 40
5.0
  1
５００Ａ×１１００Ｌ
 41
0.9912
  7
EXCADSTD
 72
     5
 11
294.908571
 21
288.8
 31
0.0
100
AcDbText
  0
TEXT
  5
40D
100
AcDbEntity
  8
LAY-1
  6
CONTINUOUS
 62
     7
100
AcDbText
 10
391.928571
 20
288.8
 30
0.0
 40
5.0
  1
６００Ａ×１２５０Ｌ
 41
0.9912
  7
EXCADSTD
 72
     5
 11
450.928571
 21
288.8
 31
0.0
100
AcDbText
  0
LINE
  5
40E
100
AcDbEntity
  8
LAY-1
  6
CONTINUOUS
 62
     3
100
AcDbLine
 10
198.708571
 20
346.5
 30
0.0
 11
204.382551
 21
346.5
 31
0.0
  0
ARC
  5
40F
100
AcDbEntity
  8
LAY-1
  6
CONTINUOUS
 62
     3
100
AcDbCircle
 10
204.382551
 20
346.9
 30
0.0
 40
0.4
100
AcDbArc
 50
270.0
 51
332.874016
  0
ARC
  5
410
100
AcDbEntity
  8
LAY-1
  6
CONTINUOUS
 62
     3
100
AcDbCircle
 10
207.408571
 20
345.349775
 30
0.0
 40
3.0
100
AcDbArc
 50
27.125984
 51
152.874016
  0
ARC
  5
411
100
AcDbEntity
  8
LAY-1
  6
CONTINUOUS
 62
     3
100
AcDbCircle
 10
210.434592
 20
346.9
 30
0.0
 40
0.4
100
AcDbArc
 50
207.125984
 51
270.0
  0
ARC
  5
412
100
AcDbEntity
  8
LAY-1
  6
CONTINUOUS
 62
     3
100
AcDbCircle
 10
210.434592
 20
315.7
 30
0.0
 40
0.4
100
AcDbArc
 50
90.0
 51
152.874016
  0
LINE
  5
413
100
AcDbEntity
  8
LAY-1
  6
CONTINUOUS
 62
     3
100
AcDbLine
 10
204.382551
 20
316.1
 30
0.0
 11
198.708571
 21
316.1
 31
0.0
  0
ARC
  5
414
100
AcDbEntity
  8
LAY-1
  6
CONTINUOUS
 62
     3
100
AcDbCircle
 10
207.408571
 20
317.250225
 30
0.0
 40
3.0
100
AcDbArc
 50
207.125984
 51
332.874016
  0
ARC
  5
415
100
AcDbEntity
  8
LAY-1
  6
CONTINUOUS
 62
     3
100
AcDbCircle
 10
204.382551
 20
315.7
 30
0.0
 40
0.4
100
AcDbArc
 50
27.125984
 51
90.0
  0
LINE
  5
416
100
AcDbEntity
  8
LAY-1
  6
CONTINUOUS
 62
     3
100
AcDbLine
 10
204.738553
 20
346.717621
 30
0.0
 11
204.738553
 21
315.882379
 31
0.0
  0
LINE
  5
417
100
AcDbEntity
  8
LAY-1
  6
CONTINUOUS
 62
     3
100
AcDbLine
 10
210.07859
 20
315.882379
 30
0.0
 11
210.07859
 21
346.717621
 31
0.0
  0
ARC
  5
418
100
AcDbEntity
  8
LAY-1
  6
CONTINUOUS
 62
     3
100
AcDbCircle
 10
326.434592
 20
346.9
 30
0.0
 40
0.4
100
AcDbArc
 50
207.125984
 51
270.0
  0
ARC
  5
419
100
AcDbEntity
  8
LAY-1
  6
CONTINUOUS
 62
     3
100
AcDbCircle
 10
323.408571
 20
345.349775
 30
0.0
 40
3.0
100
AcDbArc
 50
27.125984
 51
152.874016
  0
ARC
  5
41A
100
AcDbEntity
  8
LAY-1
  6
CONTINUOUS
 62
     3
100
AcDbCircle
 10
320.382551
 20
346.9
 30
0.0
 40
0.4
100
AcDbArc
 50
270.0
 51
332.874016
  0
LINE
  5
41B
100
AcDbEntity
  8
LAY-1
  6
CONTINUOUS
 62
     3
100
AcDbLine
 10
332.108571
 20
346.5
 30
0.0
 11
326.434592
 21
346.5
 31
0.0
  0
ARC
  5
41C
100
AcDbEntity
  8
LAY-1
  6
CONTINUOUS
 62
     3
100
AcDbCircle
 10
320.382551
 20
315.7
 30
0.0
 40
0.4
100
AcDbArc
 50
27.125984
 51
90.0
  0
ARC
  5
41D
100
AcDbEntity
  8
LAY-1
  6
CONTINUOUS
 62
     3
100
AcDbCircle
 10
323.408571
 20
317.250225
 30
0.0
 40
3.0
100
AcDbArc
 50
207.125984
 51
332.874016
  0
ARC
  5
41E
100
AcDbEntity
  8
LAY-1
  6
CONTINUOUS
 62
     3
100
AcDbCircle
 10
326.434592
 20
315.7
 30
0.0
 40
0.4
100
AcDbArc
 50
90.0
 51
152.874016
  0
LINE
  5
41F
100
AcDbEntity
  8
LAY-1
  6
CONTINUOUS
 62
     3
100
AcDbLine
 10
326.434592
 20
316.1
 30
0.0
 11
332.108571
 21
316.1
 31
0.0
  0
LINE
  5
420
100
AcDbEntity
  8
LAY-1
  6
CONTINUOUS
 62
     3
100
AcDbLine
 10
326.07859
 20
346.717621
 30
0.0
 11
326.07859
 21
315.882379
 31
0.0
  0
LINE
  5
421
100
AcDbEntity
  8
LAY-1
  6
CONTINUOUS
 62
     3
100
AcDbLine
 10
320.738553
 20
315.882379
 30
0.0
 11
320.738553
 21
346.717621
 31
0.0
  0
LINE
  5
422
100
AcDbEntity
  8
LAY-1
  6
EXLTYPE3
 62
     1
100
AcDbLine
 10
192.789693
 20
331.3
 30
0.0
 11
338.389693
 21
331.3
 31
0.0
  0
LINE
  5
423
100
AcDbEntity
  8
LAY-1
  6
CONTINUOUS
 62
     3
100
AcDbLine
 10
210.434592
 20
346.5
 30
0.0
 11
320.382551
 21
346.5
 31
0.0
  0
LINE
  5
424
100
AcDbEntity
  8
LAY-1
  6
CONTINUOUS
 62
     3
100
AcDbLine
 10
320.382551
 20
316.1
 30
0.0
 11
210.434592
 21
316.1
 31
0.0
  0
LINE
  5
425
100
AcDbEntity
  8
LAY-1
  6
CONTINUOUS
 62
     3
100
AcDbLine
 10
354.928571
 20
348.35
 30
0.0
 11
361.195671
 21
348.35
 31
0.0
  0
ARC
  5
426
100
AcDbEntity
  8
LAY-1
  6
CONTINUOUS
 62
     3
100
AcDbCircle
 10
364.428571
 20
346.949775
 30
0.0
 40
3.25
100
AcDbArc
 50
30.446042
 51
149.553958
  0
ARC
  5
427
100
AcDbEntity
  8
LAY-1
  6
CONTINUOUS
 62
     3
100
AcDbCircle
 10
361.195671
 20
348.85
 30
0.0
 40
0.5
100
AcDbArc
 50
270.0
 51
329.553958
  0
ARC
  5
428
100
AcDbEntity
  8
LAY-1
  6
CONTINUOUS
 62
     3
100
AcDbCircle
 10
367.661472
 20
348.85
 30
0.0
 40
0.5
100
AcDbArc
 50
210.446042
 51
270.0
  0
ARC
  5
429
100
AcDbEntity
  8
LAY-1
  6
CONTINUOUS
 62
     3
100
AcDbCircle
 10
367.661472
 20
313.75
 30
0.0
 40
0.5
100
AcDbArc
 50
90.0
 51
149.553958
  0
LINE
  5
42A
100
AcDbEntity
  8
LAY-1
  6
CONTINUOUS
 62
     3
100
AcDbLine
 10
361.195671
 20
314.25
 30
0.0
 11
354.928571
 21
314.25
 31
0.0
  0
ARC
  5
42B
100
AcDbEntity
  8
LAY-1
  6
CONTINUOUS
 62
     3
100
AcDbCircle
 10
364.428571
 20
315.650225
 30
0.0
 40
3.25
100
AcDbArc
 50
210.446042
 51
329.553958
  0
ARC
  5
42C
100
AcDbEntity
  8
LAY-1
  6
CONTINUOUS
 62
     3
100
AcDbCircle
 10
361.195671
 20
313.75
 30
0.0
 40
0.5
100
AcDbArc
 50
30.446042
 51
90.0
  0
LINE
  5
42D
100
AcDbEntity
  8
LAY-1
  6
CONTINUOUS
 62
     3
100
AcDbLine
 10
361.626725
 20
314.003363
 30
0.0
 11
361.626725
 21
348.596637
 31
0.0
  0
LINE
  5
42E
100
AcDbEntity
  8
LAY-1
  6
CONTINUOUS
 62
     3
100
AcDbLine
 10
367.299779
 20
348.504778
 30
0.0
 11
367.299779
 21
314.003363
 31
0.0
  0
LINE
  5
42F
100
AcDbEntity
  8
LAY-1
  6
CONTINUOUS
 62
     3
100
AcDbLine
 10
475.195671
 20
314.25
 30
0.0
 11
367.661472
 21
314.25
 31
0.0
  0
LINE
  5
430
100
AcDbEntity
  8
LAY-1
  6
CONTINUOUS
 62
     3
100
AcDbLine
 10
367.661472
 20
348.35
 30
0.0
 11
475.195671
 21
348.35
 31
0.0
  0
LINE
  5
431
100
AcDbEntity
  8
LAY-1
  6
EXLTYPE3
 62
     1
100
AcDbLine
 10
345.366836
 20
331.3
 30
0.0
 11
497.366836
 21
331.3
 31
0.0
  0
LINE
  5
432
100
AcDbEntity
  8
LAY-1
  6
CONTINUOUS
 62
     3
100
AcDbLine
 10
481.230418
 20
314.003363
 30
0.0
 11
481.230418
 21
348.596637
 31
0.0
  0
LINE
  5
433
100
AcDbEntity
  8
LAY-1
  6
CONTINUOUS
 62
     3
100
AcDbLine
 10
475.557364
 20
348.504778
 30
0.0
 11
475.557364
 21
314.003363
 31
0.0
  0
ARC
  5
434
100
AcDbEntity
  8
LAY-1
  6
CONTINUOUS
 62
     3
100
AcDbCircle
 10
475.195671
 20
313.75
 30
0.0
 40
0.5
100
AcDbArc
 50
30.446042
 51
90.0
  0
ARC
  5
435
100
AcDbEntity
  8
LAY-1
  6
CONTINUOUS
 62
     3
100
AcDbCircle
 10
478.428571
 20
315.650225
 30
0.0
 40
3.25
100
AcDbArc
 50
210.446042
 51
329.553958
  0
ARC
  5
436
100
AcDbEntity
  8
LAY-1
  6
CONTINUOUS
 62
     3
100
AcDbCircle
 10
481.661472
 20
313.75
 30
0.0
 40
0.5
100
AcDbArc
 50
90.0
 51
149.553958
  0
LINE
  5
437
100
AcDbEntity
  8
LAY-1
  6
CONTINUOUS
 62
     3
100
AcDbLine
 10
481.661472
 20
314.25
 30
0.0
 11
487.928571
 21
314.25
 31
0.0
  0
ARC
  5
438
100
AcDbEntity
  8
LAY-1
  6
CONTINUOUS
 62
     3
100
AcDbCircle
 10
478.428571
 20
346.949775
 30
0.0
 40
3.25
100
AcDbArc
 50
30.446042
 51
149.553958
  0
ARC
  5
439
100
AcDbEntity
  8
LAY-1
  6
CONTINUOUS
 62
     3
100
AcDbCircle
 10
481.661472
 20
348.85
 30
0.0
 40
0.5
100
AcDbArc
 50
210.446042
 51
270.0
  0
ARC
  5
43A
100
AcDbEntity
  8
LAY-1
  6
CONTINUOUS
 62
     3
100
AcDbCircle
 10
475.195671
 20
348.85
 30
0.0
 40
0.5
100
AcDbArc
 50
270.0
 51
329.553958
  0
LINE
  5
43B
100
AcDbEntity
  8
LAY-1
  6
CONTINUOUS
 62
     3
100
AcDbLine
 10
487.928571
 20
348.35
 30
0.0
 11
481.661472
 21
348.35
 31
0.0
  0
TEXT
  5
43D
100
AcDbEntity
  8
LAY-1
  6
CONTINUOUS
 62
     1
100
AcDbText
 10
165.250002
 20
-33.2
 30
0.0
 40
11.25
  1
スケールは１／１０となっています。必要に応じてサイズを１０倍して下さい。
 41
0.966667
  7
EXCADTTF1
 72
     5
 11
687.750002
 21
-33.2
 31
0.0
100
AcDbText
  0
TEXT
  5
43E
100
AcDbEntity
  8
LAY-1
  6
CONTINUOUS
 62
     7
100
AcDbText
 10
237.2
 20
538.0
 30
0.0
 40
20.0
  1
ＬＳコネクタＧタイプ４００ｍｍ偏心・高圧用
 41
0.88
  7
EXCADSTD
 72
     5
 11
677.2
 21
538.0
 31
0.0
100
AcDbText
  0
LINE
  5
43F
100
AcDbEntity
  8
LAY-1
  6
CONTINUOUS
 62
     2
100
AcDbLine
 10
153.66
 20
550.988
 30
0.0
 11
153.66
 21
541.328
 31
0.0
  0
LINE
  5
440
100
AcDbEntity
  8
LAY-1
  6
CONTINUOUS
 62
     2
100
AcDbLine
 10
156.6
 20
550.988
 30
0.0
 11
156.6
 21
541.328
 31
0.0
  0
CIRCLE
  5
441
100
AcDbEntity
  8
LAY-1
  6
CONTINUOUS
 62
     2
100
AcDbCircle
 10
168.78
 20
547.628
 30
0.0
 40
4.452
  0
CIRCLE
  5
442
100
AcDbEntity
  8
LAY-1
  6
CONTINUOUS
 62
     2
100
AcDbCircle
 10
168.78
 20
547.628
 30
0.0
 40
5.88
  0
CIRCLE
  5
443
100
AcDbEntity
  8
LAY-1
  6
CONTINUOUS
 62
     2
100
AcDbCircle
 10
168.78
 20
547.628
 30
0.0
 40
8.904
  0
LINE
  5
444
100
AcDbEntity
  8
LAY-1
  6
CONTINUOUS
 62
     2
100
AcDbLine
 10
147.78
 20
553.928
 30
0.0
 11
147.78
 21
550.988
 31
0.0
  0
LINE
  5
445
100
AcDbEntity
  8
LAY-1
  6
CONTINUOUS
 62
     2
100
AcDbLine
 10
153.66
 20
541.328
 30
0.0
 11
156.6
 21
541.328
 31
0.0
  0
ARC
  5
446
100
AcDbEntity
  8
LAY-1
  6
CONTINUOUS
 62
     2
100
AcDbCircle
 10
168.78
 20
547.628
 30
0.0
 40
9.769139
100
AcDbArc
 50
139.842723
 51
159.882882
  0
ARC
  5
447
100
AcDbEntity
  8
LAY-1
  6
CONTINUOUS
 62
     2
100
AcDbCircle
 10
168.78
 20
547.628
 30
0.0
 40
9.769139
100
AcDbArc
 50
20.117118
 51
40.157277
  0
LINE
  5
448
100
AcDbEntity
  8
LAY-1
  6
CONTINUOUS
 62
     2
100
AcDbLine
 10
186.42
 20
544.268
 30
0.0
 11
186.42
 21
541.328
 31
0.0
  0
LINE
  5
449
100
AcDbEntity
  8
LAY-1
  6
CONTINUOUS
 62
     2
100
AcDbLine
 10
186.42
 20
553.928
 30
0.0
 11
186.42
 21
550.988
 31
0.0
  0
ARC
  5
44A
100
AcDbEntity
  8
LAY-1
  6
CONTINUOUS
 62
     2
100
AcDbCircle
 10
168.78
 20
547.628
 30
0.0
 40
9.769139
100
AcDbArc
 50
319.842723
 51
348.135428
  0
LINE
  5
44B
100
AcDbEntity
  8
LAY-1
  6
CONTINUOUS
 62
     2
100
AcDbLine
 10
186.42
 20
550.988
 30
0.0
 11
180.361927
 21
544.268
 31
0.0
  0
LINE
  5
44C
100
AcDbEntity
  8
LAY-1
  6
CONTINUOUS
 62
     2
100
AcDbLine
 10
183.180154
 20
550.988
 30
0.0
 11
178.340434
 21
545.619474
 31
0.0
  0
LINE
  5
44D
100
AcDbEntity
  8
LAY-1
  6
CONTINUOUS
 62
     2
100
AcDbLine
 10
187.848
 20
553.928
 30
0.0
 11
187.848
 21
541.328
 31
0.0
  0
LINE
  5
44E
100
AcDbEntity
  8
LAY-1
  6
CONTINUOUS
 62
     2
100
AcDbLine
 10
190.788
 20
546.368
 30
0.0
 11
199.104
 21
546.368
 31
0.0
  0
LINE
  5
44F
100
AcDbEntity
  8
LAY-1
  6
CONTINUOUS
 62
     2
100
AcDbLine
 10
200.364
 20
553.928
 30
0.0
 11
200.364
 21
541.328
 31
0.0
  0
LINE
  5
450
100
AcDbEntity
  8
LAY-1
  6
CONTINUOUS
 62
     2
100
AcDbLine
 10
211.956
 20
553.928
 30
0.0
 11
211.956
 21
541.328
 31
0.0
  0
LINE
  5
451
100
AcDbEntity
  8
LAY-1
  6
CONTINUOUS
 62
     2
100
AcDbLine
 10
209.1
 20
541.328
 30
0.0
 11
203.22
 21
550.262972
 31
0.0
  0
LINE
  5
452
100
AcDbEntity
  8
LAY-1
  6
CONTINUOUS
 62
     2
100
AcDbLine
 10
203.22
 20
553.928
 30
0.0
 11
209.1
 21
544.993028
 31
0.0
  0
LINE
  5
453
100
AcDbEntity
  8
LAY-1
  6
CONTINUOUS
 62
     2
100
AcDbLine
 10
199.104
 20
553.928
 30
0.0
 11
199.104
 21
550.988
 31
0.0
  0
LINE
  5
454
100
AcDbEntity
  8
LAY-1
  6
CONTINUOUS
 62
     2
100
AcDbLine
 10
199.104
 20
548.888
 30
0.0
 11
199.104
 21
546.368
 31
0.0
  0
LINE
  5
455
100
AcDbEntity
  8
LAY-1
  6
CONTINUOUS
 62
     2
100
AcDbLine
 10
199.104
 20
544.268
 30
0.0
 11
199.104
 21
541.328
 31
0.0
  0
LINE
  5
456
100
AcDbEntity
  8
LAY-1
  6
CONTINUOUS
 62
     2
100
AcDbLine
 10
190.788
 20
550.988
 30
0.0
 11
199.104
 21
550.988
 31
0.0
  0
LINE
  5
457
100
AcDbEntity
  8
LAY-1
  6
CONTINUOUS
 62
     2
100
AcDbLine
 10
190.788
 20
546.368
 30
0.0
 11
190.788
 21
544.268
 31
0.0
  0
LINE
  5
458
100
AcDbEntity
  8
LAY-1
  6
CONTINUOUS
 62
     2
100
AcDbLine
 10
187.848
 20
541.328
 30
0.0
 11
199.104
 21
541.328
 31
0.0
  0
LINE
  5
459
100
AcDbEntity
  8
LAY-1
  6
CONTINUOUS
 62
     2
100
AcDbLine
 10
203.22
 20
550.262972
 30
0.0
 11
203.22
 21
541.328
 31
0.0
  0
LINE
  5
45A
100
AcDbEntity
  8
LAY-1
  6
CONTINUOUS
 62
     2
100
AcDbLine
 10
200.364
 20
541.328
 30
0.0
 11
203.22
 21
541.328
 31
0.0
  0
LINE
  5
45B
100
AcDbEntity
  8
LAY-1
  6
CONTINUOUS
 62
     2
100
AcDbLine
 10
209.1
 20
541.328
 30
0.0
 11
211.956
 21
541.328
 31
0.0
  0
LINE
  5
45C
100
AcDbEntity
  8
LAY-1
  6
CONTINUOUS
 62
     2
100
AcDbLine
 10
209.1
 20
553.928
 30
0.0
 11
209.1
 21
544.993028
 31
0.0
  0
LINE
  5
45D
100
AcDbEntity
  8
LAY-1
  6
CONTINUOUS
 62
     2
100
AcDbLine
 10
147.78
 20
550.988
 30
0.0
 11
153.66
 21
550.988
 31
0.0
  0
LINE
  5
45E
100
AcDbEntity
  8
LAY-1
  6
CONTINUOUS
 62
     2
100
AcDbLine
 10
156.6
 20
550.988
 30
0.0
 11
159.606862
 21
550.988
 31
0.0
  0
LINE
  5
45F
100
AcDbEntity
  8
LAY-1
  6
CONTINUOUS
 62
     2
100
AcDbLine
 10
177.953138
 20
550.988
 30
0.0
 11
183.180154
 21
550.988
 31
0.0
  0
LINE
  5
460
100
AcDbEntity
  8
LAY-1
  6
CONTINUOUS
 62
     2
100
AcDbLine
 10
176.246329
 20
541.328
 30
0.0
 11
186.42
 21
541.328
 31
0.0
  0
LINE
  5
461
100
AcDbEntity
  8
LAY-1
  6
CONTINUOUS
 62
     2
100
AcDbLine
 10
190.788
 20
550.988
 30
0.0
 11
190.788
 21
548.888
 31
0.0
  0
LINE
  5
462
100
AcDbEntity
  8
LAY-1
  6
CONTINUOUS
 62
     2
100
AcDbLine
 10
167.55983
 20
556.448
 30
0.0
 11
170.00017
 21
556.448
 31
0.0
  0
LINE
  5
463
100
AcDbEntity
  8
LAY-1
  6
CONTINUOUS
 62
     2
100
AcDbLine
 10
165.82683
 20
556.028
 30
0.0
 11
171.73317
 21
556.028
 31
0.0
  0
LINE
  5
464
100
AcDbEntity
  8
LAY-1
  6
CONTINUOUS
 62
     2
100
AcDbLine
 10
164.830213
 20
555.608
 30
0.0
 11
172.729787
 21
555.608
 31
0.0
  0
LINE
  5
465
100
AcDbEntity
  8
LAY-1
  6
CONTINUOUS
 62
     2
100
AcDbLine
 10
164.076
 20
555.188
 30
0.0
 11
173.484
 21
555.188
 31
0.0
  0
LINE
  5
466
100
AcDbEntity
  8
LAY-1
  6
CONTINUOUS
 62
     2
100
AcDbLine
 10
163.460074
 20
554.768
 30
0.0
 11
174.099926
 21
554.768
 31
0.0
  0
LINE
  5
467
100
AcDbEntity
  8
LAY-1
  6
CONTINUOUS
 62
     2
100
AcDbLine
 10
162.938526
 20
554.348
 30
0.0
 11
174.621474
 21
554.348
 31
0.0
  0
LINE
  5
468
100
AcDbEntity
  8
LAY-1
  6
CONTINUOUS
 62
     2
100
AcDbLine
 10
147.78
 20
553.928
 30
0.0
 11
161.313671
 21
553.928
 31
0.0
  0
LINE
  5
469
100
AcDbEntity
  8
LAY-1
  6
CONTINUOUS
 62
     2
100
AcDbLine
 10
162.487845
 20
553.928
 30
0.0
 11
175.072155
 21
553.928
 31
0.0
  0
LINE
  5
46A
100
AcDbEntity
  8
LAY-1
  6
CONTINUOUS
 62
     2
100
AcDbLine
 10
176.246329
 20
553.928
 30
0.0
 11
186.42
 21
553.928
 31
0.0
  0
LINE
  5
46B
100
AcDbEntity
  8
LAY-1
  6
CONTINUOUS
 62
     2
100
AcDbLine
 10
187.848
 20
553.928
 30
0.0
 11
199.104
 21
553.928
 31
0.0
  0
LINE
  5
46C
100
AcDbEntity
  8
LAY-1
  6
CONTINUOUS
 62
     2
100
AcDbLine
 10
200.364
 20
553.928
 30
0.0
 11
203.22
 21
553.928
 31
0.0
  0
LINE
  5
46D
100
AcDbEntity
  8
LAY-1
  6
CONTINUOUS
 62
     2
100
AcDbLine
 10
209.1
 20
553.928
 30
0.0
 11
211.956
 21
553.928
 31
0.0
  0
LINE
  5
46E
100
AcDbEntity
  8
LAY-1
  6
CONTINUOUS
 62
     2
100
AcDbLine
 10
147.78
 20
553.508
 30
0.0
 11
160.978611
 21
553.508
 31
0.0
  0
LINE
  5
46F
100
AcDbEntity
  8
LAY-1
  6
CONTINUOUS
 62
     2
100
AcDbLine
 10
162.093684
 20
553.508
 30
0.0
 11
175.466316
 21
553.508
 31
0.0
  0
LINE
  5
470
100
AcDbEntity
  8
LAY-1
  6
CONTINUOUS
 62
     2
100
AcDbLine
 10
176.581389
 20
553.508
 30
0.0
 11
186.42
 21
553.508
 31
0.0
  0
LINE
  5
471
100
AcDbEntity
  8
LAY-1
  6
CONTINUOUS
 62
     2
100
AcDbLine
 10
187.848
 20
553.508
 30
0.0
 11
199.104
 21
553.508
 31
0.0
  0
LINE
  5
472
100
AcDbEntity
  8
LAY-1
  6
CONTINUOUS
 62
     2
100
AcDbLine
 10
200.364
 20
553.508
 30
0.0
 11
203.496397
 21
553.508
 31
0.0
  0
LINE
  5
473
100
AcDbEntity
  8
LAY-1
  6
CONTINUOUS
 62
     2
100
AcDbLine
 10
209.1
 20
553.508
 30
0.0
 11
211.956
 21
553.508
 31
0.0
  0
LINE
  5
474
100
AcDbEntity
  8
LAY-1
  6
CONTINUOUS
 62
     2
100
AcDbLine
 10
147.78
 20
553.088
 30
0.0
 11
160.679107
 21
553.088
 31
0.0
  0
LINE
  5
475
100
AcDbEntity
  8
LAY-1
  6
CONTINUOUS
 62
     2
100
AcDbLine
 10
161.746536
 20
553.088
 30
0.0
 11
166.597616
 21
553.088
 31
0.0
  0
LINE
  5
476
100
AcDbEntity
  8
LAY-1
  6
CONTINUOUS
 62
     2
100
AcDbLine
 10
170.962384
 20
553.088
 30
0.0
 11
175.813464
 21
553.088
 31
0.0
  0
LINE
  5
477
100
AcDbEntity
  8
LAY-1
  6
CONTINUOUS
 62
     2
100
AcDbLine
 10
176.880893
 20
553.088
 30
0.0
 11
186.42
 21
553.088
 31
0.0
  0
LINE
  5
478
100
AcDbEntity
  8
LAY-1
  6
CONTINUOUS
 62
     2
100
AcDbLine
 10
187.848
 20
553.088
 30
0.0
 11
199.104
 21
553.088
 31
0.0
  0
LINE
  5
479
100
AcDbEntity
  8
LAY-1
  6
CONTINUOUS
 62
     2
100
AcDbLine
 10
200.364
 20
553.088
 30
0.0
 11
203.772794
 21
553.088
 31
0.0
  0
LINE
  5
47A
100
AcDbEntity
  8
LAY-1
  6
CONTINUOUS
 62
     2
100
AcDbLine
 10
209.1
 20
553.088
 30
0.0
 11
211.956
 21
553.088
 31
0.0
  0
LINE
  5
47B
100
AcDbEntity
  8
LAY-1
  6
CONTINUOUS
 62
     2
100
AcDbLine
 10
147.78
 20
552.668
 30
0.0
 11
160.41134
 21
552.668
 31
0.0
  0
LINE
  5
47C
100
AcDbEntity
  8
LAY-1
  6
CONTINUOUS
 62
     2
100
AcDbLine
 10
161.439726
 20
552.668
 30
0.0
 11
165.751337
 21
552.668
 31
0.0
  0
LINE
  5
47D
100
AcDbEntity
  8
LAY-1
  6
CONTINUOUS
 62
     2
100
AcDbLine
 10
171.808663
 20
552.668
 30
0.0
 11
176.120274
 21
552.668
 31
0.0
  0
LINE
  5
47E
100
AcDbEntity
  8
LAY-1
  6
CONTINUOUS
 62
     2
100
AcDbLine
 10
177.14866
 20
552.668
 30
0.0
 11
186.42
 21
552.668
 31
0.0
  0
LINE
  5
47F
100
AcDbEntity
  8
LAY-1
  6
CONTINUOUS
 62
     2
100
AcDbLine
 10
187.848
 20
552.668
 30
0.0
 11
199.104
 21
552.668
 31
0.0
  0
LINE
  5
480
100
AcDbEntity
  8
LAY-1
  6
CONTINUOUS
 62
     2
100
AcDbLine
 10
200.364
 20
552.668
 30
0.0
 11
204.049191
 21
552.668
 31
0.0
  0
LINE
  5
481
100
AcDbEntity
  8
LAY-1
  6
CONTINUOUS
 62
     2
100
AcDbLine
 10
209.1
 20
552.668
 30
0.0
 11
211.956
 21
552.668
 31
0.0
  0
LINE
  5
482
100
AcDbEntity
  8
LAY-1
  6
CONTINUOUS
 62
     2
100
AcDbLine
 10
147.78
 20
552.248
 30
0.0
 11
160.172348
 21
552.248
 31
0.0
  0
LINE
  5
483
100
AcDbEntity
  8
LAY-1
  6
CONTINUOUS
 62
     2
100
AcDbLine
 10
161.168376
 20
552.248
 30
0.0
 11
165.142693
 21
552.248
 31
0.0
  0
LINE
  5
484
100
AcDbEntity
  8
LAY-1
  6
CONTINUOUS
 62
     2
100
AcDbLine
 10
172.417307
 20
552.248
 30
0.0
 11
176.391624
 21
552.248
 31
0.0
  0
LINE
  5
485
100
AcDbEntity
  8
LAY-1
  6
CONTINUOUS
 62
     2
100
AcDbLine
 10
177.387652
 20
552.248
 30
0.0
 11
186.42
 21
552.248
 31
0.0
  0
LINE
  5
486
100
AcDbEntity
  8
LAY-1
  6
CONTINUOUS
 62
     2
100
AcDbLine
 10
187.848
 20
552.248
 30
0.0
 11
199.104
 21
552.248
 31
0.0
  0
LINE
  5
487
100
AcDbEntity
  8
LAY-1
  6
CONTINUOUS
 62
     2
100
AcDbLine
 10
200.364
 20
552.248
 30
0.0
 11
204.325588
 21
552.248
 31
0.0
  0
LINE
  5
488
100
AcDbEntity
  8
LAY-1
  6
CONTINUOUS
 62
     2
100
AcDbLine
 10
209.1
 20
552.248
 30
0.0
 11
211.956
 21
552.248
 31
0.0
  0
LINE
  5
489
100
AcDbEntity
  8
LAY-1
  6
CONTINUOUS
 62
     2
100
AcDbLine
 10
147.78
 20
551.828
 30
0.0
 11
159.959792
 21
551.828
 31
0.0
  0
LINE
  5
48A
100
AcDbEntity
  8
LAY-1
  6
CONTINUOUS
 62
     2
100
AcDbLine
 10
160.928808
 20
551.828
 30
0.0
 11
164.664857
 21
551.828
 31
0.0
  0
LINE
  5
48B
100
AcDbEntity
  8
LAY-1
  6
CONTINUOUS
 62
     2
100
AcDbLine
 10
167.303415
 20
551.828
 30
0.0
 11
170.256585
 21
551.828
 31
0.0
  0
LINE
  5
48C
100
AcDbEntity
  8
LAY-1
  6
CONTINUOUS
 62
     2
100
AcDbLine
 10
172.895143
 20
551.828
 30
0.0
 11
176.631192
 21
551.828
 31
0.0
  0
LINE
  5
48D
100
AcDbEntity
  8
LAY-1
  6
CONTINUOUS
 62
     2
100
AcDbLine
 10
177.600208
 20
551.828
 30
0.0
 11
186.42
 21
551.828
 31
0.0
  0
LINE
  5
48E
100
AcDbEntity
  8
LAY-1
  6
CONTINUOUS
 62
     2
100
AcDbLine
 10
187.848
 20
551.828
 30
0.0
 11
199.104
 21
551.828
 31
0.0
  0
LINE
  5
48F
100
AcDbEntity
  8
LAY-1
  6
CONTINUOUS
 62
     2
100
AcDbLine
 10
200.364
 20
551.828
 30
0.0
 11
204.601985
 21
551.828
 31
0.0
  0
LINE
  5
490
100
AcDbEntity
  8
LAY-1
  6
CONTINUOUS
 62
     2
100
AcDbLine
 10
209.1
 20
551.828
 30
0.0
 11
211.956
 21
551.828
 31
0.0
  0
LINE
  5
491
100
AcDbEntity
  8
LAY-1
  6
CONTINUOUS
 62
     2
100
AcDbLine
 10
147.78
 20
551.408
 30
0.0
 11
159.7718
 21
551.408
 31
0.0
  0
LINE
  5
492
100
AcDbEntity
  8
LAY-1
  6
CONTINUOUS
 62
     2
100
AcDbLine
 10
160.718188
 20
551.408
 30
0.0
 11
164.276002
 21
551.408
 31
0.0
  0
LINE
  5
493
100
AcDbEntity
  8
LAY-1
  6
CONTINUOUS
 62
     2
100
AcDbLine
 10
166.428
 20
551.408
 30
0.0
 11
171.132
 21
551.408
 31
0.0
  0
LINE
  5
494
100
AcDbEntity
  8
LAY-1
  6
CONTINUOUS
 62
     2
100
AcDbLine
 10
173.283998
 20
551.408
 30
0.0
 11
176.841812
 21
551.408
 31
0.0
  0
LINE
  5
495
100
AcDbEntity
  8
LAY-1
  6
CONTINUOUS
 62
     2
100
AcDbLine
 10
177.7882
 20
551.408
 30
0.0
 11
186.42
 21
551.408
 31
0.0
  0
LINE
  5
496
100
AcDbEntity
  8
LAY-1
  6
CONTINUOUS
 62
     2
100
AcDbLine
 10
187.848
 20
551.408
 30
0.0
 11
199.104
 21
551.408
 31
0.0
  0
LINE
  5
497
100
AcDbEntity
  8
LAY-1
  6
CONTINUOUS
 62
     2
100
AcDbLine
 10
200.364
 20
551.408
 30
0.0
 11
204.878382
 21
551.408
 31
0.0
  0
LINE
  5
498
100
AcDbEntity
  8
LAY-1
  6
CONTINUOUS
 62
     2
100
AcDbLine
 10
209.1
 20
551.408
 30
0.0
 11
211.956
 21
551.408
 31
0.0
  0
LINE
  5
499
100
AcDbEntity
  8
LAY-1
  6
CONTINUOUS
 62
     2
100
AcDbLine
 10
153.66
 20
550.988
 30
0.0
 11
156.6
 21
550.988
 31
0.0
  0
LINE
  5
49A
100
AcDbEntity
  8
LAY-1
  6
CONTINUOUS
 62
     2
100
AcDbLine
 10
160.534297
 20
550.988
 30
0.0
 11
163.954567
 21
550.988
 31
0.0
  0
LINE
  5
49B
100
AcDbEntity
  8
LAY-1
  6
CONTINUOUS
 62
     2
100
AcDbLine
 10
165.859263
 20
550.988
 30
0.0
 11
171.700737
 21
550.988
 31
0.0
  0
LINE
  5
49C
100
AcDbEntity
  8
LAY-1
  6
CONTINUOUS
 62
     2
100
AcDbLine
 10
173.605433
 20
550.988
 30
0.0
 11
177.025703
 21
550.988
 31
0.0
  0
LINE
  5
49D
100
AcDbEntity
  8
LAY-1
  6
CONTINUOUS
 62
     2
100
AcDbLine
 10
183.180154
 20
550.988
 30
0.0
 11
186.42
 21
550.988
 31
0.0
  0
LINE
  5
49E
100
AcDbEntity
  8
LAY-1
  6
CONTINUOUS
 62
     2
100
AcDbLine
 10
187.848
 20
550.988
 30
0.0
 11
190.788
 21
550.988
 31
0.0
  0
LINE
  5
49F
100
AcDbEntity
  8
LAY-1
  6
CONTINUOUS
 62
     2
100
AcDbLine
 10
200.364
 20
550.988
 30
0.0
 11
205.154779
 21
550.988
 31
0.0
  0
LINE
  5
4A0
100
AcDbEntity
  8
LAY-1
  6
CONTINUOUS
 62
     2
100
AcDbLine
 10
209.1
 20
550.988
 30
0.0
 11
211.956
 21
550.988
 31
0.0
  0
LINE
  5
4A1
100
AcDbEntity
  8
LAY-1
  6
CONTINUOUS
 62
     2
100
AcDbLine
 10
153.66
 20
550.568
 30
0.0
 11
156.6
 21
550.568
 31
0.0
  0
LINE
  5
4A2
100
AcDbEntity
  8
LAY-1
  6
CONTINUOUS
 62
     2
100
AcDbLine
 10
160.375381
 20
550.568
 30
0.0
 11
163.687771
 21
550.568
 31
0.0
  0
LINE
  5
4A3
100
AcDbEntity
  8
LAY-1
  6
CONTINUOUS
 62
     2
100
AcDbLine
 10
165.436842
 20
550.568
 30
0.0
 11
172.123158
 21
550.568
 31
0.0
  0
LINE
  5
4A4
100
AcDbEntity
  8
LAY-1
  6
CONTINUOUS
 62
     2
100
AcDbLine
 10
173.872229
 20
550.568
 30
0.0
 11
177.184619
 21
550.568
 31
0.0
  0
LINE
  5
4A5
100
AcDbEntity
  8
LAY-1
  6
CONTINUOUS
 62
     2
100
AcDbLine
 10
182.801525
 20
550.568
 30
0.0
 11
186.04137
 21
550.568
 31
0.0
  0
LINE
  5
4A6
100
AcDbEntity
  8
LAY-1
  6
CONTINUOUS
 62
     2
100
AcDbLine
 10
187.848
 20
550.568
 30
0.0
 11
190.788
 21
550.568
 31
0.0
  0
LINE
  5
4A7
100
AcDbEntity
  8
LAY-1
  6
CONTINUOUS
 62
     2
100
AcDbLine
 10
200.364
 20
550.568
 30
0.0
 11
205.431176
 21
550.568
 31
0.0
  0
LINE
  5
4A8
100
AcDbEntity
  8
LAY-1
  6
CONTINUOUS
 62
     2
100
AcDbLine
 10
209.1
 20
550.568
 30
0.0
 11
211.956
 21
550.568
 31
0.0
  0
LINE
  5
4A9
100
AcDbEntity
  8
LAY-1
  6
CONTINUOUS
 62
     2
100
AcDbLine
 10
153.66
 20
550.148
 30
0.0
 11
156.6
 21
550.148
 31
0.0
  0
LINE
  5
4AA
100
AcDbEntity
  8
LAY-1
  6
CONTINUOUS
 62
     2
100
AcDbLine
 10
160.240046
 20
550.148
 30
0.0
 11
163.467374
 21
550.148
 31
0.0
  0
LINE
  5
4AB
100
AcDbEntity
  8
LAY-1
  6
CONTINUOUS
 62
     2
100
AcDbLine
 10
165.109863
 20
550.148
 30
0.0
 11
172.450137
 21
550.148
 31
0.0
  0
LINE
  5
4AC
100
AcDbEntity
  8
LAY-1
  6
CONTINUOUS
 62
     2
100
AcDbLine
 10
174.092626
 20
550.148
 30
0.0
 11
177.319954
 21
550.148
 31
0.0
  0
LINE
  5
4AD
100
AcDbEntity
  8
LAY-1
  6
CONTINUOUS
 62
     2
100
AcDbLine
 10
182.422895
 20
550.148
 30
0.0
 11
185.662741
 21
550.148
 31
0.0
  0
LINE
  5
4AE
100
AcDbEntity
  8
LAY-1
  6
CONTINUOUS
 62
     2
100
AcDbLine
 10
187.848
 20
550.148
 30
0.0
 11
190.788
 21
550.148
 31
0.0
  0
LINE
  5
4AF
100
AcDbEntity
  8
LAY-1
  6
CONTINUOUS
 62
     2
100
AcDbLine
 10
200.364
 20
550.148
 30
0.0
 11
203.22
 21
550.148
 31
0.0
  0
LINE
  5
4B0
100
AcDbEntity
  8
LAY-1
  6
CONTINUOUS
 62
     2
100
AcDbLine
 10
203.295662
 20
550.148
 30
0.0
 11
205.707574
 21
550.148
 31
0.0
  0
LINE
  5
4B1
100
AcDbEntity
  8
LAY-1
  6
CONTINUOUS
 62
     2
100
AcDbLine
 10
209.1
 20
550.148
 30
0.0
 11
211.956
 21
550.148
 31
0.0
  0
LINE
  5
4B2
100
AcDbEntity
  8
LAY-1
  6
CONTINUOUS
 62
     2
100
AcDbLine
 10
153.66
 20
549.728
 30
0.0
 11
156.6
 21
549.728
 31
0.0
  0
LINE
  5
4B3
100
AcDbEntity
  8
LAY-1
  6
CONTINUOUS
 62
     2
100
AcDbLine
 10
160.127185
 20
549.728
 30
0.0
 11
163.287787
 21
549.728
 31
0.0
  0
LINE
  5
4B4
100
AcDbEntity
  8
LAY-1
  6
CONTINUOUS
 62
     2
100
AcDbLine
 10
164.854404
 20
549.728
 30
0.0
 11
172.705596
 21
549.728
 31
0.0
  0
LINE
  5
4B5
100
AcDbEntity
  8
LAY-1
  6
CONTINUOUS
 62
     2
100
AcDbLine
 10
174.272213
 20
549.728
 30
0.0
 11
177.432815
 21
549.728
 31
0.0
  0
LINE
  5
4B6
100
AcDbEntity
  8
LAY-1
  6
CONTINUOUS
 62
     2
100
AcDbLine
 10
182.044266
 20
549.728
 30
0.0
 11
185.284111
 21
549.728
 31
0.0
  0
LINE
  5
4B7
100
AcDbEntity
  8
LAY-1
  6
CONTINUOUS
 62
     2
100
AcDbLine
 10
187.848
 20
549.728
 30
0.0
 11
190.788
 21
549.728
 31
0.0
  0
LINE
  5
4B8
100
AcDbEntity
  8
LAY-1
  6
CONTINUOUS
 62
     2
100
AcDbLine
 10
200.364
 20
549.728
 30
0.0
 11
203.22
 21
549.728
 31
0.0
  0
LINE
  5
4B9
100
AcDbEntity
  8
LAY-1
  6
CONTINUOUS
 62
     2
100
AcDbLine
 10
203.572059
 20
549.728
 30
0.0
 11
205.983971
 21
549.728
 31
0.0
  0
LINE
  5
4BA
100
AcDbEntity
  8
LAY-1
  6
CONTINUOUS
 62
     2
100
AcDbLine
 10
209.1
 20
549.728
 30
0.0
 11
211.956
 21
549.728
 31
0.0
  0
LINE
  5
4BB
100
AcDbEntity
  8
LAY-1
  6
CONTINUOUS
 62
     2
100
AcDbLine
 10
153.66
 20
549.308
 30
0.0
 11
156.6
 21
549.308
 31
0.0
  0
LINE
  5
4BC
100
AcDbEntity
  8
LAY-1
  6
CONTINUOUS
 62
     2
100
AcDbLine
 10
160.035927
 20
549.308
 30
0.0
 11
163.145109
 21
549.308
 31
0.0
  0
LINE
  5
4BD
100
AcDbEntity
  8
LAY-1
  6
CONTINUOUS
 62
     2
100
AcDbLine
 10
164.657149
 20
549.308
 30
0.0
 11
172.902851
 21
549.308
 31
0.0
  0
LINE
  5
4BE
100
AcDbEntity
  8
LAY-1
  6
CONTINUOUS
 62
     2
100
AcDbLine
 10
174.414891
 20
549.308
 30
0.0
 11
177.524073
 21
549.308
 31
0.0
  0
LINE
  5
4BF
100
AcDbEntity
  8
LAY-1
  6
CONTINUOUS
 62
     2
100
AcDbLine
 10
181.665636
 20
549.308
 30
0.0
 11
184.905482
 21
549.308
 31
0.0
  0
LINE
  5
4C0
100
AcDbEntity
  8
LAY-1
  6
CONTINUOUS
 62
     2
100
AcDbLine
 10
187.848
 20
549.308
 30
0.0
 11
190.788
 21
549.308
 31
0.0
  0
LINE
  5
4C1
100
AcDbEntity
  8
LAY-1
  6
CONTINUOUS
 62
     2
100
AcDbLine
 10
200.364
 20
549.308
 30
0.0
 11
203.22
 21
549.308
 31
0.0
  0
LINE
  5
4C2
100
AcDbEntity
  8
LAY-1
  6
CONTINUOUS
 62
     2
100
AcDbLine
 10
203.848456
 20
549.308
 30
0.0
 11
206.260368
 21
549.308
 31
0.0
  0
LINE
  5
4C3
100
AcDbEntity
  8
LAY-1
  6
CONTINUOUS
 62
     2
100
AcDbLine
 10
209.1
 20
549.308
 30
0.0
 11
211.956
 21
549.308
 31
0.0
  0
LINE
  5
4C4
100
AcDbEntity
  8
LAY-1
  6
CONTINUOUS
 62
     2
100
AcDbLine
 10
153.66
 20
548.888
 30
0.0
 11
156.6
 21
548.888
 31
0.0
  0
LINE
  5
4C5
100
AcDbEntity
  8
LAY-1
  6
CONTINUOUS
 62
     2
100
AcDbLine
 10
159.965602
 20
548.888
 30
0.0
 11
163.036586
 21
548.888
 31
0.0
  0
LINE
  5
4C6
100
AcDbEntity
  8
LAY-1
  6
CONTINUOUS
 62
     2
100
AcDbLine
 10
164.510023
 20
548.888
 30
0.0
 11
173.049977
 21
548.888
 31
0.0
  0
LINE
  5
4C7
100
AcDbEntity
  8
LAY-1
  6
CONTINUOUS
 62
     2
100
AcDbLine
 10
174.523414
 20
548.888
 30
0.0
 11
177.594398
 21
548.888
 31
0.0
  0
LINE
  5
4C8
100
AcDbEntity
  8
LAY-1
  6
CONTINUOUS
 62
     2
100
AcDbLine
 10
181.287006
 20
548.888
 30
0.0
 11
184.526852
 21
548.888
 31
0.0
  0
LINE
  5
4C9
100
AcDbEntity
  8
LAY-1
  6
CONTINUOUS
 62
     2
100
AcDbLine
 10
187.848
 20
548.888
 30
0.0
 11
199.104
 21
548.888
 31
0.0
  0
LINE
  5
4CA
100
AcDbEntity
  8
LAY-1
  6
CONTINUOUS
 62
     2
100
AcDbLine
 10
200.364
 20
548.888
 30
0.0
 11
203.22
 21
548.888
 31
0.0
  0
LINE
  5
4CB
100
AcDbEntity
  8
LAY-1
  6
CONTINUOUS
 62
     2
100
AcDbLine
 10
204.124853
 20
548.888
 30
0.0
 11
206.536765
 21
548.888
 31
0.0
  0
LINE
  5
4CC
100
AcDbEntity
  8
LAY-1
  6
CONTINUOUS
 62
     2
100
AcDbLine
 10
209.1
 20
548.888
 30
0.0
 11
211.956
 21
548.888
 31
0.0
  0
LINE
  5
4CD
100
AcDbEntity
  8
LAY-1
  6
CONTINUOUS
 62
     2
100
AcDbLine
 10
153.66
 20
548.468
 30
0.0
 11
156.6
 21
548.468
 31
0.0
  0
LINE
  5
4CE
100
AcDbEntity
  8
LAY-1
  6
CONTINUOUS
 62
     2
100
AcDbLine
 10
159.915711
 20
548.468
 30
0.0
 11
162.960309
 21
548.468
 31
0.0
  0
LINE
  5
4CF
100
AcDbEntity
  8
LAY-1
  6
CONTINUOUS
 62
     2
100
AcDbLine
 10
164.407963
 20
548.468
 30
0.0
 11
173.152037
 21
548.468
 31
0.0
  0
LINE
  5
4D0
100
AcDbEntity
  8
LAY-1
  6
CONTINUOUS
 62
     2
100
AcDbLine
 10
174.599691
 20
548.468
 30
0.0
 11
177.644289
 21
548.468
 31
0.0
  0
LINE
  5
4D1
100
AcDbEntity
  8
LAY-1
  6
CONTINUOUS
 62
     2
100
AcDbLine
 10
180.908377
 20
548.468
 30
0.0
 11
184.148223
 21
548.468
 31
0.0
  0
LINE
  5
4D2
100
AcDbEntity
  8
LAY-1
  6
CONTINUOUS
 62
     2
100
AcDbLine
 10
187.848
 20
548.468
 30
0.0
 11
199.104
 21
548.468
 31
0.0
  0
LINE
  5
4D3
100
AcDbEntity
  8
LAY-1
  6
CONTINUOUS
 62
     2
100
AcDbLine
 10
200.364
 20
548.468
 30
0.0
 11
203.22
 21
548.468
 31
0.0
  0
LINE
  5
4D4
100
AcDbEntity
  8
LAY-1
  6
CONTINUOUS
 62
     2
100
AcDbLine
 10
204.40125
 20
548.468
 30
0.0
 11
206.813162
 21
548.468
 31
0.0
  0
LINE
  5
4D5
100
AcDbEntity
  8
LAY-1
  6
CONTINUOUS
 62
     2
100
AcDbLine
 10
209.1
 20
548.468
 30
0.0
 11
211.956
 21
548.468
 31
0.0
  0
LINE
  5
4D6
100
AcDbEntity
  8
LAY-1
  6
CONTINUOUS
 62
     2
100
AcDbLine
 10
153.66
 20
548.048
 30
0.0
 11
156.6
 21
548.048
 31
0.0
  0
LINE
  5
4D7
100
AcDbEntity
  8
LAY-1
  6
CONTINUOUS
 62
     2
100
AcDbLine
 10
159.885911
 20
548.048
 30
0.0
 11
162.915019
 21
548.048
 31
0.0
  0
LINE
  5
4D8
100
AcDbEntity
  8
LAY-1
  6
CONTINUOUS
 62
     2
100
AcDbLine
 10
164.347856
 20
548.048
 30
0.0
 11
173.212144
 21
548.048
 31
0.0
  0
LINE
  5
4D9
100
AcDbEntity
  8
LAY-1
  6
CONTINUOUS
 62
     2
100
AcDbLine
 10
174.644981
 20
548.048
 30
0.0
 11
177.674089
 21
548.048
 31
0.0
  0
LINE
  5
4DA
100
AcDbEntity
  8
LAY-1
  6
CONTINUOUS
 62
     2
100
AcDbLine
 10
180.529747
 20
548.048
 30
0.0
 11
183.769593
 21
548.048
 31
0.0
  0
LINE
  5
4DB
100
AcDbEntity
  8
LAY-1
  6
CONTINUOUS
 62
     2
100
AcDbLine
 10
187.848
 20
548.048
 30
0.0
 11
199.104
 21
548.048
 31
0.0
  0
LINE
  5
4DC
100
AcDbEntity
  8
LAY-1
  6
CONTINUOUS
 62
     2
100
AcDbLine
 10
200.364
 20
548.048
 30
0.0
 11
203.22
 21
548.048
 31
0.0
  0
LINE
  5
4DD
100
AcDbEntity
  8
LAY-1
  6
CONTINUOUS
 62
     2
100
AcDbLine
 10
204.677647
 20
548.048
 30
0.0
 11
207.089559
 21
548.048
 31
0.0
  0
LINE
  5
4DE
100
AcDbEntity
  8
LAY-1
  6
CONTINUOUS
 62
     2
100
AcDbLine
 10
209.1
 20
548.048
 30
0.0
 11
211.956
 21
548.048
 31
0.0
  0
LINE
  5
4DF
100
AcDbEntity
  8
LAY-1
  6
CONTINUOUS
 62
     2
100
AcDbLine
 10
153.66
 20
547.628
 30
0.0
 11
156.6
 21
547.628
 31
0.0
  0
LINE
  5
4E0
100
AcDbEntity
  8
LAY-1
  6
CONTINUOUS
 62
     2
100
AcDbLine
 10
159.876
 20
547.628
 30
0.0
 11
162.9
 21
547.628
 31
0.0
  0
LINE
  5
4E1
100
AcDbEntity
  8
LAY-1
  6
CONTINUOUS
 62
     2
100
AcDbLine
 10
164.328
 20
547.628
 30
0.0
 11
173.232
 21
547.628
 31
0.0
  0
LINE
  5
4E2
100
AcDbEntity
  8
LAY-1
  6
CONTINUOUS
 62
     2
100
AcDbLine
 10
174.66
 20
547.628
 30
0.0
 11
177.684
 21
547.628
 31
0.0
  0
LINE
  5
4E3
100
AcDbEntity
  8
LAY-1
  6
CONTINUOUS
 62
     2
100
AcDbLine
 10
180.151118
 20
547.628
 30
0.0
 11
183.390964
 21
547.628
 31
0.0
  0
LINE
  5
4E4
100
AcDbEntity
  8
LAY-1
  6
CONTINUOUS
 62
     2
100
AcDbLine
 10
187.848
 20
547.628
 30
0.0
 11
199.104
 21
547.628
 31
0.0
  0
LINE
  5
4E5
100
AcDbEntity
  8
LAY-1
  6
CONTINUOUS
 62
     2
100
AcDbLine
 10
200.364
 20
547.628
 30
0.0
 11
203.22
 21
547.628
 31
0.0
  0
LINE
  5
4E6
100
AcDbEntity
  8
LAY-1
  6
CONTINUOUS
 62
     2
100
AcDbLine
 10
204.954044
 20
547.628
 30
0.0
 11
207.365956
 21
547.628
 31
0.0
  0
LINE
  5
4E7
100
AcDbEntity
  8
LAY-1
  6
CONTINUOUS
 62
     2
100
AcDbLine
 10
209.1
 20
547.628
 30
0.0
 11
211.956
 21
547.628
 31
0.0
  0
LINE
  5
4E8
100
AcDbEntity
  8
LAY-1
  6
CONTINUOUS
 62
     2
100
AcDbLine
 10
153.66
 20
547.208
 30
0.0
 11
156.6
 21
547.208
 31
0.0
  0
LINE
  5
4E9
100
AcDbEntity
  8
LAY-1
  6
CONTINUOUS
 62
     2
100
AcDbLine
 10
159.885911
 20
547.208
 30
0.0
 11
162.915019
 21
547.208
 31
0.0
  0
LINE
  5
4EA
100
AcDbEntity
  8
LAY-1
  6
CONTINUOUS
 62
     2
100
AcDbLine
 10
164.347856
 20
547.208
 30
0.0
 11
173.212144
 21
547.208
 31
0.0
  0
LINE
  5
4EB
100
AcDbEntity
  8
LAY-1
  6
CONTINUOUS
 62
     2
100
AcDbLine
 10
174.644981
 20
547.208
 30
0.0
 11
177.674089
 21
547.208
 31
0.0
  0
LINE
  5
4EC
100
AcDbEntity
  8
LAY-1
  6
CONTINUOUS
 62
     2
100
AcDbLine
 10
179.772488
 20
547.208
 30
0.0
 11
183.012334
 21
547.208
 31
0.0
  0
LINE
  5
4ED
100
AcDbEntity
  8
LAY-1
  6
CONTINUOUS
 62
     2
100
AcDbLine
 10
187.848
 20
547.208
 30
0.0
 11
199.104
 21
547.208
 31
0.0
  0
LINE
  5
4EE
100
AcDbEntity
  8
LAY-1
  6
CONTINUOUS
 62
     2
100
AcDbLine
 10
200.364
 20
547.208
 30
0.0
 11
203.22
 21
547.208
 31
0.0
  0
LINE
  5
4EF
100
AcDbEntity
  8
LAY-1
  6
CONTINUOUS
 62
     2
100
AcDbLine
 10
205.230441
 20
547.208
 30
0.0
 11
207.642353
 21
547.208
 31
0.0
  0
LINE
  5
4F0
100
AcDbEntity
  8
LAY-1
  6
CONTINUOUS
 62
     2
100
AcDbLine
 10
209.1
 20
547.208
 30
0.0
 11
211.956
 21
547.208
 31
0.0
  0
LINE
  5
4F1
100
AcDbEntity
  8
LAY-1
  6
CONTINUOUS
 62
     2
100
AcDbLine
 10
153.66
 20
546.788
 30
0.0
 11
156.6
 21
546.788
 31
0.0
  0
LINE
  5
4F2
100
AcDbEntity
  8
LAY-1
  6
CONTINUOUS
 62
     2
100
AcDbLine
 10
159.915711
 20
546.788
 30
0.0
 11
162.960309
 21
546.788
 31
0.0
  0
LINE
  5
4F3
100
AcDbEntity
  8
LAY-1
  6
CONTINUOUS
 62
     2
100
AcDbLine
 10
164.407963
 20
546.788
 30
0.0
 11
173.152037
 21
546.788
 31
0.0
  0
LINE
  5
4F4
100
AcDbEntity
  8
LAY-1
  6
CONTINUOUS
 62
     2
100
AcDbLine
 10
174.599691
 20
546.788
 30
0.0
 11
177.644289
 21
546.788
 31
0.0
  0
LINE
  5
4F5
100
AcDbEntity
  8
LAY-1
  6
CONTINUOUS
 62
     2
100
AcDbLine
 10
179.393859
 20
546.788
 30
0.0
 11
182.633704
 21
546.788
 31
0.0
  0
LINE
  5
4F6
100
AcDbEntity
  8
LAY-1
  6
CONTINUOUS
 62
     2
100
AcDbLine
 10
187.848
 20
546.788
 30
0.0
 11
199.104
 21
546.788
 31
0.0
  0
LINE
  5
4F7
100
AcDbEntity
  8
LAY-1
  6
CONTINUOUS
 62
     2
100
AcDbLine
 10
200.364
 20
546.788
 30
0.0
 11
203.22
 21
546.788
 31
0.0
  0
LINE
  5
4F8
100
AcDbEntity
  8
LAY-1
  6
CONTINUOUS
 62
     2
100
AcDbLine
 10
205.506838
 20
546.788
 30
0.0
 11
207.91875
 21
546.788
 31
0.0
  0
LINE
  5
4F9
100
AcDbEntity
  8
LAY-1
  6
CONTINUOUS
 62
     2
100
AcDbLine
 10
209.1
 20
546.788
 30
0.0
 11
211.956
 21
546.788
 31
0.0
  0
LINE
  5
4FA
100
AcDbEntity
  8
LAY-1
  6
CONTINUOUS
 62
     2
100
AcDbLine
 10
153.66
 20
546.368
 30
0.0
 11
156.6
 21
546.368
 31
0.0
  0
LINE
  5
4FB
100
AcDbEntity
  8
LAY-1
  6
CONTINUOUS
 62
     2
100
AcDbLine
 10
159.965602
 20
546.368
 30
0.0
 11
163.036586
 21
546.368
 31
0.0
  0
LINE
  5
4FC
100
AcDbEntity
  8
LAY-1
  6
CONTINUOUS
 62
     2
100
AcDbLine
 10
164.510023
 20
546.368
 30
0.0
 11
173.049977
 21
546.368
 31
0.0
  0
LINE
  5
4FD
100
AcDbEntity
  8
LAY-1
  6
CONTINUOUS
 62
     2
100
AcDbLine
 10
174.523414
 20
546.368
 30
0.0
 11
177.594398
 21
546.368
 31
0.0
  0
LINE
  5
4FE
100
AcDbEntity
  8
LAY-1
  6
CONTINUOUS
 62
     2
100
AcDbLine
 10
179.015229
 20
546.368
 30
0.0
 11
182.255075
 21
546.368
 31
0.0
  0
LINE
  5
4FF
100
AcDbEntity
  8
LAY-1
  6
CONTINUOUS
 62
     2
100
AcDbLine
 10
187.848
 20
546.368
 30
0.0
 11
190.788
 21
546.368
 31
0.0
  0
LINE
  5
500
100
AcDbEntity
  8
LAY-1
  6
CONTINUOUS
 62
     2
100
AcDbLine
 10
200.364
 20
546.368
 30
0.0
 11
203.22
 21
546.368
 31
0.0
  0
LINE
  5
501
100
AcDbEntity
  8
LAY-1
  6
CONTINUOUS
 62
     2
100
AcDbLine
 10
205.783235
 20
546.368
 30
0.0
 11
208.195147
 21
546.368
 31
0.0
  0
LINE
  5
502
100
AcDbEntity
  8
LAY-1
  6
CONTINUOUS
 62
     2
100
AcDbLine
 10
209.1
 20
546.368
 30
0.0
 11
211.956
 21
546.368
 31
0.0
  0
LINE
  5
503
100
AcDbEntity
  8
LAY-1
  6
CONTINUOUS
 62
     2
100
AcDbLine
 10
153.66
 20
545.948
 30
0.0
 11
156.6
 21
545.948
 31
0.0
  0
LINE
  5
504
100
AcDbEntity
  8
LAY-1
  6
CONTINUOUS
 62
     2
100
AcDbLine
 10
160.035927
 20
545.948
 30
0.0
 11
163.145109
 21
545.948
 31
0.0
  0
LINE
  5
505
100
AcDbEntity
  8
LAY-1
  6
CONTINUOUS
 62
     2
100
AcDbLine
 10
164.657149
 20
545.948
 30
0.0
 11
172.902851
 21
545.948
 31
0.0
  0
LINE
  5
506
100
AcDbEntity
  8
LAY-1
  6
CONTINUOUS
 62
     2
100
AcDbLine
 10
174.414891
 20
545.948
 30
0.0
 11
177.524073
 21
545.948
 31
0.0
  0
LINE
  5
507
100
AcDbEntity
  8
LAY-1
  6
CONTINUOUS
 62
     2
100
AcDbLine
 10
178.6366
 20
545.948
 30
0.0
 11
181.876445
 21
545.948
 31
0.0
  0
LINE
  5
508
100
AcDbEntity
  8
LAY-1
  6
CONTINUOUS
 62
     2
100
AcDbLine
 10
187.848
 20
545.948
 30
0.0
 11
190.788
 21
545.948
 31
0.0
  0
LINE
  5
509
100
AcDbEntity
  8
LAY-1
  6
CONTINUOUS
 62
     2
100
AcDbLine
 10
200.364
 20
545.948
 30
0.0
 11
203.22
 21
545.948
 31
0.0
  0
LINE
  5
50A
100
AcDbEntity
  8
LAY-1
  6
CONTINUOUS
 62
     2
100
AcDbLine
 10
206.059632
 20
545.948
 30
0.0
 11
208.471544
 21
545.948
 31
0.0
  0
LINE
  5
50B
100
AcDbEntity
  8
LAY-1
  6
CONTINUOUS
 62
     2
100
AcDbLine
 10
209.1
 20
545.948
 30
0.0
 11
211.956
 21
545.948
 31
0.0
  0
LINE
  5
50C
100
AcDbEntity
  8
LAY-1
  6
CONTINUOUS
 62
     2
100
AcDbLine
 10
153.66
 20
545.528
 30
0.0
 11
156.6
 21
545.528
 31
0.0
  0
LINE
  5
50D
100
AcDbEntity
  8
LAY-1
  6
CONTINUOUS
 62
     2
100
AcDbLine
 10
160.127185
 20
545.528
 30
0.0
 11
163.287787
 21
545.528
 31
0.0
  0
LINE
  5
50E
100
AcDbEntity
  8
LAY-1
  6
CONTINUOUS
 62
     2
100
AcDbLine
 10
164.854404
 20
545.528
 30
0.0
 11
172.705596
 21
545.528
 31
0.0
  0
LINE
  5
50F
100
AcDbEntity
  8
LAY-1
  6
CONTINUOUS
 62
     2
100
AcDbLine
 10
174.272213
 20
545.528
 30
0.0
 11
177.432815
 21
545.528
 31
0.0
  0
LINE
  5
510
100
AcDbEntity
  8
LAY-1
  6
CONTINUOUS
 62
     2
100
AcDbLine
 10
178.320758
 20
545.528
 30
0.0
 11
181.497816
 21
545.528
 31
0.0
  0
LINE
  5
511
100
AcDbEntity
  8
LAY-1
  6
CONTINUOUS
 62
     2
100
AcDbLine
 10
187.848
 20
545.528
 30
0.0
 11
190.788
 21
545.528
 31
0.0
  0
LINE
  5
512
100
AcDbEntity
  8
LAY-1
  6
CONTINUOUS
 62
     2
100
AcDbLine
 10
200.364
 20
545.528
 30
0.0
 11
203.22
 21
545.528
 31
0.0
  0
LINE
  5
513
100
AcDbEntity
  8
LAY-1
  6
CONTINUOUS
 62
     2
100
AcDbLine
 10
206.336029
 20
545.528
 30
0.0
 11
208.747941
 21
545.528
 31
0.0
  0
LINE
  5
514
100
AcDbEntity
  8
LAY-1
  6
CONTINUOUS
 62
     2
100
AcDbLine
 10
209.1
 20
545.528
 30
0.0
 11
211.956
 21
545.528
 31
0.0
  0
LINE
  5
515
100
AcDbEntity
  8
LAY-1
  6
CONTINUOUS
 62
     2
100
AcDbLine
 10
153.66
 20
545.108
 30
0.0
 11
156.6
 21
545.108
 31
0.0
  0
LINE
  5
516
100
AcDbEntity
  8
LAY-1
  6
CONTINUOUS
 62
     2
100
AcDbLine
 10
160.240046
 20
545.108
 30
0.0
 11
163.467374
 21
545.108
 31
0.0
  0
LINE
  5
517
100
AcDbEntity
  8
LAY-1
  6
CONTINUOUS
 62
     2
100
AcDbLine
 10
165.109863
 20
545.108
 30
0.0
 11
172.450137
 21
545.108
 31
0.0
  0
LINE
  5
518
100
AcDbEntity
  8
LAY-1
  6
CONTINUOUS
 62
     2
100
AcDbLine
 10
174.092626
 20
545.108
 30
0.0
 11
177.319954
 21
545.108
 31
0.0
  0
LINE
  5
519
100
AcDbEntity
  8
LAY-1
  6
CONTINUOUS
 62
     2
100
AcDbLine
 10
178.21852
 20
545.108
 30
0.0
 11
181.119186
 21
545.108
 31
0.0
  0
LINE
  5
51A
100
AcDbEntity
  8
LAY-1
  6
CONTINUOUS
 62
     2
100
AcDbLine
 10
187.848
 20
545.108
 30
0.0
 11
190.788
 21
545.108
 31
0.0
  0
LINE
  5
51B
100
AcDbEntity
  8
LAY-1
  6
CONTINUOUS
 62
     2
100
AcDbLine
 10
200.364
 20
545.108
 30
0.0
 11
203.22
 21
545.108
 31
0.0
  0
LINE
  5
51C
100
AcDbEntity
  8
LAY-1
  6
CONTINUOUS
 62
     2
100
AcDbLine
 10
206.612426
 20
545.108
 30
0.0
 11
209.024338
 21
545.108
 31
0.0
  0
LINE
  5
51D
100
AcDbEntity
  8
LAY-1
  6
CONTINUOUS
 62
     2
100
AcDbLine
 10
209.1
 20
545.108
 30
0.0
 11
211.956
 21
545.108
 31
0.0
  0
LINE
  5
51E
100
AcDbEntity
  8
LAY-1
  6
CONTINUOUS
 62
     2
100
AcDbLine
 10
153.66
 20
544.688
 30
0.0
 11
156.6
 21
544.688
 31
0.0
  0
LINE
  5
51F
100
AcDbEntity
  8
LAY-1
  6
CONTINUOUS
 62
     2
100
AcDbLine
 10
160.375381
 20
544.688
 30
0.0
 11
163.687771
 21
544.688
 31
0.0
  0
LINE
  5
520
100
AcDbEntity
  8
LAY-1
  6
CONTINUOUS
 62
     2
100
AcDbLine
 10
165.436842
 20
544.688
 30
0.0
 11
172.123158
 21
544.688
 31
0.0
  0
LINE
  5
521
100
AcDbEntity
  8
LAY-1
  6
CONTINUOUS
 62
     2
100
AcDbLine
 10
173.872229
 20
544.688
 30
0.0
 11
177.184619
 21
544.688
 31
0.0
  0
LINE
  5
522
100
AcDbEntity
  8
LAY-1
  6
CONTINUOUS
 62
     2
100
AcDbLine
 10
178.096248
 20
544.688
 30
0.0
 11
180.740557
 21
544.688
 31
0.0
  0
LINE
  5
523
100
AcDbEntity
  8
LAY-1
  6
CONTINUOUS
 62
     2
100
AcDbLine
 10
187.848
 20
544.688
 30
0.0
 11
190.788
 21
544.688
 31
0.0
  0
LINE
  5
524
100
AcDbEntity
  8
LAY-1
  6
CONTINUOUS
 62
     2
100
AcDbLine
 10
200.364
 20
544.688
 30
0.0
 11
203.22
 21
544.688
 31
0.0
  0
LINE
  5
525
100
AcDbEntity
  8
LAY-1
  6
CONTINUOUS
 62
     2
100
AcDbLine
 10
206.888824
 20
544.688
 30
0.0
 11
211.956
 21
544.688
 31
0.0
  0
LINE
  5
526
100
AcDbEntity
  8
LAY-1
  6
CONTINUOUS
 62
     2
100
AcDbLine
 10
153.66
 20
544.268
 30
0.0
 11
156.6
 21
544.268
 31
0.0
  0
LINE
  5
527
100
AcDbEntity
  8
LAY-1
  6
CONTINUOUS
 62
     2
100
AcDbLine
 10
160.534297
 20
544.268
 30
0.0
 11
163.954567
 21
544.268
 31
0.0
  0
LINE
  5
528
100
AcDbEntity
  8
LAY-1
  6
CONTINUOUS
 62
     2
100
AcDbLine
 10
165.859263
 20
544.268
 30
0.0
 11
171.700737
 21
544.268
 31
0.0
  0
LINE
  5
529
100
AcDbEntity
  8
LAY-1
  6
CONTINUOUS
 62
     2
100
AcDbLine
 10
173.605433
 20
544.268
 30
0.0
 11
177.025703
 21
544.268
 31
0.0
  0
LINE
  5
52A
100
AcDbEntity
  8
LAY-1
  6
CONTINUOUS
 62
     2
100
AcDbLine
 10
177.953138
 20
544.268
 30
0.0
 11
186.42
 21
544.268
 31
0.0
  0
LINE
  5
52B
100
AcDbEntity
  8
LAY-1
  6
CONTINUOUS
 62
     2
100
AcDbLine
 10
187.848
 20
544.268
 30
0.0
 11
199.104
 21
544.268
 31
0.0
  0
LINE
  5
52C
100
AcDbEntity
  8
LAY-1
  6
CONTINUOUS
 62
     2
100
AcDbLine
 10
200.364
 20
544.268
 30
0.0
 11
203.22
 21
544.268
 31
0.0
  0
LINE
  5
52D
100
AcDbEntity
  8
LAY-1
  6
CONTINUOUS
 62
     2
100
AcDbLine
 10
207.165221
 20
544.268
 30
0.0
 11
211.956
 21
544.268
 31
0.0
  0
LINE
  5
52E
100
AcDbEntity
  8
LAY-1
  6
CONTINUOUS
 62
     2
100
AcDbLine
 10
153.66
 20
543.848
 30
0.0
 11
156.6
 21
543.848
 31
0.0
  0
LINE
  5
52F
100
AcDbEntity
  8
LAY-1
  6
CONTINUOUS
 62
     2
100
AcDbLine
 10
160.718188
 20
543.848
 30
0.0
 11
164.276002
 21
543.848
 31
0.0
  0
LINE
  5
530
100
AcDbEntity
  8
LAY-1
  6
CONTINUOUS
 62
     2
100
AcDbLine
 10
166.428
 20
543.848
 30
0.0
 11
171.132
 21
543.848
 31
0.0
  0
LINE
  5
531
100
AcDbEntity
  8
LAY-1
  6
CONTINUOUS
 62
     2
100
AcDbLine
 10
173.283998
 20
543.848
 30
0.0
 11
176.841812
 21
543.848
 31
0.0
  0
LINE
  5
532
100
AcDbEntity
  8
LAY-1
  6
CONTINUOUS
 62
     2
100
AcDbLine
 10
177.7882
 20
543.848
 30
0.0
 11
186.42
 21
543.848
 31
0.0
  0
LINE
  5
533
100
AcDbEntity
  8
LAY-1
  6
CONTINUOUS
 62
     2
100
AcDbLine
 10
187.848
 20
543.848
 30
0.0
 11
199.104
 21
543.848
 31
0.0
  0
LINE
  5
534
100
AcDbEntity
  8
LAY-1
  6
CONTINUOUS
 62
     2
100
AcDbLine
 10
200.364
 20
543.848
 30
0.0
 11
203.22
 21
543.848
 31
0.0
  0
LINE
  5
535
100
AcDbEntity
  8
LAY-1
  6
CONTINUOUS
 62
     2
100
AcDbLine
 10
207.441618
 20
543.848
 30
0.0
 11
211.956
 21
543.848
 31
0.0
  0
LINE
  5
536
100
AcDbEntity
  8
LAY-1
  6
CONTINUOUS
 62
     2
100
AcDbLine
 10
153.66
 20
543.428
 30
0.0
 11
156.6
 21
543.428
 31
0.0
  0
LINE
  5
537
100
AcDbEntity
  8
LAY-1
  6
CONTINUOUS
 62
     2
100
AcDbLine
 10
160.928808
 20
543.428
 30
0.0
 11
164.664857
 21
543.428
 31
0.0
  0
LINE
  5
538
100
AcDbEntity
  8
LAY-1
  6
CONTINUOUS
 62
     2
100
AcDbLine
 10
167.303415
 20
543.428
 30
0.0
 11
170.256585
 21
543.428
 31
0.0
  0
LINE
  5
539
100
AcDbEntity
  8
LAY-1
  6
CONTINUOUS
 62
     2
100
AcDbLine
 10
172.895143
 20
543.428
 30
0.0
 11
176.631192
 21
543.428
 31
0.0
  0
LINE
  5
53A
100
AcDbEntity
  8
LAY-1
  6
CONTINUOUS
 62
     2
100
AcDbLine
 10
177.600208
 20
543.428
 30
0.0
 11
186.42
 21
543.428
 31
0.0
  0
LINE
  5
53B
100
AcDbEntity
  8
LAY-1
  6
CONTINUOUS
 62
     2
100
AcDbLine
 10
187.848
 20
543.428
 30
0.0
 11
199.104
 21
543.428
 31
0.0
  0
LINE
  5
53C
100
AcDbEntity
  8
LAY-1
  6
CONTINUOUS
 62
     2
100
AcDbLine
 10
200.364
 20
543.428
 30
0.0
 11
203.22
 21
543.428
 31
0.0
  0
LINE
  5
53D
100
AcDbEntity
  8
LAY-1
  6
CONTINUOUS
 62
     2
100
AcDbLine
 10
207.718015
 20
543.428
 30
0.0
 11
211.956
 21
543.428
 31
0.0
  0
LINE
  5
53E
100
AcDbEntity
  8
LAY-1
  6
CONTINUOUS
 62
     2
100
AcDbLine
 10
153.66
 20
543.008
 30
0.0
 11
156.6
 21
543.008
 31
0.0
  0
LINE
  5
53F
100
AcDbEntity
  8
LAY-1
  6
CONTINUOUS
 62
     2
100
AcDbLine
 10
161.168376
 20
543.008
 30
0.0
 11
165.142693
 21
543.008
 31
0.0
  0
LINE
  5
540
100
AcDbEntity
  8
LAY-1
  6
CONTINUOUS
 62
     2
100
AcDbLine
 10
172.417307
 20
543.008
 30
0.0
 11
176.391624
 21
543.008
 31
0.0
  0
LINE
  5
541
100
AcDbEntity
  8
LAY-1
  6
CONTINUOUS
 62
     2
100
AcDbLine
 10
177.387652
 20
543.008
 30
0.0
 11
186.42
 21
543.008
 31
0.0
  0
LINE
  5
542
100
AcDbEntity
  8
LAY-1
  6
CONTINUOUS
 62
     2
100
AcDbLine
 10
187.848
 20
543.008
 30
0.0
 11
199.104
 21
543.008
 31
0.0
  0
LINE
  5
543
100
AcDbEntity
  8
LAY-1
  6
CONTINUOUS
 62
     2
100
AcDbLine
 10
200.364
 20
543.008
 30
0.0
 11
203.22
 21
543.008
 31
0.0
  0
LINE
  5
544
100
AcDbEntity
  8
LAY-1
  6
CONTINUOUS
 62
     2
100
AcDbLine
 10
207.994412
 20
543.008
 30
0.0
 11
211.956
 21
543.008
 31
0.0
  0
LINE
  5
545
100
AcDbEntity
  8
LAY-1
  6
CONTINUOUS
 62
     2
100
AcDbLine
 10
153.66
 20
542.588
 30
0.0
 11
156.6
 21
542.588
 31
0.0
  0
LINE
  5
546
100
AcDbEntity
  8
LAY-1
  6
CONTINUOUS
 62
     2
100
AcDbLine
 10
161.439726
 20
542.588
 30
0.0
 11
165.751337
 21
542.588
 31
0.0
  0
LINE
  5
547
100
AcDbEntity
  8
LAY-1
  6
CONTINUOUS
 62
     2
100
AcDbLine
 10
171.808663
 20
542.588
 30
0.0
 11
176.120274
 21
542.588
 31
0.0
  0
LINE
  5
548
100
AcDbEntity
  8
LAY-1
  6
CONTINUOUS
 62
     2
100
AcDbLine
 10
177.14866
 20
542.588
 30
0.0
 11
186.42
 21
542.588
 31
0.0
  0
LINE
  5
549
100
AcDbEntity
  8
LAY-1
  6
CONTINUOUS
 62
     2
100
AcDbLine
 10
187.848
 20
542.588
 30
0.0
 11
199.104
 21
542.588
 31
0.0
  0
LINE
  5
54A
100
AcDbEntity
  8
LAY-1
  6
CONTINUOUS
 62
     2
100
AcDbLine
 10
200.364
 20
542.588
 30
0.0
 11
203.22
 21
542.588
 31
0.0
  0
LINE
  5
54B
100
AcDbEntity
  8
LAY-1
  6
CONTINUOUS
 62
     2
100
AcDbLine
 10
208.270809
 20
542.588
 30
0.0
 11
211.956
 21
542.588
 31
0.0
  0
LINE
  5
54C
100
AcDbEntity
  8
LAY-1
  6
CONTINUOUS
 62
     2
100
AcDbLine
 10
153.66
 20
542.168
 30
0.0
 11
156.6
 21
542.168
 31
0.0
  0
LINE
  5
54D
100
AcDbEntity
  8
LAY-1
  6
CONTINUOUS
 62
     2
100
AcDbLine
 10
161.746536
 20
542.168
 30
0.0
 11
166.597616
 21
542.168
 31
0.0
  0
LINE
  5
54E
100
AcDbEntity
  8
LAY-1
  6
CONTINUOUS
 62
     2
100
AcDbLine
 10
170.962384
 20
542.168
 30
0.0
 11
175.813464
 21
542.168
 31
0.0
  0
LINE
  5
54F
100
AcDbEntity
  8
LAY-1
  6
CONTINUOUS
 62
     2
100
AcDbLine
 10
176.880893
 20
542.168
 30
0.0
 11
186.42
 21
542.168
 31
0.0
  0
LINE
  5
550
100
AcDbEntity
  8
LAY-1
  6
CONTINUOUS
 62
     2
100
AcDbLine
 10
187.848
 20
542.168
 30
0.0
 11
199.104
 21
542.168
 31
0.0
  0
LINE
  5
551
100
AcDbEntity
  8
LAY-1
  6
CONTINUOUS
 62
     2
100
AcDbLine
 10
200.364
 20
542.168
 30
0.0
 11
203.22
 21
542.168
 31
0.0
  0
LINE
  5
552
100
AcDbEntity
  8
LAY-1
  6
CONTINUOUS
 62
     2
100
AcDbLine
 10
208.547206
 20
542.168
 30
0.0
 11
211.956
 21
542.168
 31
0.0
  0
LINE
  5
553
100
AcDbEntity
  8
LAY-1
  6
CONTINUOUS
 62
     2
100
AcDbLine
 10
153.66
 20
541.748
 30
0.0
 11
156.6
 21
541.748
 31
0.0
  0
LINE
  5
554
100
AcDbEntity
  8
LAY-1
  6
CONTINUOUS
 62
     2
100
AcDbLine
 10
162.093684
 20
541.748
 30
0.0
 11
175.466316
 21
541.748
 31
0.0
  0
LINE
  5
555
100
AcDbEntity
  8
LAY-1
  6
CONTINUOUS
 62
     2
100
AcDbLine
 10
176.581389
 20
541.748
 30
0.0
 11
186.42
 21
541.748
 31
0.0
  0
LINE
  5
556
100
AcDbEntity
  8
LAY-1
  6
CONTINUOUS
 62
     2
100
AcDbLine
 10
187.848
 20
541.748
 30
0.0
 11
199.104
 21
541.748
 31
0.0
  0
LINE
  5
557
100
AcDbEntity
  8
LAY-1
  6
CONTINUOUS
 62
     2
100
AcDbLine
 10
200.364
 20
541.748
 30
0.0
 11
203.22
 21
541.748
 31
0.0
  0
LINE
  5
558
100
AcDbEntity
  8
LAY-1
  6
CONTINUOUS
 62
     2
100
AcDbLine
 10
208.823603
 20
541.748
 30
0.0
 11
211.956
 21
541.748
 31
0.0
  0
LINE
  5
559
100
AcDbEntity
  8
LAY-1
  6
CONTINUOUS
 62
     2
100
AcDbLine
 10
162.487845
 20
541.328
 30
0.0
 11
175.072155
 21
541.328
 31
0.0
  0
LINE
  5
55A
100
AcDbEntity
  8
LAY-1
  6
CONTINUOUS
 62
     2
100
AcDbLine
 10
162.938526
 20
540.908
 30
0.0
 11
174.621474
 21
540.908
 31
0.0
  0
LINE
  5
55B
100
AcDbEntity
  8
LAY-1
  6
CONTINUOUS
 62
     2
100
AcDbLine
 10
163.460074
 20
540.488
 30
0.0
 11
174.099926
 21
540.488
 31
0.0
  0
LINE
  5
55C
100
AcDbEntity
  8
LAY-1
  6
CONTINUOUS
 62
     2
100
AcDbLine
 10
164.076
 20
540.068
 30
0.0
 11
173.484
 21
540.068
 31
0.0
  0
LINE
  5
55D
100
AcDbEntity
  8
LAY-1
  6
CONTINUOUS
 62
     2
100
AcDbLine
 10
164.830213
 20
539.648
 30
0.0
 11
172.729787
 21
539.648
 31
0.0
  0
LINE
  5
55E
100
AcDbEntity
  8
LAY-1
  6
CONTINUOUS
 62
     2
100
AcDbLine
 10
165.82683
 20
539.228
 30
0.0
 11
171.73317
 21
539.228
 31
0.0
  0
LINE
  5
55F
100
AcDbEntity
  8
LAY-1
  6
CONTINUOUS
 62
     2
100
AcDbLine
 10
167.55983
 20
538.808
 30
0.0
 11
170.00017
 21
538.808
 31
0.0
  0
ENDSEC
  0
SECTION
  2
OBJECTS
  0
DICTIONARY
  5
19
100
AcDbDictionary
  3
ACAD_GROUP
350
1A
  3
ACAD_MLINESTYLE
350
1B
  0
DICTIONARY
  5
1A
102
{ACAD_REACTORS
330
19
102
}
100
AcDbDictionary
  0
DICTIONARY
  5
1B
102
{ACAD_REACTORS
330
19
102
}
100
AcDbDictionary
  3
STANDARD
350
1C
  0
MLINESTYLE
  5
1C
102
{ACAD_REACTORS
330
1B
102
}
100
AcDbMlineStyle
  2
Standard
 70
     0
  3

 62
     0
 51
90.0
 52
90.0
 71
     2
 49
0.5
 62
   256
  6
ByLayer
 49
-0.5
 62
   256
  6
ByLayer
  0
ENDSEC
  0
EOF
